  0
SECTION
  2
HEADER
  9
$ACADVER
  1
AC1032
  9
$ACADMAINTVER
 90
      197
  9
$DWGCODEPAGE
  3
ANSI_1252
  9
$LASTSAVEDBY
  1
gregb
  9
$REQUIREDVERSIONS
160
                 0
  9
$INSBASE
 10
0.0
 20
0.0
 30
0.0
  9
$EXTMIN
 10
10150.83068312071
 20
29480.53595042699
 30
0.0
  9
$EXTMAX
 10
10349.76799084269
 20
29626.32801076602
 30
0.0
  9
$LIMMIN
 10
0.0
 20
0.0
  9
$LIMMAX
 10
12.0
 20
9.0
  9
$ORTHOMODE
 70
     1
  9
$REGENMODE
 70
     1
  9
$FILLMODE
 70
     1
  9
$QTEXTMODE
 70
     0
  9
$MIRRTEXT
 70
     0
  9
$LTSCALE
 40
1.0
  9
$ATTMODE
 70
     1
  9
$TEXTSIZE
 40
0.2
  9
$TRACEWID
 40
0.05
  9
$TEXTSTYLE
  7
Standard
  9
$CLAYER
  8
freecads.com
  9
$CELTYPE
  6
ByLayer
  9
$CECOLOR
 62
   256
  9
$CELTSCALE
 40
1.0
  9
$DISPSILH
 70
     1
  9
$DIMSCALE
 40
1.0
  9
$DIMASZ
 40
0.18
  9
$DIMEXO
 40
0.0625
  9
$DIMDLI
 40
0.38
  9
$DIMRND
 40
0.0
  9
$DIMDLE
 40
0.0
  9
$DIMEXE
 40
0.18
  9
$DIMTP
 40
0.0
  9
$DIMTM
 40
0.0
  9
$DIMTXT
 40
0.18
  9
$DIMCEN
 40
0.09
  9
$DIMTSZ
 40
0.0
  9
$DIMTOL
 70
     0
  9
$DIMLIM
 70
     0
  9
$DIMTIH
 70
     1
  9
$DIMTOH
 70
     1
  9
$DIMSE1
 70
     0
  9
$DIMSE2
 70
     0
  9
$DIMTAD
 70
     0
  9
$DIMZIN
 70
     0
  9
$DIMBLK
  1

  9
$DIMASO
 70
     1
  9
$DIMSHO
 70
     1
  9
$DIMPOST
  1

  9
$DIMAPOST
  1

  9
$DIMALT
 70
     0
  9
$DIMALTD
 70
     2
  9
$DIMALTF
 40
25.4
  9
$DIMLFAC
 40
1.0
  9
$DIMTOFL
 70
     0
  9
$DIMTVP
 40
0.0
  9
$DIMTIX
 70
     0
  9
$DIMSOXD
 70
     0
  9
$DIMSAH
 70
     0
  9
$DIMBLK1
  1

  9
$DIMBLK2
  1

  9
$DIMSTYLE
  2
Standard
  9
$DIMCLRD
 70
     0
  9
$DIMCLRE
 70
     0
  9
$DIMCLRT
 70
     0
  9
$DIMTFAC
 40
1.0
  9
$DIMGAP
 40
0.09
  9
$DIMJUST
 70
     0
  9
$DIMSD1
 70
     0
  9
$DIMSD2
 70
     0
  9
$DIMTOLJ
 70
     1
  9
$DIMTZIN
 70
     0
  9
$DIMALTZ
 70
     0
  9
$DIMALTTZ
 70
     0
  9
$DIMUPT
 70
     0
  9
$DIMDEC
 70
     4
  9
$DIMTDEC
 70
     4
  9
$DIMALTU
 70
     2
  9
$DIMALTTD
 70
     2
  9
$DIMTXSTY
  7
Standard
  9
$DIMAUNIT
 70
     0
  9
$DIMADEC
 70
     0
  9
$DIMALTRND
 40
0.0
  9
$DIMAZIN
 70
     0
  9
$DIMDSEP
 70
    46
  9
$DIMATFIT
 70
     3
  9
$DIMFRAC
 70
     0
  9
$DIMLDRBLK
  1

  9
$DIMLUNIT
 70
     2
  9
$DIMLWD
 70
    -2
  9
$DIMLWE
 70
    -2
  9
$DIMTMOVE
 70
     0
  9
$DIMFXL
 40
1.0
  9
$DIMFXLON
 70
     0
  9
$DIMJOGANG
 40
0.7853981633974483
  9
$DIMTFILL
 70
     0
  9
$DIMTFILLCLR
 70
     0
  9
$DIMARCSYM
 70
     0
  9
$DIMLTYPE
  6

  9
$DIMLTEX1
  6

  9
$DIMLTEX2
  6

  9
$DIMTXTDIRECTION
 70
     0
  9
$LUNITS
 70
     2
  9
$LUPREC
 70
     4
  9
$SKETCHINC
 40
0.1
  9
$FILLETRAD
 40
0.0
  9
$AUNITS
 70
     0
  9
$AUPREC
 70
     0
  9
$MENU
  1
.
  9
$ELEVATION
 40
0.0
  9
$PELEVATION
 40
0.0
  9
$THICKNESS
 40
0.0
  9
$LIMCHECK
 70
     0
  9
$CHAMFERA
 40
0.0
  9
$CHAMFERB
 40
0.0
  9
$CHAMFERC
 40
0.0
  9
$CHAMFERD
 40
0.0
  9
$SKPOLY
 70
     0
  9
$TDCREATE
 40
2458157.371250000
  9
$TDUCREATE
 40
2458157.287916667
  9
$TDUPDATE
 40
2461016.548506945
  9
$TDUUPDATE
 40
2461016.465173611
  9
$TDINDWG
 40
0.0581944444
  9
$TDUSRTIMER
 40
0.0581944444
  9
$USRTIMER
 70
     1
  9
$ANGBASE
 50
0.0
  9
$ANGDIR
 70
     0
  9
$PDMODE
 70
     0
  9
$PDSIZE
 40
0.0
  9
$PLINEWID
 40
0.0
  9
$SPLFRAME
 70
     0
  9
$SPLINETYPE
 70
     6
  9
$SPLINESEGS
 70
     8
  9
$HANDSEED
  5
AFA1
  9
$SURFTAB1
 70
     6
  9
$SURFTAB2
 70
     6
  9
$SURFTYPE
 70
     6
  9
$SURFU
 70
     6
  9
$SURFV
 70
     6
  9
$UCSBASE
  2

  9
$UCSNAME
  2

  9
$UCSORG
 10
0.0
 20
0.0
 30
0.0
  9
$UCSXDIR
 10
1.0
 20
0.0
 30
0.0
  9
$UCSYDIR
 10
0.0
 20
1.0
 30
0.0
  9
$UCSORTHOREF
  2

  9
$UCSORTHOVIEW
 70
     0
  9
$UCSORGTOP
 10
0.0
 20
0.0
 30
0.0
  9
$UCSORGBOTTOM
 10
0.0
 20
0.0
 30
0.0
  9
$UCSORGLEFT
 10
0.0
 20
0.0
 30
0.0
  9
$UCSORGRIGHT
 10
0.0
 20
0.0
 30
0.0
  9
$UCSORGFRONT
 10
0.0
 20
0.0
 30
0.0
  9
$UCSORGBACK
 10
0.0
 20
0.0
 30
0.0
  9
$PUCSBASE
  2

  9
$PUCSNAME
  2

  9
$PUCSORG
 10
0.0
 20
0.0
 30
0.0
  9
$PUCSXDIR
 10
1.0
 20
0.0
 30
0.0
  9
$PUCSYDIR
 10
0.0
 20
1.0
 30
0.0
  9
$PUCSORTHOREF
  2

  9
$PUCSORTHOVIEW
 70
     0
  9
$PUCSORGTOP
 10
0.0
 20
0.0
 30
0.0
  9
$PUCSORGBOTTOM
 10
0.0
 20
0.0
 30
0.0
  9
$PUCSORGLEFT
 10
0.0
 20
0.0
 30
0.0
  9
$PUCSORGRIGHT
 10
0.0
 20
0.0
 30
0.0
  9
$PUCSORGFRONT
 10
0.0
 20
0.0
 30
0.0
  9
$PUCSORGBACK
 10
0.0
 20
0.0
 30
0.0
  9
$USERI1
 70
     0
  9
$USERI2
 70
     0
  9
$USERI3
 70
     0
  9
$USERI4
 70
     0
  9
$USERI5
 70
     0
  9
$USERR1
 40
0.0
  9
$USERR2
 40
0.0
  9
$USERR3
 40
0.0
  9
$USERR4
 40
0.0
  9
$USERR5
 40
0.0
  9
$WORLDVIEW
 70
     1
  9
$SHADEDGE
 70
     3
  9
$SHADEDIF
 70
    70
  9
$TILEMODE
 70
     1
  9
$MAXACTVP
 70
    64
  9
$PINSBASE
 10
0.0
 20
0.0
 30
0.0
  9
$PLIMCHECK
 70
     0
  9
$PEXTMIN
 10
0.0
 20
0.0
 30
0.0
  9
$PEXTMAX
 10
0.0
 20
0.0
 30
0.0
  9
$PLIMMIN
 10
0.0
 20
0.0
  9
$PLIMMAX
 10
12.0
 20
9.0
  9
$UNITMODE
 70
     0
  9
$VISRETAIN
 70
     1
  9
$PLINEGEN
 70
     0
  9
$PSLTSCALE
 70
     1
  9
$TREEDEPTH
 70
  3020
  9
$CMLSTYLE
  2
Standard
  9
$CMLJUST
 70
     0
  9
$CMLSCALE
 40
1.0
  9
$PROXYGRAPHICS
 70
     1
  9
$MEASUREMENT
 70
     0
  9
$CELWEIGHT
370
    -1
  9
$ENDCAPS
280
     0
  9
$JOINSTYLE
280
     0
  9
$LWDISPLAY
290
     0
  9
$INSUNITS
 70
     1
  9
$HYPERLINKBASE
  1

  9
$STYLESHEET
  1
monochrome.ctb
  9
$XEDIT
290
     1
  9
$CEPSNTYPE
380
     0
  9
$PSTYLEMODE
290
     1
  9
$FINGERPRINTGUID
  2
{358EB121-6EE0-9143-8A3E-6E8E8869FDA6}
  9
$VERSIONGUID
  2
{3D30A32D-7C45-4843-9207-502BF4E4AC92}
  9
$EXTNAMES
290
     1
  9
$PSVPSCALE
 40
0.0
  9
$OLESTARTUP
290
     0
  9
$SORTENTS
280
   127
  9
$INDEXCTL
280
     0
  9
$HIDETEXT
280
     1
  9
$XCLIPFRAME
280
     2
  9
$HALOGAP
280
     0
  9
$OBSCOLOR
 70
   257
  9
$OBSLTYPE
280
     0
  9
$INTERSECTIONDISPLAY
280
     0
  9
$INTERSECTIONCOLOR
 70
   257
  9
$DIMASSOC
280
     2
  9
$PROJECTNAME
  1

  9
$CAMERADISPLAY
290
     0
  9
$LENSLENGTH
 40
50.0
  9
$CAMERAHEIGHT
 40
0.0
  9
$STEPSPERSEC
 40
2.0
  9
$STEPSIZE
 40
6.0
  9
$3DDWFPREC
 40
2.0
  9
$PSOLWIDTH
 40
0.25
  9
$PSOLHEIGHT
 40
4.0
  9
$LOFTANG1
 40
1.570796326794896
  9
$LOFTANG2
 40
1.570796326794896
  9
$LOFTMAG1
 40
0.0
  9
$LOFTMAG2
 40
0.0
  9
$LOFTPARAM
 70
     7
  9
$LOFTNORMALS
280
     1
  9
$LATITUDE
 40
37.795
  9
$LONGITUDE
 40
-122.394
  9
$NORTHDIRECTION
 40
0.0
  9
$TIMEZONE
 70
 -8000
  9
$LIGHTGLYPHDISPLAY
280
     1
  9
$TILEMODELIGHTSYNCH
280
     1
  9
$CMATERIAL
347
96
  9
$SOLIDHIST
280
     0
  9
$SHOWHIST
280
     1
  9
$DWFFRAME
280
     2
  9
$DGNFRAME
280
     0
  9
$REALWORLDSCALE
290
     1
  9
$INTERFERECOLOR
 62
     1
  9
$INTERFEREOBJVS
345
A3
  9
$INTERFEREVPVS
346
A0
  9
$CSHADOW
280
     0
  9
$SHADOWPLANELOCATION
 40
0.0
  0
ENDSEC
  0
SECTION
  2
CLASSES
  0
CLASS
  1
ACDBDICTIONARYWDFLT
  2
AcDbDictionaryWithDefault
  3
ObjectDBX Classes
 90
        0
 91
        1
280
     0
281
     0
  0
CLASS
  1
DICTIONARYVAR
  2
AcDbDictionaryVar
  3
ObjectDBX Classes
 90
        0
 91
        9
280
     0
281
     0
  0
CLASS
  1
TABLESTYLE
  2
AcDbTableStyle
  3
ObjectDBX Classes
 90
     4095
 91
        1
280
     0
281
     0
  0
CLASS
  1
MATERIAL
  2
AcDbMaterial
  3
ObjectDBX Classes
 90
     1153
 91
        3
280
     0
281
     0
  0
CLASS
  1
VISUALSTYLE
  2
AcDbVisualStyle
  3
ObjectDBX Classes
 90
     4095
 91
       25
280
     0
281
     0
  0
CLASS
  1
SCALE
  2
AcDbScale
  3
ObjectDBX Classes
 90
     1153
 91
       35
280
     0
281
     0
  0
CLASS
  1
MLEADERSTYLE
  2
AcDbMLeaderStyle
  3
ACDB_MLEADERSTYLE_CLASS
 90
     4095
 91
        1
280
     0
281
     0
  0
CLASS
  1
CELLSTYLEMAP
  2
AcDbCellStyleMap
  3
ObjectDBX Classes
 90
     1152
 91
        1
280
     0
281
     0
  0
CLASS
  1
EXACXREFPANELOBJECT
  2
ExAcXREFPanelObject
  3
EXAC_ESW
 90
     1025
 91
        0
280
     0
281
     0
  0
CLASS
  1
NPOCOLLECTION
  2
AcDbImpNonPersistentObjectsCollection
  3
ObjectDBX Classes
 90
     1153
 91
        0
280
     0
281
     0
  0
CLASS
  1
LAYER_INDEX
  2
AcDbLayerIndex
  3
ObjectDBX Classes
 90
        0
 91
        0
280
     0
281
     0
  0
CLASS
  1
SPATIAL_INDEX
  2
AcDbSpatialIndex
  3
ObjectDBX Classes
 90
        0
 91
        0
280
     0
281
     0
  0
CLASS
  1
IDBUFFER
  2
AcDbIdBuffer
  3
ObjectDBX Classes
 90
        0
 91
        0
280
     0
281
     0
  0
CLASS
  1
ACDBSECTIONVIEWSTYLE
  2
AcDbSectionViewStyle
  3
ObjectDBX Classes
 90
     1025
 91
        2
280
     0
281
     0
  0
CLASS
  1
ACDBDETAILVIEWSTYLE
  2
AcDbDetailViewStyle
  3
ObjectDBX Classes
 90
     1025
 91
        2
280
     0
281
     0
  0
CLASS
  1
SORTENTSTABLE
  2
AcDbSortentsTable
  3
ObjectDBX Classes
 90
        0
 91
        1
280
     0
281
     0
  0
CLASS
  1
SPATIAL_FILTER
  2
AcDbSpatialFilter
  3
ObjectDBX Classes
 90
        0
 91
        0
280
     0
281
     0
  0
CLASS
  1
SOLID_BACKGROUND
  2
AcDbSolidBackground
  3
SCENEOE
 90
     4095
 91
        0
280
     0
281
     0
  0
ENDSEC
  0
SECTION
  2
TABLES
  0
TABLE
  2
VPORT
  5
8
330
0
100
AcDbSymbolTable
 70
     1
  0
VPORT
  5
94
330
8
100
AcDbSymbolTableRecord
100
AcDbViewportTableRecord
  2
*Active
 70
     0
 10
0.0
 20
0.0
 11
1.0
 21
1.0
 12
10250.41826759829
 22
29564.79106217008
 13
0.0
 23
0.0
 14
0.5
 24
0.5
 15
0.5
 25
0.5
 16
0.0
 26
0.0
 36
1.0
 17
0.0
 27
0.0
 37
0.0
 40
166.2883896607324
 41
2.066284779050736
 42
50.0
 43
0.0
 44
0.0
 50
0.0
 51
0.0
 71
     0
 72
  1000
 73
     1
 74
     3
 75
     0
 76
     0
 77
     0
 78
     0
281
     0
 65
     1
110
0.0
120
0.0
130
0.0
111
1.0
121
0.0
131
0.0
112
0.0
122
1.0
132
0.0
 79
     0
146
0.0
348
9F
 60
     3
 61
     5
292
     1
282
     1
141
0.0
142
0.0
 63
   250
421
  3355443
1001
ACAD_NAV_VCDISPLAY
1070
     3
  0
ENDTAB
  0
TABLE
  2
LTYPE
  5
5
330
0
100
AcDbSymbolTable
 70
     1
  0
LTYPE
  5
14
330
5
100
AcDbSymbolTableRecord
100
AcDbLinetypeTableRecord
  2
ByBlock
 70
     0
  3

 72
    65
 73
     0
 40
0.0
  0
LTYPE
  5
15
330
5
100
AcDbSymbolTableRecord
100
AcDbLinetypeTableRecord
  2
ByLayer
 70
     0
  3

 72
    65
 73
     0
 40
0.0
  0
LTYPE
  5
16
330
5
100
AcDbSymbolTableRecord
100
AcDbLinetypeTableRecord
  2
Continuous
 70
     0
  3
Solid line
 72
    65
 73
     0
 40
0.0
  0
ENDTAB
  0
TABLE
  2
LAYER
  5
2
102
{ACAD_XDICTIONARY
360
18E
102
}
330
0
100
AcDbSymbolTable
 70
     2
  0
LAYER
  5
10
102
{ACAD_XDICTIONARY
360
E6
102
}
330
2
100
AcDbSymbolTableRecord
100
AcDbLayerTableRecord
  2
0
 70
     0
 62
     7
  6
Continuous
370
    -3
390
F
347
98
348
0
  0
LAYER
  5
204
330
2
100
AcDbSymbolTableRecord
100
AcDbLayerTableRecord
  2
freecads.com
 70
     0
 62
     7
  6
Continuous
370
    -3
390
F
347
98
348
0
1001
AcAecLayerStandard
1000

1000

1001
AcCmTransparency
1071
        0
  0
ENDTAB
  0
TABLE
  2
STYLE
  5
3
330
0
100
AcDbSymbolTable
 70
     1
  0
STYLE
  5
11
330
3
100
AcDbSymbolTableRecord
100
AcDbTextStyleTableRecord
  2
Standard
 70
     0
 40
0.0
 41
1.0
 50
0.0
 71
     0
 42
0.2
  3
arial.ttf
  4

1001
ACAD
1000
Arial
1071
       34
  0
ENDTAB
  0
TABLE
  2
VIEW
  5
6
330
0
100
AcDbSymbolTable
 70
     0
  0
ENDTAB
  0
TABLE
  2
UCS
  5
7
330
0
100
AcDbSymbolTable
 70
     0
  0
ENDTAB
  0
TABLE
  2
APPID
  5
9
330
0
100
AcDbSymbolTable
 70
    23
  0
APPID
  5
12
330
9
100
AcDbSymbolTableRecord
100
AcDbRegAppTableRecord
  2
ACAD
 70
     0
  0
APPID
  5
DD
330
9
100
AcDbSymbolTableRecord
100
AcDbRegAppTableRecord
  2
AcadAnnoPO
 70
     0
  0
APPID
  5
DE
330
9
100
AcDbSymbolTableRecord
100
AcDbRegAppTableRecord
  2
AcadAnnotative
 70
     0
  0
APPID
  5
DF
330
9
100
AcDbSymbolTableRecord
100
AcDbRegAppTableRecord
  2
ACAD_DSTYLE_DIMJAG
 70
     0
  0
APPID
  5
E0
330
9
100
AcDbSymbolTableRecord
100
AcDbRegAppTableRecord
  2
ACAD_DSTYLE_DIMTALN
 70
     0
  0
APPID
  5
107
330
9
100
AcDbSymbolTableRecord
100
AcDbRegAppTableRecord
  2
ACAD_MLEADERVER
 70
     0
  0
APPID
  5
1A6
330
9
100
AcDbSymbolTableRecord
100
AcDbRegAppTableRecord
  2
ACAD_NAV_VCDISPLAY
 70
     0
  0
APPID
  5
205
330
9
100
AcDbSymbolTableRecord
100
AcDbRegAppTableRecord
  2
AcAecLayerStandard
 70
     0
  0
APPID
  5
206
330
9
100
AcDbSymbolTableRecord
100
AcDbRegAppTableRecord
  2
AcCmTransparency
 70
     0
  0
APPID
  5
222
330
9
100
AcDbSymbolTableRecord
100
AcDbRegAppTableRecord
  2
ACAD_PSEXT
 70
     0
  0
APPID
  5
2DA
330
9
100
AcDbSymbolTableRecord
100
AcDbRegAppTableRecord
  2
GradientColor1ACI
 70
     0
  0
APPID
  5
2DB
330
9
100
AcDbSymbolTableRecord
100
AcDbRegAppTableRecord
  2
GradientColor2ACI
 70
     0
  0
APPID
  5
2F3
330
9
100
AcDbSymbolTableRecord
100
AcDbRegAppTableRecord
  2
ACAD_EXEMPT_FROM_CAD_STANDARDS
 70
     0
  0
APPID
  5
A1A
330
9
100
AcDbSymbolTableRecord
100
AcDbRegAppTableRecord
  2
AcDbBlockRepETag
 70
     0
  0
APPID
  5
228C
330
9
100
AcDbSymbolTableRecord
100
AcDbRegAppTableRecord
  2
RAK
 70
     0
  0
APPID
  5
2683
330
9
100
AcDbSymbolTableRecord
100
AcDbRegAppTableRecord
  2
ACAD_DSTYLE_DIMJOGGED_JOGANGLE_SYMBOL
 70
     0
  0
APPID
  5
47CF
330
9
100
AcDbSymbolTableRecord
100
AcDbRegAppTableRecord
  2
ACAD_DSTYLE_DIMBREAK
 70
     0
  0
APPID
  5
47D0
330
9
100
AcDbSymbolTableRecord
100
AcDbRegAppTableRecord
  2
AcDbDynamicBlockGUID
 70
     0
  0
APPID
  5
8BD5
330
9
100
AcDbSymbolTableRecord
100
AcDbRegAppTableRecord
  2
AcLayerTools
 70
     0
  0
APPID
  5
92D9
330
9
100
AcDbSymbolTableRecord
100
AcDbRegAppTableRecord
  2
AutoGrph01
 70
     0
  0
APPID
  5
92DA
330
9
100
AcDbSymbolTableRecord
100
AcDbRegAppTableRecord
  2
AutoGrphVars
 70
     0
  0
APPID
  5
92DB
330
9
100
AcDbSymbolTableRecord
100
AcDbRegAppTableRecord
  2
AutoGrphZ
 70
     0
  0
APPID
  5
92DC
330
9
100
AcDbSymbolTableRecord
100
AcDbRegAppTableRecord
  2
AutoGrph05
 70
     0
  0
ENDTAB
  0
TABLE
  2
DIMSTYLE
  5
A
330
0
100
AcDbSymbolTable
 70
     1
100
AcDbDimStyleTable
 71
     1
340
27
  0
DIMSTYLE
105
27
330
A
100
AcDbSymbolTableRecord
100
AcDbDimStyleTableRecord
  2
Standard
 70
     0
340
11
  0
ENDTAB
  0
TABLE
  2
BLOCK_RECORD
  5
1
330
0
100
AcDbSymbolTable
 70
     1
  0
BLOCK_RECORD
  5
1F
102
{ACAD_XDICTIONARY
360
15D
102
}
330
1
100
AcDbSymbolTableRecord
100
AcDbBlockTableRecord
  2
*Model_Space
340
22
 70
     0
280
     1
281
     0
  0
BLOCK_RECORD
  5
58
330
1
100
AcDbSymbolTableRecord
100
AcDbBlockTableRecord
  2
*Paper_Space
340
59
 70
     0
280
     1
281
     0
  0
BLOCK_RECORD
  5
5D
330
1
100
AcDbSymbolTableRecord
100
AcDbBlockTableRecord
  2
*Paper_Space0
340
5E
 70
     0
280
     1
281
     0
  0
ENDTAB
  0
ENDSEC
  0
SECTION
  2
BLOCKS
  0
BLOCK
  5
20
330
1F
100
AcDbEntity
  8
0
100
AcDbBlockBegin
  2
*Model_Space
 70
     0
 10
0.0
 20
0.0
 30
0.0
  3
*Model_Space
  1

  0
ENDBLK
  5
21
330
1F
100
AcDbEntity
  8
0
100
AcDbBlockEnd
  0
BLOCK
  5
5A
330
58
100
AcDbEntity
 67
     1
  8
0
100
AcDbBlockBegin
  2
*Paper_Space
 70
     0
 10
0.0
 20
0.0
 30
0.0
  3
*Paper_Space
  1

  0
ENDBLK
  5
5B
330
58
100
AcDbEntity
 67
     1
  8
0
100
AcDbBlockEnd
  0
BLOCK
  5
5F
330
5D
100
AcDbEntity
 67
     1
  8
0
100
AcDbBlockBegin
  2
*Paper_Space0
 70
     0
 10
0.0
 20
0.0
 30
0.0
  3
*Paper_Space0
  1

  0
ENDBLK
  5
60
330
5D
100
AcDbEntity
 67
     1
  8
0
100
AcDbBlockEnd
  0
ENDSEC
  0
SECTION
  2
ENTITIES
  0
ARC
  5
AAAB
330
1F
100
AcDbEntity
  8
freecads.com
100
AcDbCircle
 10
10225.47341106004
 20
29602.62360261567
 30
0.0
 40
48.29990364962974
100
AcDbArc
 50
158.4955963639419
 51
162.3093097635478
  0
ARC
  5
AAAC
330
1F
100
AcDbEntity
  8
freecads.com
100
AcDbCircle
 10
10305.48301061152
 20
29577.10353037955
 30
0.0
 40
132.2809140467623
100
AcDbArc
 50
162.3092785327975
 51
164.1074123800989
  0
ARC
  5
AAAD
330
1F
100
AcDbEntity
  8
freecads.com
100
AcDbCircle
 10
10313.0591841626
 20
29574.94639741757
 30
0.0
 40
140.1581996381562
100
AcDbArc
 50
164.1073876966857
 51
165.8869588424894
  0
ARC
  5
AAAE
330
1F
100
AcDbEntity
  8
freecads.com
100
AcDbCircle
 10
10264.07734163845
 20
29587.26161321688
 30
0.0
 40
89.65190857215887
100
AcDbArc
 50
165.8869430106799
 51
168.3741697392146
  0
ARC
  5
AAAF
330
1F
100
AcDbEntity
  8
freecads.com
100
AcDbCircle
 10
10257.39057654349
 20
29588.63733538593
 30
0.0
 40
82.8250909444973
100
AcDbArc
 50
168.3741592765633
 51
172.2847896052831
  0
ARC
  5
AAB0
330
1F
100
AcDbEntity
  8
freecads.com
100
AcDbCircle
 10
10215.76959851764
 20
29594.27601909824
 30
0.0
 40
40.82389374929765
100
AcDbArc
 50
172.2848662764375
 51
178.9238186804712
  0
ARC
  5
AAB1
330
1F
100
AcDbEntity
  8
freecads.com
100
AcDbCircle
 10
10256.61245678295
 20
29593.50888319117
 30
0.0
 40
81.6739557905627
100
AcDbArc
 50
178.9238901843272
 51
183.1339687954313
  0
ARC
  5
AAB2
330
1F
100
AcDbEntity
  8
freecads.com
100
AcDbCircle
 10
11035.21431532633
 20
29636.13932714339
 30
0.0
 40
861.4420039168999
100
AcDbArc
 50
183.1339620307922
 51
183.8813255294971
  0
ARC
  5
AAB3
330
1F
100
AcDbEntity
  8
freecads.com
100
AcDbCircle
 10
8134.711892252212
 20
29439.35500336812
 30
0.0
 40
2045.728162472545
100
AcDbArc
 50
3.662848199766999
 51
3.881259645318665
  0
ARC
  5
AAB4
330
1F
100
AcDbEntity
  8
freecads.com
100
AcDbCircle
 10
8075.588321285222
 20
29435.57033747822
 30
0.0
 40
2104.972743150891
100
AcDbArc
 50
3.449015299288326
 51
3.662843086269515
  0
ARC
  5
AAB5
330
1F
100
AcDbEntity
  8
freecads.com
100
AcDbCircle
 10
8302.345670460811
 20
29449.23399614171
 30
0.0
 40
1877.804103229181
100
AcDbArc
 50
3.2387133024164
 51
3.449103345554591
  0
ARC
  5
AAB6
330
1F
100
AcDbEntity
  8
freecads.com
100
AcDbCircle
 10
9872.722360005912
 20
29538.09593024994
 30
0.0
 40
304.9152354448422
100
AcDbArc
 50
2.432253893386177
 51
3.238745956799557
  0
LINE
  5
AAB7
330
1F
100
AcDbEntity
  8
freecads.com
100
AcDbLine
 10
10177.36289684269
 20
29551.03595042699
 30
0.0
 11
10177.70270484269
 21
29543.03595042699
 31
0.0
  0
LINE
  5
AAB8
330
1F
100
AcDbEntity
  8
freecads.com
100
AcDbLine
 10
10177.70270484269
 20
29543.03595042699
 30
0.0
 11
10175.59763284269
 21
29549.53595042699
 31
0.0
  0
ARC
  5
AAB9
330
1F
100
AcDbEntity
  8
freecads.com
100
AcDbCircle
 10
10008.07651006292
 20
29495.28290928413
 30
0.0
 40
176.0872484044257
100
AcDbArc
 50
17.94495641492159
 51
19.71146490470834
  0
ARC
  5
AABA
330
1F
100
AcDbEntity
  8
freecads.com
100
AcDbCircle
 10
10173.48410843837
 20
29554.54474715271
 30
0.0
 40
0.3839785774438875
100
AcDbArc
 50
19.71155713852026
 51
144.4747429702321
  0
ARC
  5
AABB
330
1F
100
AcDbEntity
  8
freecads.com
100
AcDbCircle
 10
10174.561190671
 20
29553.77575576506
 30
0.0
 40
1.707403637707202
100
AcDbArc
 50
144.4747565230143
 51
191.7727143180915
  0
ARC
  5
AABC
330
1F
100
AcDbEntity
  8
freecads.com
100
AcDbCircle
 10
10421.04367499728
 20
29605.14630414524
 30
0.0
 40
253.4861722432689
100
AcDbArc
 50
191.772751160221
 51
193.1313327702233
  0
ARC
  5
AABD
330
1F
100
AcDbEntity
  8
freecads.com
100
AcDbCircle
 10
10001.61388672262
 20
29507.29998015744
 30
0.0
 40
177.2054232285609
100
AcDbArc
 50
11.54064037939931
 51
13.13137485643803
  0
ARC
  5
AABE
330
1F
100
AcDbEntity
  8
freecads.com
100
AcDbCircle
 10
10174.88641548306
 20
29542.68068394787
 30
0.0
 40
0.3575693435279632
100
AcDbArc
 50
251.9486664478779
 51
11.54065678836964
  0
ARC
  5
AABF
330
1F
100
AcDbEntity
  8
freecads.com
100
AcDbCircle
 10
10175.19769644156
 20
29543.63579522631
 30
0.0
 40
1.362125658194831
100
AcDbArc
 50
202.5172965871831
 51
251.9486603123596
  0
ARC
  5
AAC0
330
1F
100
AcDbEntity
  8
freecads.com
100
AcDbCircle
 10
10439.0193046571
 20
29653.00727618437
 30
0.0
 40
286.9561763812275
100
AcDbArc
 50
201.3958523037903
 51
202.5172363513499
  0
ARC
  5
AAC1
330
1F
100
AcDbEntity
  8
freecads.com
100
AcDbCircle
 10
10196.92104183159
 20
29558.15022262241
 30
0.0
 40
26.93804341049331
100
AcDbArc
 50
194.6937016483774
 51
201.3958550219836
  0
ARC
  5
AAC2
330
1F
100
AcDbEntity
  8
freecads.com
100
AcDbCircle
 10
10200.2158507699
 20
29559.01425317114
 30
0.0
 40
30.34426048045993
100
AcDbArc
 50
188.5641312157338
 51
194.693776002183
  0
ARC
  5
AAC3
330
1F
100
AcDbEntity
  8
freecads.com
100
AcDbCircle
 10
10211.13879438008
 20
29560.65920457592
 30
0.0
 40
41.39037120936607
100
AcDbArc
 50
183.4088463798968
 51
188.5641384863486
  0
ARC
  5
AAC4
330
1F
100
AcDbEntity
  8
freecads.com
100
AcDbCircle
 10
10267.44435924126
 20
29564.01307248442
 30
0.0
 40
97.79573499938086
100
AcDbArc
 50
180.6972646423735
 51
183.4088327635896
  0
LINE
  5
AAC5
330
1F
100
AcDbEntity
  8
freecads.com
100
AcDbLine
 10
10169.65586584269
 20
29562.82297042699
 30
0.0
 11
10169.54374084269
 21
29572.03595042699
 31
0.0
  0
LINE
  5
AAC6
330
1F
100
AcDbEntity
  8
freecads.com
100
AcDbLine
 10
10169.54374084269
 20
29572.03595042699
 30
0.0
 11
10168.32121484269
 21
29565.28463242699
 31
0.0
  0
ARC
  5
AAC7
330
1F
100
AcDbEntity
  8
freecads.com
100
AcDbCircle
 10
10066.38312202845
 20
29583.74347538669
 30
0.0
 40
103.5958669543086
100
AcDbArc
 50
348.2545100703621
 51
349.7361582863222
  0
ARC
  5
AAC8
330
1F
100
AcDbEntity
  8
freecads.com
100
AcDbCircle
 10
10105.41410303926
 20
29575.62822514307
 30
0.0
 40
63.73015781496217
100
AcDbArc
 50
346.1224807936832
 51
348.2545098361825
  0
ARC
  5
AAC9
330
1F
100
AcDbEntity
  8
freecads.com
100
AcDbCircle
 10
10082.08108356607
 20
29581.39294088879
 30
0.0
 40
87.76475257666865
100
AcDbArc
 50
344.8293850640614
 51
346.1224224961555
  0
ARC
  5
AACA
330
1F
100
AcDbEntity
  8
freecads.com
100
AcDbCircle
 10
10165.73916946938
 20
29558.70961007365
 30
0.0
 40
1.085984508168017
100
AcDbArc
 50
314.9999524957848
 51
344.8292878732247
  0
ARC
  5
AACB
330
1F
100
AcDbEntity
  8
freecads.com
100
AcDbCircle
 10
10166.32946120676
 20
29558.11931727575
 30
0.0
 40
0.2511851775026913
100
AcDbArc
 50
230.3479053963695
 51
314.9999656726653
  0
ARC
  5
AACC
330
1F
100
AcDbEntity
  8
freecads.com
100
AcDbCircle
 10
10169.06163217135
 20
29561.41585259279
 30
0.0
 40
4.532762372449058
100
AcDbArc
 50
219.9404196349908
 51
230.3480278759554
  0
ARC
  5
AACD
330
1F
100
AcDbEntity
  8
freecads.com
100
AcDbCircle
 10
10171.83030977753
 20
29563.73414224607
 30
0.0
 40
8.143862288466007
100
AcDbArc
 50
211.7128184800243
 51
219.9403938327443
  0
ARC
  5
AACE
330
1F
100
AcDbEntity
  8
freecads.com
100
AcDbCircle
 10
10180.01162286916
 20
29568.78955741679
 30
0.0
 40
17.76109195461863
100
AcDbArc
 50
207.1201571650801
 51
211.7128303519511
  0
ARC
  5
AACF
330
1F
100
AcDbEntity
  8
freecads.com
100
AcDbCircle
 10
10147.4397105071
 20
29552.1072376225
 30
0.0
 40
18.83438957850724
100
AcDbArc
 50
27.12006979746983
 51
32.7630218338409
  0
ARC
  5
AAD0
330
1F
100
AcDbEntity
  8
freecads.com
100
AcDbCircle
 10
10106.9594133073
 20
29526.05646143556
 30
0.0
 40
66.97270489308884
100
AcDbArc
 50
32.76299713643062
 51
34.95804591960046
  0
ARC
  5
AAD1
330
1F
100
AcDbEntity
  8
freecads.com
100
AcDbCircle
 10
10101.48436125155
 20
29522.22882261363
 30
0.0
 40
73.65305024059381
100
AcDbArc
 50
34.95800617845052
 51
37.12486799092644
  0
ARC
  5
AAD2
330
1F
100
AcDbEntity
  8
freecads.com
100
AcDbCircle
 10
10115.37281679823
 20
29532.74204933706
 30
0.0
 40
56.23417732612341
100
AcDbArc
 50
37.12487505420193
 51
39.77755118084272
  0
ARC
  5
AAD3
330
1F
100
AcDbEntity
  8
freecads.com
100
AcDbCircle
 10
10178.79673502285
 20
29585.54281525524
 30
0.0
 40
26.29166277569198
100
AcDbArc
 50
213.8410335133838
 51
219.7776107955706
  0
ARC
  5
AAD4
330
1F
100
AcDbEntity
  8
freecads.com
100
AcDbCircle
 10
10196.91742797714
 20
29597.69240977367
 30
0.0
 40
48.10844897589697
100
AcDbArc
 50
210.0644826033569
 51
213.841078517909
  0
ARC
  5
AAD5
330
1F
100
AcDbEntity
  8
freecads.com
100
AcDbCircle
 10
10196.15549091992
 20
29597.25137745808
 30
0.0
 40
47.22807542883672
100
AcDbArc
 50
206.271407159977
 51
210.0644997591366
  0
ARC
  5
AAD6
330
1F
100
AcDbEntity
  8
freecads.com
100
AcDbCircle
 10
10173.54021291639
 20
29586.08825972727
 30
0.0
 40
22.00772656826911
100
AcDbArc
 50
199.5573689837584
 51
206.271429672597
  0
ARC
  5
AAD7
330
1F
100
AcDbEntity
  8
freecads.com
100
AcDbCircle
 10
10103.46631736206
 20
29561.19482258042
 30
0.0
 40
52.35647215089893
100
AcDbArc
 50
19.55734766955292
 51
21.82412397101859
  0
ARC
  5
AAD8
330
1F
100
AcDbEntity
  8
freecads.com
100
AcDbCircle
 10
10138.78421383128
 20
29575.33823818657
 30
0.0
 40
14.3118928258695
100
AcDbArc
 50
21.82407683835339
 51
27.77393780443447
  0
ARC
  5
AAD9
330
1F
100
AcDbEntity
  8
freecads.com
100
AcDbCircle
 10
10149.69225723265
 20
29581.08306024475
 30
0.0
 40
1.983535622804748
100
AcDbArc
 50
27.773868551063
 51
46.82198656017521
  0
ARC
  5
AADA
330
1F
100
AcDbEntity
  8
freecads.com
100
AcDbCircle
 10
10150.96477819346
 20
29582.4391998215
 30
0.0
 40
0.1238517390965928
100
AcDbArc
 50
46.82201744801358
 51
177.3706763948869
  0
ARC
  5
AADB
330
1F
100
AcDbEntity
  8
freecads.com
100
AcDbCircle
 10
10160.68409470786
 20
29581.99285765478
 30
0.0
 40
9.853411587154667
100
AcDbArc
 50
177.3706419475393
 51
196.0374714212884
  0
ARC
  5
AADC
330
1F
100
AcDbEntity
  8
freecads.com
100
AcDbCircle
 10
10199.20234816368
 20
29593.06501263444
 30
0.0
 40
49.93144129396369
100
AcDbArc
 50
196.0374231391273
 51
201.6444150964938
  0
ARC
  5
AADD
330
1F
100
AcDbEntity
  8
freecads.com
100
AcDbCircle
 10
10209.73910039224
 20
29597.24629839529
 30
0.0
 40
61.26750313830469
100
AcDbArc
 50
201.6444491210587
 51
206.9845950418609
  0
ARC
  5
AADE
330
1F
100
AcDbEntity
  8
freecads.com
100
AcDbCircle
 10
10219.15152501362
 20
29602.03898663727
 30
0.0
 40
71.82987019488958
100
AcDbArc
 50
206.9845990372266
 51
211.7243467960896
  0
ARC
  5
AADF
330
1F
100
AcDbEntity
  8
freecads.com
100
AcDbCircle
 10
9942.63712054434
 20
29431.09793025286
 30
0.0
 40
253.2563654977618
100
AcDbArc
 50
29.78434213543579
 51
31.72433089319474
  0
ARC
  5
AAE0
330
1F
100
AcDbEntity
  8
freecads.com
100
AcDbCircle
 10
10138.72725449419
 20
29543.32866565806
 30
0.0
 40
27.32035995181363
100
AcDbArc
 50
19.81381981600578
 51
29.78432433887144
  0
ARC
  5
AAE1
330
1F
100
AcDbEntity
  8
freecads.com
100
AcDbCircle
 10
10146.27499275746
 20
29546.04807650009
 30
0.0
 40
19.29767036423238
100
AcDbArc
 50
7.194013243704329
 51
19.81381649306914
  0
ARC
  5
AAE2
330
1F
100
AcDbEntity
  8
freecads.com
100
AcDbCircle
 10
10083.58654373841
 20
29538.13539361181
 30
0.0
 40
82.48352472186248
100
AcDbArc
 50
2.903480956663621
 51
7.193975177475453
  0
ARC
  5
AAE3
330
1F
100
AcDbEntity
  8
freecads.com
100
AcDbCircle
 10
9959.467963177763
 20
29531.84027726485
 30
0.0
 40
206.761642386288
100
AcDbArc
 50
1.681711849995134
 51
2.903475478479021
  0
ARC
  5
AAE4
330
1F
100
AcDbEntity
  8
freecads.com
100
AcDbCircle
 10
10148.44469072014
 20
29537.38858590482
 30
0.0
 40
17.7034839233733
100
AcDbArc
 50
354.284017393983
 51
1.6817699159813
  0
ARC
  5
AAE5
330
1F
100
AcDbEntity
  8
freecads.com
100
AcDbCircle
 10
10163.92754030545
 20
29535.8388294699
 30
0.0
 40
2.14326617783158
100
AcDbArc
 50
327.3667116818772
 51
354.2840312382551
  0
ARC
  5
AAE6
330
1F
100
AcDbEntity
  8
freecads.com
100
AcDbCircle
 10
10165.42509877111
 20
29534.87987426898
 30
0.0
 40
0.3649871121478268
100
AcDbArc
 50
230.3098116219063
 51
327.3667421126802
  0
ARC
  5
AAE7
330
1F
100
AcDbEntity
  8
freecads.com
100
AcDbCircle
 10
10164.93463053089
 20
29534.28889539481
 30
0.0
 40
0.4030071094313457
100
AcDbArc
 50
50.30991464103665
 51
109.4232727430647
  0
ARC
  5
AAE8
330
1F
100
AcDbEntity
  8
freecads.com
100
AcDbCircle
 10
10164.89736698609
 20
29534.39457145927
 30
0.0
 40
0.2909535402353706
100
AcDbArc
 50
109.4231104768227
 51
184.2799967724403
  0
ARC
  5
AAE9
330
1F
100
AcDbEntity
  8
freecads.com
100
AcDbCircle
 10
10169.43280413713
 20
29534.73400993649
 30
0.0
 40
4.839074980004138
100
AcDbArc
 50
184.2801098478116
 51
196.8978566958698
  0
ARC
  5
AAEA
330
1F
100
AcDbEntity
  8
freecads.com
100
AcDbCircle
 10
10217.85038822456
 20
29549.44248474969
 30
0.0
 40
55.4414630678498
100
AcDbArc
 50
196.8979223391335
 51
199.0102433234076
  0
ARC
  5
AAEB
330
1F
100
AcDbEntity
  8
freecads.com
100
AcDbCircle
 10
10146.2116994915
 20
29524.76096780968
 30
0.0
 40
20.32976499302566
100
AcDbArc
 50
6.340431768900013
 51
19.01027348875055
  0
ARC
  5
AAEC
330
1F
100
AcDbEntity
  8
freecads.com
100
AcDbCircle
 10
9382.891900289314
 20
29439.94401821182
 30
0.0
 40
788.3473629640254
100
AcDbArc
 50
5.433358719437698
 51
6.340460763823661
  0
ARC
  5
AAED
330
1F
100
AcDbEntity
  8
freecads.com
100
AcDbCircle
 10
7790.958985271754
 20
29288.52424906607
 30
0.0
 40
2387.465354984068
100
AcDbArc
 50
5.11164831816257
 51
5.433421204348225
  0
ARC
  5
AAEE
330
1F
100
AcDbEntity
  8
freecads.com
100
AcDbCircle
 10
10167.20975374592
 20
29501.08593045807
 30
0.0
 40
1.726437359124677
100
AcDbArc
 50
315.0000250083856
 51
5.111712931445401
  0
ARC
  5
AAEF
330
1F
100
AcDbEntity
  8
freecads.com
100
AcDbCircle
 10
10168.36397520071
 20
29499.93171018321
 30
0.0
 40
0.0941225581078938
100
AcDbArc
 50
200.1010544256882
 51
314.9999508223197
  0
ARC
  5
AAF0
330
1F
100
AcDbEntity
  8
freecads.com
100
AcDbCircle
 10
10531.85408340067
 20
29632.95797011618
 30
0.0
 40
387.1613577911735
100
AcDbArc
 50
199.7332414742255
 51
200.1010800628413
  0
ARC
  5
AAF1
330
1F
100
AcDbEntity
  8
freecads.com
100
AcDbCircle
 10
10282.52462495296
 20
29543.52190979943
 30
0.0
 40
122.2765002873793
100
AcDbArc
 50
198.367803766698
 51
199.7332606272543
  0
ARC
  5
AAF2
330
1F
100
AcDbEntity
  8
freecads.com
100
AcDbCircle
 10
10405.42393591817
 20
29584.32834858557
 30
0.0
 40
251.7732418762309
100
AcDbArc
 50
197.572305502586
 51
198.3677969107324
  0
ARC
  5
AAF3
330
1F
100
AcDbEntity
  8
freecads.com
100
AcDbCircle
 10
9243.993841636131
 20
29216.51883910084
 30
0.0
 40
966.5057488198184
100
AcDbArc
 50
17.57230365023685
 51
18.10767444018033
  0
ARC
  5
AAF4
330
1F
100
AcDbEntity
  8
freecads.com
100
AcDbCircle
 10
10127.93775827065
 20
29505.56728820489
 30
0.0
 40
36.50260168286888
100
AcDbArc
 50
18.10769094000642
 51
23.85485691556755
  0
ARC
  5
AAF5
330
1F
100
AcDbEntity
  8
freecads.com
100
AcDbCircle
 10
10158.5052139935
 20
29519.08412231344
 30
0.0
 40
3.079942397792143
100
AcDbArc
 50
23.85476223946291
 51
51.2529670726318
  0
ARC
  5
AAF6
330
1F
100
AcDbEntity
  8
freecads.com
100
AcDbCircle
 10
10160.09285857293
 20
29521.06249527217
 30
0.0
 40
0.5432960143971414
100
AcDbArc
 50
51.25303680928756
 51
147.6214068515327
  0
ARC
  5
AAF7
330
1F
100
AcDbEntity
  8
freecads.com
100
AcDbCircle
 10
10159.39686267565
 20
29521.50382416919
 30
0.0
 40
0.2808286632880436
100
AcDbArc
 50
247.8609579565263
 51
327.6212088220784
  0
ARC
  5
AAF8
330
1F
100
AcDbEntity
  8
freecads.com
100
AcDbCircle
 10
10159.48485870612
 20
29521.72011414062
 30
0.0
 40
0.5143338090908749
100
AcDbArc
 50
196.47037800861
 51
247.8611592240154
  0
ARC
  5
AAF9
330
1F
100
AcDbEntity
  8
freecads.com
100
AcDbCircle
 10
10164.17662323627
 20
29523.10724132648
 30
0.0
 40
5.40685629102006
100
AcDbArc
 50
184.408631631567
 51
196.4703911545365
  0
ARC
  5
AAFA
330
1F
100
AcDbEntity
  8
freecads.com
100
AcDbCircle
 10
10193.20157624713
 20
29525.34497367931
 30
0.0
 40
34.51794255321804
100
AcDbArc
 50
181.3430077056258
 51
184.4086074275063
  0
LINE
  5
AAFB
330
1F
100
AcDbEntity
  8
freecads.com
100
AcDbLine
 10
10158.69311584269
 20
29524.53595042699
 30
0.0
 11
10158.58761384269
 21
29529.03595042699
 31
0.0
  0
LINE
  5
AAFC
330
1F
100
AcDbEntity
  8
freecads.com
100
AcDbLine
 10
10158.58761384269
 20
29529.03595042699
 30
0.0
 11
10157.57235084269
 21
29525.53595042699
 31
0.0
  0
ARC
  5
AAFD
330
1F
100
AcDbEntity
  8
freecads.com
100
AcDbCircle
 10
10167.54402350287
 20
29522.6434218525
 30
0.0
 40
10.38272494078425
100
AcDbArc
 50
163.8239004114061
 51
173.7248641304179
  0
ARC
  5
AAFE
330
1F
100
AcDbEntity
  8
freecads.com
100
AcDbCircle
 10
10194.06698275853
 20
29519.72692969689
 30
0.0
 40
37.06555264271989
100
AcDbArc
 50
173.7248950892718
 51
177.5651863180723
  0
ARC
  5
AAFF
330
1F
100
AcDbEntity
  8
freecads.com
100
AcDbCircle
 10
10198.24125008029
 20
29519.54943621842
 30
0.0
 40
41.24359184890628
100
AcDbArc
 50
177.565187733413
 51
181.3333061697083
  0
ARC
  5
AB00
330
1F
100
AcDbEntity
  8
freecads.com
100
AcDbCircle
 10
10189.70349393287
 20
29519.35076040992
 30
0.0
 40
32.70352439555007
100
AcDbArc
 50
181.3333738158179
 51
185.8174567998239
  0
ARC
  5
AB01
330
1F
100
AcDbEntity
  8
freecads.com
100
AcDbCircle
 10
9798.661258565836
 20
29479.50925970032
 30
0.0
 40
360.363104841355
100
AcDbArc
 50
5.381172345179518
 51
5.817536474583963
  0
ARC
  5
AB02
330
1F
100
AcDbEntity
  8
freecads.com
100
AcDbCircle
 10
9427.341600089432
 20
29444.53136113563
 30
0.0
 40
733.3265643901229
100
AcDbArc
 50
5.124791248076928
 51
5.381247050074539
  0
ARC
  5
AB03
330
1F
100
AcDbEntity
  8
freecads.com
100
AcDbCircle
 10
9427.617988578248
 20
29444.55563495475
 30
0.0
 40
733.0491124967838
100
AcDbArc
 50
4.868375440197192
 51
5.124831242244843
  0
ARC
  5
AB04
330
1F
100
AcDbEntity
  8
freecads.com
100
AcDbCircle
 10
9800.628954007569
 20
29476.32659810594
 30
0.0
 40
358.6875567380934
100
AcDbArc
 50
4.430631331087701
 51
4.868370554439491
  0
ARC
  5
AB05
330
1F
100
AcDbEntity
  8
freecads.com
100
AcDbCircle
 10
9771.735360828348
 20
29474.08807233219
 30
0.0
 40
387.6677348670611
100
AcDbArc
 50
3.916307823614026
 51
4.430593877195529
  0
ARC
  5
AB06
330
1F
100
AcDbEntity
  8
freecads.com
100
AcDbCircle
 10
10158.4302844883
 20
29500.56086462861
 30
0.0
 40
0.0677184631005578
100
AcDbArc
 50
202.8360208608177
 51
3.916034632033108
  0
ARC
  5
AB07
330
1F
100
AcDbEntity
  8
freecads.com
100
AcDbCircle
 10
10161.94766949056
 20
29502.04205416731
 30
0.0
 40
3.884250881888029
100
AcDbArc
 50
190.2899864173884
 51
202.8362149350689
  0
ARC
  5
AB08
330
1F
100
AcDbEntity
  8
freecads.com
100
AcDbCircle
 10
11941.61287682772
 20
29825.14135995746
 30
0.0
 40
1812.64112000733
100
AcDbArc
 50
190.1233895352933
 51
190.2900056328496
  0
ARC
  5
AB09
330
1F
100
AcDbEntity
  8
freecads.com
100
AcDbCircle
 10
10220.12484193959
 20
29517.77261041725
 30
0.0
 40
63.92827838446284
100
AcDbArc
 50
184.282845223972
 51
190.1234581620982
  0
ARC
  5
AB0A
330
1F
100
AcDbEntity
  8
freecads.com
100
AcDbCircle
 10
10255.83391595181
 20
29520.44688790847
 30
0.0
 40
99.7373516328566
100
AcDbArc
 50
180.0975390114945
 51
184.2828741483671
  0
ARC
  5
AB0B
330
1F
100
AcDbEntity
  8
freecads.com
100
AcDbCircle
 10
10251.37926896097
 20
29520.43933633996
 30
0.0
 40
95.28269824138645
100
AcDbArc
 50
175.8563212897875
 51
180.0975582099652
  0
ARC
  5
AB0C
330
1F
100
AcDbEntity
  8
freecads.com
100
AcDbCircle
 10
10199.28985020778
 20
29524.2131178047
 30
0.0
 40
43.05675667415945
100
AcDbArc
 50
168.1756706935189
 51
175.8563870816469
  0
ARC
  5
AB0D
330
1F
100
AcDbEntity
  8
freecads.com
100
AcDbCircle
 10
10151.28135730223
 20
29534.26389409647
 30
0.0
 40
5.99253990723744
100
AcDbArc
 50
348.1756490944957
 51
358.1136709697553
  0
ARC
  5
AB0E
330
1F
100
AcDbEntity
  8
freecads.com
100
AcDbCircle
 10
10157.1432698818
 20
29534.07083453948
 30
0.0
 40
0.1274490227703572
100
AcDbArc
 50
358.113711192702
 51
138.3728568851156
  0
ARC
  5
AB0F
330
1F
100
AcDbEntity
  8
freecads.com
100
AcDbCircle
 10
10160.10597462646
 20
29531.43791225084
 30
0.0
 40
4.091020541235938
100
AcDbArc
 50
138.3728676659824
 51
152.7094808146217
  0
ARC
  5
AB10
330
1F
100
AcDbEntity
  8
freecads.com
100
AcDbCircle
 10
10273.25029547087
 20
29473.06367339445
 30
0.0
 40
131.4063342368202
100
AcDbArc
 50
152.7095552475486
 51
153.8781498387675
  0
ARC
  5
AB11
330
1F
100
AcDbEntity
  8
freecads.com
100
AcDbCircle
 10
10183.6675932697
 20
29516.9921551889
 30
0.0
 40
31.63273028051517
100
AcDbArc
 50
153.8781480021868
 51
166.0969149295887
  0
ARC
  5
AB12
330
1F
100
AcDbEntity
  8
freecads.com
100
AcDbCircle
 10
10212.20072164138
 20
29509.92929204577
 30
0.0
 40
61.02700609152797
100
AcDbArc
 50
166.0969174067321
 51
173.5693050190724
  0
ARC
  5
AB13
330
1F
100
AcDbEntity
  8
freecads.com
100
AcDbCircle
 10
10242.45323767258
 20
29506.5194780833
 30
0.0
 40
91.47107870797077
100
AcDbArc
 50
173.5692810214105
 51
179.6171651709487
  0
ARC
  5
AB14
330
1F
100
AcDbEntity
  8
freecads.com
100
AcDbCircle
 10
10361.40396155642
 20
29505.72438563355
 30
0.0
 40
210.424459847218
100
AcDbArc
 50
179.6170877863957
 51
182.8618747312546
  0
LINE
  5
AB15
330
1F
100
AcDbEntity
  8
freecads.com
100
AcDbLine
 10
10151.24194284269
 20
29495.21823542699
 30
0.0
 11
10151.97590984269
 21
29480.53595042699
 31
0.0
  0
LINE
  5
AB16
330
1F
100
AcDbEntity
  8
freecads.com
100
AcDbLine
 10
10151.97590984269
 20
29480.53595042699
 30
0.0
 11
10250.87195084269
 21
29480.53595042699
 31
0.0
  0
LINE
  5
AB17
330
1F
100
AcDbEntity
  8
freecads.com
100
AcDbLine
 10
10250.87195084269
 20
29480.53595042699
 30
0.0
 11
10349.76799084269
 21
29480.53595042699
 31
0.0
  0
LINE
  5
AB18
330
1F
100
AcDbEntity
  8
freecads.com
100
AcDbLine
 10
10349.76799084269
 20
29480.53595042699
 30
0.0
 11
10349.65110684269
 21
29514.28595042699
 31
0.0
  0
ARC
  5
AB19
330
1F
100
AcDbEntity
  8
freecads.com
100
AcDbCircle
 10
8614.77279274279
 20
29508.27852782048
 30
0.0
 40
1734.888715122813
100
AcDbArc
 50
0.1983992666899371
 51
0.6409513176445337
  0
ARC
  5
AB1A
330
1F
100
AcDbEntity
  8
freecads.com
100
AcDbCircle
 10
9098.402992415925
 20
29513.69044416183
 30
0.0
 40
1251.22823620045
100
AcDbArc
 50
0.6408844912926912
 51
1.206278096400074
  0
ARC
  5
AB1B
330
1F
100
AcDbEntity
  8
freecads.com
100
AcDbCircle
 10
8996.457675692855
 20
29511.54460714385
 30
0.0
 40
1353.196134176728
100
AcDbArc
 50
1.20624472304681
 51
1.644442310874934
  0
ARC
  5
AB1C
330
1F
100
AcDbEntity
  8
freecads.com
100
AcDbCircle
 10
10299.01392321423
 20
29548.93942831895
 30
0.0
 40
50.10321707231906
100
AcDbArc
 50
1.644472587078197
 51
6.413314078171675
  0
LINE
  5
AB1D
330
1F
100
AcDbEntity
  8
freecads.com
100
AcDbLine
 10
10348.80359384269
 20
29554.53595042699
 30
0.0
 11
10348.07296484269
 21
29561.03595042699
 31
0.0
  0
LINE
  5
AB1E
330
1F
100
AcDbEntity
  8
freecads.com
100
AcDbLine
 10
10348.07296484269
 20
29561.03595042699
 30
0.0
 11
10347.84153084269
 21
29555.53595042699
 31
0.0
  0
ARC
  5
AB1F
330
1F
100
AcDbEntity
  8
freecads.com
100
AcDbCircle
 10
9944.759672544419
 20
29572.49755775605
 30
0.0
 40
403.4385710518698
100
AcDbArc
 50
357.0834738991232
 51
357.5904261293652
  0
ARC
  5
AB20
330
1F
100
AcDbEntity
  8
freecads.com
100
AcDbCircle
 10
10345.97158994154
 20
29552.05701743443
 30
0.0
 40
1.706299071991266
100
AcDbArc
 50
332.9087448922428
 51
357.083447053025
  0
ARC
  5
AB21
330
1F
100
AcDbEntity
  8
freecads.com
100
AcDbCircle
 10
10347.3577900609
 20
29551.34792947849
 30
0.0
 40
0.1492645508011204
100
AcDbArc
 50
202.0230064309576
 51
332.9089057054431
  0
ARC
  5
AB22
330
1F
100
AcDbEntity
  8
freecads.com
100
AcDbCircle
 10
10382.86217517605
 20
29565.70922523871
 30
0.0
 40
38.44819636772191
100
AcDbArc
 50
199.2456816131406
 51
202.0230158569875
  0
ARC
  5
AB23
330
1F
100
AcDbEntity
  8
freecads.com
100
AcDbCircle
 10
10283.42533114245
 20
29530.9927172465
 30
0.0
 40
66.87474452616102
100
AcDbArc
 50
19.24569441899407
 51
20.95055618631194
  0
ARC
  5
AB24
330
1F
100
AcDbEntity
  8
freecads.com
100
AcDbCircle
 10
8953.806351938196
 20
29021.91638412607
 30
0.0
 40
1490.618170429682
100
AcDbArc
 50
20.95053706865458
 51
21.12952904740813
  0
ARC
  5
AB25
330
1F
100
AcDbEntity
  8
freecads.com
100
AcDbCircle
 10
9006.532921431757
 20
29042.29428860403
 30
0.0
 40
1434.090742395185
100
AcDbArc
 50
21.12948477029322
 51
21.35110477642663
  0
ARC
  5
AB26
330
1F
100
AcDbEntity
  8
freecads.com
100
AcDbCircle
 10
8547.838985908162
 20
28862.98524644494
 30
0.0
 40
1926.586284594387
100
AcDbArc
 50
21.35111207592204
 51
21.5287289566559
  0
ARC
  5
AB27
330
1F
100
AcDbEntity
  8
freecads.com
100
AcDbCircle
 10
10510.04158003954
 20
29637.05432685461
 30
0.0
 40
182.7790137032843
100
AcDbArc
 50
197.7370569399145
 51
201.5287748167026
  0
ARC
  5
AB28
330
1F
100
AcDbEntity
  8
freecads.com
100
AcDbCircle
 10
10366.06675183161
 20
29591.00351579237
 30
0.0
 40
31.61873996383706
100
AcDbArc
 50
183.8500672912057
 51
197.7371277868149
  0
ARC
  5
AB29
330
1F
100
AcDbEntity
  8
freecads.com
100
AcDbCircle
 10
10357.81625932469
 20
29590.44826530855
 30
0.0
 40
23.34958464382675
100
AcDbArc
 50
166.9423139637307
 51
183.8500390249524
  0
ARC
  5
AB2A
330
1F
100
AcDbEntity
  8
freecads.com
100
AcDbCircle
 10
10402.58521642891
 20
29580.06493590825
 30
0.0
 40
69.30688057854585
100
AcDbArc
 50
159.4302283298522
 51
166.9422222642965
  0
ARC
  5
AB2B
330
1F
100
AcDbEntity
  8
freecads.com
100
AcDbCircle
 10
10223.97152077851
 20
29647.09413881733
 30
0.0
 40
121.4698641168057
100
AcDbArc
 50
339.4301159824613
 51
341.059122151493
  0
ARC
  5
AB2C
330
1F
100
AcDbEntity
  8
freecads.com
100
AcDbCircle
 10
10276.40044709973
 20
29629.10199439187
 30
0.0
 40
66.03964152831608
100
AcDbArc
 50
341.0590484961393
 51
343.6296877213919
  0
ARC
  5
AB2D
330
1F
100
AcDbEntity
  8
freecads.com
100
AcDbCircle
 10
10229.2118813398
 20
29642.96391707424
 30
0.0
 40
115.2220940792151
100
AcDbArc
 50
343.629622305176
 51
344.8598654662262
  0
ARC
  5
AB2E
330
1F
100
AcDbEntity
  8
freecads.com
100
AcDbCircle
 10
10339.9825622809
 20
29612.99243664014
 30
0.0
 40
0.4682993900344847
100
AcDbArc
 50
344.8598106445935
 51
45.00001947057763
  0
ARC
  5
AB2F
330
1F
100
AcDbEntity
  8
freecads.com
100
AcDbCircle
 10
10339.90618689148
 20
29612.91606234565
 30
0.0
 40
0.5763097273492887
100
AcDbArc
 50
44.99993884814099
 51
155.88243513519
  0
ARC
  5
AB30
330
1F
100
AcDbEntity
  8
freecads.com
100
AcDbCircle
 10
10556.22918253031
 20
29516.07083552385
 30
0.0
 40
237.5882005689766
100
AcDbArc
 50
155.882506261509
 51
157.5296169719959
  0
ARC
  5
AB31
330
1F
100
AcDbEntity
  8
freecads.com
100
AcDbCircle
 10
10441.94559682136
 20
29563.33949977318
 30
0.0
 40
113.9149836527536
100
AcDbArc
 50
157.5296395859469
 51
161.0468659254418
  0
ARC
  5
AB32
330
1F
100
AcDbEntity
  8
freecads.com
100
AcDbCircle
 10
10374.65313156187
 20
29586.44857396305
 30
0.0
 40
42.76510529298267
100
AcDbArc
 50
161.0468301139617
 51
168.3550642470788
  0
ARC
  5
AB33
330
1F
100
AcDbEntity
  8
freecads.com
100
AcDbCircle
 10
10364.31281228408
 20
29588.57957198043
 30
0.0
 40
32.20748457066362
100
AcDbArc
 50
168.3550338515137
 51
182.7210958448126
  0
ARC
  5
AB34
330
1F
100
AcDbEntity
  8
freecads.com
100
AcDbCircle
 10
10389.90472520008
 20
29589.79593204709
 30
0.0
 40
57.82828741739889
100
AcDbArc
 50
182.7211277457551
 51
191.9901946512552
  0
ARC
  5
AB35
330
1F
100
AcDbEntity
  8
freecads.com
100
AcDbCircle
 10
10412.76996040228
 20
29594.65206536542
 30
0.0
 40
81.20350959076427
100
AcDbArc
 50
191.9902410613554
 51
199.7625265409099
  0
ARC
  5
AB36
330
1F
100
AcDbEntity
  8
freecads.com
100
AcDbCircle
 10
10484.45765765668
 20
29620.40816741349
 30
0.0
 40
157.3776701069396
100
AcDbArc
 50
199.7624902097097
 51
204.4994889466746
  0
ARC
  5
AB37
330
1F
100
AcDbEntity
  8
freecads.com
100
AcDbCircle
 10
10280.99555904762
 20
29527.68733914352
 30
0.0
 40
66.21566066450597
100
AcDbArc
 50
18.18800650153277
 51
24.4994886475736
  0
ARC
  5
AB38
330
1F
100
AcDbEntity
  8
freecads.com
100
AcDbCircle
 10
10293.64707323953
 20
29531.84399305801
 30
0.0
 40
52.89880731573878
100
AcDbArc
 50
10.71930038423639
 51
18.18802496163244
  0
ARC
  5
AB39
330
1F
100
AcDbEntity
  8
freecads.com
100
AcDbCircle
 10
10291.44390639675
 20
29531.42699024207
 30
0.0
 40
55.14109085767689
100
AcDbArc
 50
3.419019713798503
 51
10.71924058270353
  0
ARC
  5
AB3A
330
1F
100
AcDbEntity
  8
freecads.com
100
AcDbCircle
 10
10267.82411322268
 20
29530.01596788015
 30
0.0
 40
78.80299301455757
100
AcDbArc
 50
357.832783530799
 51
3.418932258739411
  0
LINE
  5
AB3B
330
1F
100
AcDbEntity
  8
freecads.com
100
AcDbLine
 10
10346.57073984269
 20
29527.03595042699
 30
0.0
 11
10346.26799084269
 21
29519.03595042699
 31
0.0
  0
LINE
  5
AB3C
330
1F
100
AcDbEntity
  8
freecads.com
100
AcDbLine
 10
10346.26799084269
 20
29519.03595042699
 30
0.0
 11
10343.01799084269
 21
29527.83822042699
 31
0.0
  0
ARC
  5
AB3D
330
1F
100
AcDbEntity
  8
freecads.com
100
AcDbCircle
 10
10437.55726720281
 20
29562.74436747961
 30
0.0
 40
100.7775464910465
100
AcDbArc
 50
198.0955031090508
 51
200.2653440352839
  0
ARC
  5
AB3E
330
1F
100
AcDbEntity
  8
freecads.com
100
AcDbCircle
 10
10427.52486003023
 20
29559.46619848857
 30
0.0
 40
90.223135772908
100
AcDbArc
 50
195.7380131090307
 51
198.0955366871225
  0
ARC
  5
AB3F
330
1F
100
AcDbEntity
  8
freecads.com
100
AcDbCircle
 10
10418.44756662916
 20
29556.90813073121
 30
0.0
 40
80.79228394833663
100
AcDbArc
 50
193.4849480633212
 51
195.7379747148435
  0
ARC
  5
AB40
330
1F
100
AcDbEntity
  8
freecads.com
100
AcDbCircle
 10
10348.8447916581
 20
29540.21730799088
 30
0.0
 40
9.216241535947593
100
AcDbArc
 50
182.357386872337
 51
193.4848716219682
  0
LINE
  5
AB41
330
1F
100
AcDbEntity
  8
freecads.com
100
AcDbLine
 10
10339.63634984269
 20
29539.83822042699
 30
0.0
 11
10339.50470884269
 21
29543.03595042699
 31
0.0
  0
LINE
  5
AB42
330
1F
100
AcDbEntity
  8
freecads.com
100
AcDbLine
 10
10339.50470884269
 20
29543.03595042699
 30
0.0
 11
10338.81003984269
 21
29539.53595042699
 31
0.0
  0
ARC
  5
AB43
330
1F
100
AcDbEntity
  8
freecads.com
100
AcDbCircle
 10
10160.20224562
 20
29574.98555480838
 30
0.0
 40
182.0917862175289
100
AcDbArc
 50
348.0002579171648
 51
348.7739771842643
  0
ARC
  5
AB44
330
1F
100
AcDbEntity
  8
freecads.com
100
AcDbCircle
 10
10337.81683690928
 20
29537.23324401616
 30
0.0
 40
0.5093531216749608
100
AcDbArc
 50
299.3155384126799
 51
348.0002161528561
  0
ARC
  5
AB45
330
1F
100
AcDbEntity
  8
freecads.com
100
AcDbCircle
 10
10337.96516500011
 20
29536.96909455143
 30
0.0
 40
0.206407314233004
100
AcDbArc
 50
205.2350287951295
 51
299.3155107263017
  0
ARC
  5
AB46
330
1F
100
AcDbEntity
  8
freecads.com
100
AcDbCircle
 10
10391.53039187757
 20
29562.21504023374
 30
0.0
 40
59.4228856275253
100
AcDbArc
 50
203.4834618598838
 51
205.2350743245565
  0
ARC
  5
AB47
330
1F
100
AcDbEntity
  8
freecads.com
100
AcDbCircle
 10
10316.41342845273
 20
29529.57905279873
 30
0.0
 40
22.47745545862521
100
AcDbArc
 50
23.48341588052638
 51
27.62934454269426
  0
ARC
  5
AB48
330
1F
100
AcDbEntity
  8
freecads.com
100
AcDbCircle
 10
10051.53859410701
 20
29390.93307233626
 30
0.0
 40
321.4446539404527
100
AcDbArc
 50
27.62934184675013
 51
28.22292479527967
  0
ARC
  5
AB49
330
1F
100
AcDbEntity
  8
freecads.com
100
AcDbCircle
 10
10039.47956698568
 20
29384.46056050929
 30
0.0
 40
335.1309077885345
100
AcDbArc
 50
28.22297069553137
 51
28.8967671212889
  0
ARC
  5
AB4A
330
1F
100
AcDbEntity
  8
freecads.com
100
AcDbCircle
 10
9969.977957294027
 20
29346.09872735415
 30
0.0
 40
414.5166999226082
100
AcDbArc
 50
28.89676709918049
 51
29.47132797237193
  0
ARC
  5
AB4B
330
1F
100
AcDbEntity
  8
freecads.com
100
AcDbCircle
 10
10435.47116212093
 20
29609.15443787829
 30
0.0
 40
120.1628588596189
100
AcDbArc
 50
205.5569268347207
 51
209.4712230248565
  0
ARC
  5
AB4C
330
1F
100
AcDbEntity
  8
freecads.com
100
AcDbCircle
 10
10400.53222346547
 20
29592.44670203709
 30
0.0
 40
81.43460210436288
100
AcDbArc
 50
200.3175137132703
 51
205.5568727747493
  0
ARC
  5
AB4D
330
1F
100
AcDbEntity
  8
freecads.com
100
AcDbCircle
 10
10426.36221686322
 20
29602.01051561565
 30
0.0
 40
108.9782962845674
100
AcDbArc
 50
195.9159214233214
 51
200.3175294877409
  0
ARC
  5
AB4E
330
1F
100
AcDbEntity
  8
freecads.com
100
AcDbCircle
 10
10660.80796651933
 20
29668.86483593632
 30
0.0
 40
352.7698254182399
100
AcDbArc
 50
194.0813890663733
 51
195.9159607406867
  0
ARC
  5
AB4F
330
1F
100
AcDbEntity
  8
freecads.com
100
AcDbCircle
 10
10039.91594900387
 20
29513.12145928544
 30
0.0
 40
287.3574250447348
100
AcDbArc
 50
14.08147956264126
 51
14.982852118258
  0
ARC
  5
AB50
330
1F
100
AcDbEntity
  8
freecads.com
100
AcDbCircle
 10
10291.34878389737
 20
29580.41201133945
 30
0.0
 40
27.07586815238048
100
AcDbArc
 50
14.98290556309431
 51
20.08322125240145
  0
ARC
  5
AB51
330
1F
100
AcDbEntity
  8
freecads.com
100
AcDbCircle
 10
10316.65705182848
 20
29589.66511950911
 30
0.0
 40
0.1290977248761424
100
AcDbArc
 50
20.08309746474623
 51
157.9865683291391
  0
ARC
  5
AB52
330
1F
100
AcDbEntity
  8
freecads.com
100
AcDbCircle
 10
10317.82667415652
 20
29589.19224647724
 30
0.0
 40
1.390694052760437
100
AcDbArc
 50
157.9867227267871
 51
186.4529389140129
  0
ARC
  5
AB53
330
1F
100
AcDbEntity
  8
freecads.com
100
AcDbCircle
 10
10387.21503375819
 20
29597.04041278756
 30
0.0
 40
71.22147639582554
100
AcDbArc
 50
186.4530103719033
 51
192.866858431283
  0
ARC
  5
AB54
330
1F
100
AcDbEntity
  8
freecads.com
100
AcDbCircle
 10
10522.29904383917
 20
29627.89666238494
 30
0.0
 40
209.7848118015892
100
AcDbArc
 50
192.866886534851
 51
195.7326720531176
  0
ARC
  5
AB55
330
1F
100
AcDbEntity
  8
freecads.com
100
AcDbCircle
 10
10525.64578697426
 20
29628.83946070096
 30
0.0
 40
213.2618160116594
100
AcDbArc
 50
195.7326750792356
 51
198.6078556314528
  0
ARC
  5
AB56
330
1F
100
AcDbEntity
  8
freecads.com
100
AcDbCircle
 10
10413.69987368767
 20
29591.14845672776
 30
0.0
 40
95.14111807064724
100
AcDbArc
 50
198.6078817706706
 51
203.8646496173674
  0
ARC
  5
AB57
330
1F
100
AcDbEntity
  8
freecads.com
100
AcDbCircle
 10
10145.10791512502
 20
29472.32295209074
 30
0.0
 40
198.5613517125881
100
AcDbArc
 50
22.7256546838513
 51
23.86468540226843
  0
ARC
  5
AB58
330
1F
100
AcDbEntity
  8
freecads.com
100
AcDbCircle
 10
10231.65341462029
 20
29508.57109531225
 30
0.0
 40
104.7314451270597
100
AcDbArc
 50
20.88727005737489
 51
22.72573759441997
  0
ARC
  5
AB59
330
1F
100
AcDbEntity
  8
freecads.com
100
AcDbCircle
 10
10084.91974556656
 20
29452.57651392854
 30
0.0
 40
261.7860941454538
100
AcDbArc
 50
20.25995524212302
 51
20.88722786986476
  0
ARC
  5
AB5A
330
1F
100
AcDbEntity
  8
freecads.com
100
AcDbCircle
 10
10330.1857492643
 20
29543.108338634
 30
0.0
 40
0.3450417945228088
100
AcDbArc
 50
315.0000436054568
 51
20.259901823823
  0
ARC
  5
AB5B
330
1F
100
AcDbEntity
  8
freecads.com
100
AcDbCircle
 10
10330.2648615827
 20
29543.02922722188
 30
0.0
 40
0.2331607217347965
100
AcDbArc
 50
225.7402518830097
 51
314.9999070536284
  0
ARC
  5
AB5C
330
1F
100
AcDbEntity
  8
freecads.com
100
AcDbCircle
 10
11389.18311001673
 20
30629.67092880996
 30
0.0
 40
1517.499796648595
100
AcDbArc
 50
225.5347183335177
 51
225.740295535369
  0
ARC
  5
AB5D
330
1F
100
AcDbEntity
  8
freecads.com
100
AcDbCircle
 10
10557.47369783808
 20
29782.29068201475
 30
0.0
 40
330.1524047850239
100
AcDbArc
 50
224.4525095728043
 51
225.534704212948
  0
ARC
  5
AB5E
330
1F
100
AcDbEntity
  8
freecads.com
100
AcDbCircle
 10
10788.96435795983
 20
30009.39804981855
 30
0.0
 40
654.4449921719534
100
AcDbArc
 50
223.8038598997098
 51
224.4524463921127
  0
ARC
  5
AB5F
330
1F
100
AcDbEntity
  8
freecads.com
100
AcDbCircle
 10
9892.190902515013
 20
29149.30757042005
 30
0.0
 40
588.1161786129843
100
AcDbArc
 50
43.8038371117974
 51
45.16585634752269
  0
ARC
  5
AB60
330
1F
100
AcDbEntity
  8
freecads.com
100
AcDbCircle
 10
10212.49986242017
 20
29471.47644812205
 30
0.0
 40
133.8138392449562
100
AcDbArc
 50
45.1658240350203
 51
49.25424629768896
  0
ARC
  5
AB61
330
1F
100
AcDbEntity
  8
freecads.com
100
AcDbCircle
 10
10174.36832899109
 20
29427.2163141031
 30
0.0
 40
192.2344974490323
100
AcDbArc
 50
49.25418368734995
 51
52.44741460302293
  0
ARC
  5
AB62
330
1F
100
AcDbEntity
  8
freecads.com
100
AcDbCircle
 10
9107.186057224083
 20
28039.07738263754
 30
0.0
 40
1943.179297899392
100
AcDbArc
 50
52.44740917850562
 51
53.03159568123999
  0
ARC
  5
AB63
330
1F
100
AcDbEntity
  8
freecads.com
100
AcDbCircle
 10
23137.03151839161
 20
46678.73391031577
 30
0.0
 40
21386.48763358785
100
AcDbArc
 50
232.9968333232996
 51
233.0316691570753
  0
ARC
  5
AB64
330
1F
100
AcDbEntity
  8
freecads.com
100
AcDbCircle
 10
12266.75923473722
 20
32255.06208571228
 30
0.0
 40
3325.337935285283
100
AcDbArc
 50
232.8591776116297
 51
232.9969166489562
  0
ARC
  5
AB65
330
1F
100
AcDbEntity
  8
freecads.com
100
AcDbCircle
 10
11556.6663627446
 20
31317.54310710964
 30
0.0
 40
2149.253872775312
100
AcDbArc
 50
232.6770246253739
 51
232.8592251658942
  0
ARC
  5
AB66
330
1F
100
AcDbEntity
  8
freecads.com
100
AcDbCircle
 10
13154.29050083122
 20
33412.97366486231
 30
0.0
 40
4784.25522172221
100
AcDbArc
 50
232.576818940871
 51
232.6769719570661
  0
ARC
  5
AB67
330
1F
100
AcDbEntity
  8
freecads.com
100
AcDbCircle
 10
10239.62034987259
 20
29603.93825108782
 30
0.0
 40
11.99882412204248
100
AcDbArc
 50
52.57680594597998
 51
66.90268955271946
  0
ARC
  5
AB68
330
1F
100
AcDbEntity
  8
freecads.com
100
AcDbCircle
 10
10244.19216491298
 20
29614.65811569479
 30
0.0
 40
0.3447694647434893
100
AcDbArc
 50
66.90269703781656
 51
217.13346456671
  0
ARC
  5
AB69
330
1F
100
AcDbEntity
  8
freecads.com
100
AcDbCircle
 10
10276.07807871059
 20
29638.80253630173
 30
0.0
 40
40.34057605935276
100
AcDbArc
 50
217.1334698549308
 51
224.7814496960761
  0
ARC
  5
AB6A
330
1F
100
AcDbEntity
  8
freecads.com
100
AcDbCircle
 10
10528.06478230903
 20
29888.87378206497
 30
0.0
 40
395.3517403175778
100
AcDbArc
 50
224.7814099901202
 51
226.2117232598383
  0
ARC
  5
AB6B
330
1F
100
AcDbEntity
  8
freecads.com
100
AcDbCircle
 10
10362.02908178634
 20
29715.66242916665
 30
0.0
 40
155.4141929830128
100
AcDbArc
 50
226.2117243782621
 51
228.547707002126
  0
ARC
  5
AB6C
330
1F
100
AcDbEntity
  8
freecads.com
100
AcDbCircle
 10
10501.21054929024
 20
29873.24215340068
 30
0.0
 40
365.6589322421993
100
AcDbArc
 50
228.5476551526885
 51
229.7801900788123
  0
ARC
  5
AB6D
330
1F
100
AcDbEntity
  8
freecads.com
100
AcDbCircle
 10
10508.29987643893
 20
29881.62529240538
 30
0.0
 40
376.6378019013066
100
AcDbArc
 50
229.7801836167299
 51
231.0058432471548
  0
ARC
  5
AB6E
330
1F
100
AcDbEntity
  8
freecads.com
100
AcDbCircle
 10
10404.76640956532
 20
29753.74531977895
 30
0.0
 40
212.1006749001514
100
AcDbArc
 50
231.0058220183391
 51
232.8898939877082
  0
ARC
  5
AB6F
330
1F
100
AcDbEntity
  8
freecads.com
100
AcDbCircle
 10
9774.869134977294
 20
28921.1786899111
 30
0.0
 40
831.9001726585023
100
AcDbArc
 50
51.69946164043018
 51
52.88982805116506
  0
ARC
  5
AB70
330
1F
100
AcDbEntity
  8
freecads.com
100
AcDbCircle
 10
10050.62983026183
 20
29270.3464254225
 30
0.0
 40
386.9708877318477
100
AcDbArc
 50
49.58958089720976
 51
51.69938108136553
  0
ARC
  5
AB71
330
1F
100
AcDbEntity
  8
freecads.com
100
AcDbCircle
 10
10113.21076270254
 20
29343.85244233339
 30
0.0
 40
290.4332907712245
100
AcDbArc
 50
47.12265238495347
 51
49.589484198624
  0
ARC
  5
AB72
330
1F
100
AcDbEntity
  8
freecads.com
100
AcDbCircle
 10
10148.84685819038
 20
29382.2324455219
 30
0.0
 40
238.0600538445403
100
AcDbArc
 50
44.25906346056511
 51
47.12255750582676
  0
ARC
  5
AB73
330
1F
100
AcDbEntity
  8
freecads.com
100
AcDbCircle
 10
9453.732214894634
 20
28704.87008118784
 30
0.0
 40
1208.629031269467
100
AcDbArc
 50
43.49235776037992
 51
44.25897243097794
  0
ARC
  5
AB74
330
1F
100
AcDbEntity
  8
freecads.com
100
AcDbCircle
 10
10274.78828891461
 20
29483.81507217249
 30
0.0
 40
76.86563918384218
100
AcDbArc
 50
37.7687943614422
 51
43.49236925612861
  0
ARC
  5
AB75
330
1F
100
AcDbEntity
  8
freecads.com
100
AcDbCircle
 10
10319.12923201842
 20
29518.17077737013
 30
0.0
 40
20.7725583720119
100
AcDbArc
 50
24.90404766706948
 51
37.76877651656658
  0
ARC
  5
AB76
330
1F
100
AcDbEntity
  8
freecads.com
100
AcDbCircle
 10
10330.18866979402
 20
29523.30535354651
 30
0.0
 40
8.579321048672284
100
AcDbArc
 50
359.9999925234358
 51
24.90400883379005
  0
ARC
  5
AB77
330
1F
100
AcDbEntity
  8
freecads.com
100
AcDbCircle
 10
10271.54409931857
 20
29523.30540077987
 30
0.0
 40
67.22389152413905
100
AcDbArc
 50
358.0219284126366
 51
359.999958788121
  0
ARC
  5
AB78
330
1F
100
AcDbEntity
  8
freecads.com
100
AcDbCircle
 10
10337.03280927855
 20
29521.04358141229
 30
0.0
 40
1.696134359151229
100
AcDbArc
 50
329.9783958851625
 51
358.0218436300813
  0
ARC
  5
AB79
330
1F
100
AcDbEntity
  8
freecads.com
100
AcDbCircle
 10
10338.1979135716
 20
29520.37032269061
 30
0.0
 40
0.3504949869562883
100
AcDbArc
 50
244.8391580739708
 51
329.97833361001
  0
ARC
  5
AB7A
330
1F
100
AcDbEntity
  8
freecads.com
100
AcDbCircle
 10
10339.73918555642
 20
29523.65151407601
 30
0.0
 40
3.975648258029487
100
AcDbArc
 50
230.3098976765426
 51
244.8391752476585
  0
ARC
  5
AB7B
330
1F
100
AcDbEntity
  8
freecads.com
100
AcDbCircle
 10
10340.56384354438
 20
29524.64516646764
 30
0.0
 40
5.266928968214155
100
AcDbArc
 50
218.9917171318375
 51
230.3098826170498
  0
ARC
  5
AB7C
330
1F
100
AcDbEntity
  8
freecads.com
100
AcDbCircle
 10
10355.31551313627
 20
29536.58728785622
 30
0.0
 40
24.24655011848832
100
AcDbArc
 50
215.3463819848597
 51
218.9916904038231
  0
ARC
  5
AB7D
330
1F
100
AcDbEntity
  8
freecads.com
100
AcDbCircle
 10
10358.02281063401
 20
29538.50746522609
 30
0.0
 40
27.56566760254132
100
AcDbArc
 50
211.7501263508107
 51
215.3464018231613
  0
ARC
  5
AB7E
330
1F
100
AcDbEntity
  8
freecads.com
100
AcDbCircle
 10
10355.71920013331
 20
29537.08193723474
 30
0.0
 40
24.85665461012687
100
AcDbArc
 50
207.8637754770923
 51
211.7501194239037
  0
ARC
  5
AB7F
330
1F
100
AcDbEntity
  8
freecads.com
100
AcDbCircle
 10
10236.09211816481
 20
29473.83949350612
 30
0.0
 40
110.4587008713014
100
AcDbArc
 50
27.86376057933479
 51
29.07475290463731
  0
ARC
  5
AB80
330
1F
100
AcDbEntity
  8
freecads.com
100
AcDbCircle
 10
10331.43405392842
 20
29526.85111806922
 30
0.0
 40
1.370126520130118
100
AcDbArc
 50
29.07484624007081
 51
56.96566183955749
  0
ARC
  5
AB81
330
1F
100
AcDbEntity
  8
freecads.com
100
AcDbCircle
 10
10332.08253137261
 20
29527.84837655769
 30
0.0
 40
0.1805688340760529
100
AcDbArc
 50
56.96570217528837
 51
172.0113606158287
  0
ARC
  5
AB82
330
1F
100
AcDbEntity
  8
freecads.com
100
AcDbCircle
 10
10341.42241014456
 20
29526.53762163739
 30
0.0
 40
9.611974558348483
100
AcDbArc
 50
172.0113074879071
 51
178.9062632754555
  0
LINE
  5
AB83
330
1F
100
AcDbEntity
  8
freecads.com
100
AcDbLine
 10
10331.81218684269
 20
29526.72109642699
 30
0.0
 11
10331.76799084269
 21
29524.40624142699
 31
0.0
  0
LINE
  5
AB84
330
1F
100
AcDbEntity
  8
freecads.com
100
AcDbLine
 10
10331.76799084269
 20
29524.40624142699
 30
0.0
 11
10327.77324184269
 21
29527.22109642699
 31
0.0
  0
ARC
  5
AB85
330
1F
100
AcDbEntity
  8
freecads.com
100
AcDbCircle
 10
10338.71334986743
 20
29542.7469284067
 30
0.0
 40
18.99308880238229
100
AcDbArc
 50
228.597047897878
 51
234.8299790983313
  0
ARC
  5
AB86
330
1F
100
AcDbEntity
  8
freecads.com
100
AcDbCircle
 10
10341.75882715715
 20
29546.20093948444
 30
0.0
 40
23.59799102139316
100
AcDbArc
 50
223.3003493768852
 51
228.5969739504567
  0
ARC
  5
AB87
330
1F
100
AcDbEntity
  8
freecads.com
100
AcDbCircle
 10
10339.88771930595
 20
29544.43767515117
 30
0.0
 40
21.02697065978125
100
AcDbArc
 50
217.8562120057887
 51
223.3003494745734
  0
ARC
  5
AB88
330
1F
100
AcDbEntity
  8
freecads.com
100
AcDbCircle
 10
10328.22766985816
 20
29535.37487859914
 30
0.0
 40
6.259065105224397
100
AcDbArc
 50
204.432980886801
 51
217.8562210946964
  0
ARC
  5
AB89
330
1F
100
AcDbEntity
  8
freecads.com
100
AcDbCircle
 10
10309.23711000482
 20
29526.74720938033
 30
0.0
 40
14.59945928392526
100
AcDbArc
 50
24.4329271184561
 51
32.27068297801267
  0
ARC
  5
AB8A
330
1F
100
AcDbEntity
  8
freecads.com
100
AcDbCircle
 10
10319.37354212048
 20
29533.14794102487
 30
0.0
 40
2.611272531090341
100
AcDbArc
 50
32.27064027367868
 51
60.28812425178722
  0
ARC
  5
AB8B
330
1F
100
AcDbEntity
  8
freecads.com
100
AcDbCircle
 10
10320.43626362542
 20
29535.01019289718
 30
0.0
 40
0.4671272391488636
100
AcDbArc
 50
60.28814122601508
 51
145.5381295354216
  0
ARC
  5
AB8C
330
1F
100
AcDbEntity
  8
freecads.com
100
AcDbCircle
 10
10321.38126505337
 20
29534.36163666868
 30
0.0
 40
1.613274210678389
100
AcDbArc
 50
145.5381219126838
 51
180.0000085840103
  0
ARC
  5
AB8D
330
1F
100
AcDbEntity
  8
freecads.com
100
AcDbCircle
 10
10319.53163314035
 20
29534.36163653309
 30
0.0
 40
0.2363577023366144
100
AcDbArc
 50
273.9363896676201
 51
359.9999742798605
  0
ARC
  5
AB8E
330
1F
100
AcDbEntity
  8
freecads.com
100
AcDbCircle
 10
10319.47636815201
 20
29535.16476746518
 30
0.0
 40
1.041387834078252
100
AcDbArc
 50
244.8394604792749
 51
273.9364191541209
  0
ARC
  5
AB8F
330
1F
100
AcDbEntity
  8
freecads.com
100
AcDbCircle
 10
10320.85508407856
 20
29538.09992401894
 30
0.0
 40
4.284226343959248
100
AcDbArc
 50
232.1935563999189
 51
244.839407222803
  0
ARC
  5
AB90
330
1F
100
AcDbEntity
  8
freecads.com
100
AcDbCircle
 10
10326.44361057985
 20
29545.30294508145
 30
0.0
 40
13.40097690995303
100
AcDbArc
 50
226.7881526044024
 51
232.1935798226674
  0
ARC
  5
AB91
330
1F
100
AcDbEntity
  8
freecads.com
100
AcDbCircle
 10
10299.05446123494
 20
29516.14854779477
 30
0.0
 40
26.60082783667359
100
AcDbArc
 50
46.78815066380987
 51
51.69948048030611
  0
ARC
  5
AB92
330
1F
100
AcDbEntity
  8
freecads.com
100
AcDbCircle
 10
10315.19379425588
 20
29536.58410855574
 30
0.0
 40
0.5606624382721365
100
AcDbArc
 50
51.6993796775388
 51
129.9620631981563
  0
ARC
  5
AB93
330
1F
100
AcDbEntity
  8
freecads.com
100
AcDbCircle
 10
10315.14339505152
 20
29536.6442536276
 30
0.0
 40
0.4821926385430646
100
AcDbArc
 50
129.9621249812634
 51
216.483746546854
  0
ARC
  5
AB94
330
1F
100
AcDbEntity
  8
freecads.com
100
AcDbCircle
 10
10335.04917318799
 20
29551.36499184563
 30
0.0
 40
25.23982049143321
100
AcDbArc
 50
216.4836991885007
 51
221.5785172035596
  0
ARC
  5
AB95
330
1F
100
AcDbEntity
  8
freecads.com
100
AcDbCircle
 10
10311.87314739584
 20
29530.80390057632
 30
0.0
 40
5.742216977136654
100
AcDbArc
 50
22.17028128328152
 51
41.57842079072436
  0
ARC
  5
AB96
330
1F
100
AcDbEntity
  8
freecads.com
100
AcDbCircle
 10
10254.6938452575
 20
29507.50410004726
 30
0.0
 40
67.48647418151922
100
AcDbArc
 50
18.97907315914049
 51
22.1702418268867
  0
ARC
  5
AB97
330
1F
100
AcDbEntity
  8
freecads.com
100
AcDbCircle
 10
10200.22646721575
 20
29488.77173710122
 30
0.0
 40
125.0850565623852
100
AcDbArc
 50
17.19766445430692
 51
18.97906895414911
  0
ARC
  5
AB98
330
1F
100
AcDbEntity
  8
freecads.com
100
AcDbCircle
 10
10318.99060595057
 20
29525.53007420908
 30
0.0
 40
0.7625083405933034
100
AcDbArc
 50
311.0029282728079
 51
17.19766882870647
  0
ARC
  5
AB99
330
1F
100
AcDbEntity
  8
freecads.com
100
AcDbCircle
 10
10319.23736873122
 20
29525.2462364592
 30
0.0
 40
0.3864023207367194
100
AcDbArc
 50
278.236100352896
 51
311.0028253676908
  0
ARC
  5
AB9A
330
1F
100
AcDbEntity
  8
freecads.com
100
AcDbCircle
 10
10262.4219185895
 20
29917.76147724347
 30
0.0
 40
396.9922641316024
100
AcDbArc
 50
277.9797401509626
 51
278.2361959530398
  0
ARC
  5
AB9B
330
1F
100
AcDbEntity
  8
freecads.com
100
AcDbCircle
 10
10299.73439622835
 20
29651.58587754012
 30
0.0
 40
128.2141570154136
100
AcDbArc
 50
277.065572962838
 51
277.9797795717717
  0
ARC
  5
AB9C
330
1F
100
AcDbEntity
  8
freecads.com
100
AcDbCircle
 10
10286.63980113434
 20
29757.23356378376
 30
0.0
 40
234.670260782696
100
AcDbArc
 50
276.4841221493311
 51
277.0655584723637
  0
LINE
  5
AB9D
330
1F
100
AcDbEntity
  8
freecads.com
100
AcDbLine
 10
10313.14061384269
 20
29524.06444442699
 30
0.0
 11
10307.01323684269
 21
29523.36804042699
 31
0.0
  0
LINE
  5
AB9E
330
1F
100
AcDbEntity
  8
freecads.com
100
AcDbLine
 10
10307.01323684269
 20
29523.36804042699
 30
0.0
 11
10307.50461084269
 21
29526.20199542699
 31
0.0
  0
LINE
  5
AB9F
330
1F
100
AcDbEntity
  8
freecads.com
100
AcDbLine
 10
10307.50461084269
 20
29526.20199542699
 30
0.0
 11
10307.99598584269
 21
29529.03595042699
 31
0.0
  0
LINE
  5
ABA0
330
1F
100
AcDbEntity
  8
freecads.com
100
AcDbLine
 10
10307.99598584269
 20
29529.03595042699
 30
0.0
 11
10305.13198884269
 21
29525.82624242699
 31
0.0
  0
ARC
  5
ABA1
330
1F
100
AcDbEntity
  8
freecads.com
100
AcDbCircle
 10
10294.43084712753
 20
29535.37477617824
 30
0.0
 40
14.34185939154222
100
AcDbArc
 50
302.1192762457373
 51
318.2577504956705
  0
ARC
  5
ABA2
330
1F
100
AcDbEntity
  8
freecads.com
100
AcDbCircle
 10
10296.68870218134
 20
29531.77814105285
 30
0.0
 40
10.09524972390738
100
AcDbArc
 50
281.1231434880717
 51
302.1192591565704
  0
ARC
  5
ABA3
330
1F
100
AcDbEntity
  8
freecads.com
100
AcDbCircle
 10
10297.44001452518
 20
29527.95686852157
 30
0.0
 40
6.200818572089051
100
AcDbArc
 50
253.3506084198728
 51
281.1230944121806
  0
ARC
  5
ABA4
330
1F
100
AcDbEntity
  8
freecads.com
100
AcDbCircle
 10
10296.58890469832
 20
29525.11084190724
 30
0.0
 40
3.230253739127762
100
AcDbArc
 50
208.1549592353218
 51
253.3506137602756
  0
ARC
  5
ABA5
330
1F
100
AcDbEntity
  8
freecads.com
100
AcDbCircle
 10
10297.8105841176
 20
29525.76466731393
 30
0.0
 40
4.61589015100982
100
AcDbArc
 50
192.0862979667974
 51
208.1549878587776
  0
ARC
  5
ABA6
330
1F
100
AcDbEntity
  8
freecads.com
100
AcDbCircle
 10
10309.56524063818
 20
29528.28174225149
 30
0.0
 40
16.63702221740842
100
AcDbArc
 50
185.8974556475545
 51
192.0864159989866
  0
ARC
  5
ABA7
330
1F
100
AcDbEntity
  8
freecads.com
100
AcDbCircle
 10
10312.99202342435
 20
29528.63572144206
 30
0.0
 40
20.08203913041185
100
AcDbArc
 50
180.071298674151
 51
185.897482427822
  0
ARC
  5
ABA8
330
1F
100
AcDbEntity
  8
freecads.com
100
AcDbCircle
 10
10314.28492228246
 20
29528.63731999671
 30
0.0
 40
21.37493897671115
100
AcDbArc
 50
174.5114627466992
 51
180.0712709973559
  0
ARC
  5
ABA9
330
1F
100
AcDbEntity
  8
freecads.com
100
AcDbCircle
 10
10203.97734109716
 20
29539.23647952954
 30
0.0
 40
89.44069462140934
100
AcDbArc
 50
354.5114499033049
 51
355.7082332673485
  0
ARC
  5
ABAA
330
1F
100
AcDbEntity
  8
freecads.com
100
AcDbCircle
 10
10248.5088134419
 20
29535.89461298376
 30
0.0
 40
44.78400306015296
100
AcDbArc
 50
355.7081866953049
 51
357.7162377890115
  0
ARC
  5
ABAB
330
1F
100
AcDbEntity
  8
freecads.com
100
AcDbCircle
 10
10185.62952809871
 20
29538.40226553689
 30
0.0
 40
107.7132716606785
100
AcDbArc
 50
357.7162333857434
 51
358.4202817097005
  0
ARC
  5
ABAC
330
1F
100
AcDbEntity
  8
freecads.com
100
AcDbCircle
 10
10293.20156438661
 20
29535.43561482681
 30
0.0
 40
0.100335600178245
100
AcDbArc
 50
358.420071013283
 51
89.9997395623523
  0
ARC
  5
ABAD
330
1F
100
AcDbEntity
  8
freecads.com
100
AcDbCircle
 10
10293.20156482762
 20
29535.38256002674
 30
0.0
 40
0.1533904002503171
100
AcDbArc
 50
89.99999437043001
 51
158.3201810899963
  0
ARC
  5
ABAE
330
1F
100
AcDbEntity
  8
freecads.com
100
AcDbCircle
 10
10439.06054545465
 20
29477.39809122573
 30
0.0
 40
157.1152993198766
100
AcDbArc
 50
158.3203052110766
 51
158.8577386379632
  0
ARC
  5
ABAF
330
1F
100
AcDbEntity
  8
freecads.com
100
AcDbCircle
 10
10346.18907761727
 20
29513.31293467751
 30
0.0
 40
57.54127902122718
100
AcDbArc
 50
158.8577410095891
 51
160.5715404212862
  0
ARC
  5
ABB0
330
1F
100
AcDbEntity
  8
freecads.com
100
AcDbCircle
 10
10395.72895558374
 20
29495.83952520385
 30
0.0
 40
110.0724083405877
100
AcDbArc
 50
160.571539965284
 51
161.6262332290829
  0
ARC
  5
ABB1
330
1F
100
AcDbEntity
  8
freecads.com
100
AcDbCircle
 10
10226.62782547912
 20
29552.00603905908
 30
0.0
 40
68.11252222682281
100
AcDbArc
 50
339.9185946106683
 51
341.6262064229772
  0
ARC
  5
ABB2
330
1F
100
AcDbEntity
  8
freecads.com
100
AcDbCircle
 10
10256.35340895774
 20
29541.13895617585
 30
0.0
 40
36.46281759099038
100
AcDbArc
 50
337.1925925600649
 51
339.9185971857347
  0
ARC
  5
ABB3
330
1F
100
AcDbEntity
  8
freecads.com
100
AcDbCircle
 10
10232.62027360114
 20
29551.11903373436
 30
0.0
 40
62.20895636806088
100
AcDbArc
 50
335.8645121501766
 51
337.1926134527146
  0
ARC
  5
ABB4
330
1F
100
AcDbEntity
  8
freecads.com
100
AcDbCircle
 10
10289.16542666152
 20
29525.78312223147
 30
0.0
 40
0.2471718044806667
100
AcDbArc
 50
270.0000419966587
 51
335.864436353204
  0
ARC
  5
ABB5
330
1F
100
AcDbEntity
  8
freecads.com
100
AcDbCircle
 10
10289.16542578942
 20
29526.29268488585
 30
0.0
 40
0.7567344588588807
100
AcDbArc
 50
244.7663495099102
 51
270.0000797473777
  0
ARC
  5
ABB6
330
1F
100
AcDbEntity
  8
freecads.com
100
AcDbCircle
 10
10570.40370844652
 20
30123.04431495397
 30
0.0
 40
660.4593035162127
100
AcDbArc
 50
244.5460986211479
 51
244.7663435297879
  0
ARC
  5
ABB7
330
1F
100
AcDbEntity
  8
freecads.com
100
AcDbCircle
 10
10381.93468819006
 20
29727.0909625798
 30
0.0
 40
221.9394877122685
100
AcDbArc
 50
243.7911394430915
 51
244.5460659035529
  0
ARC
  5
ABB8
330
1F
100
AcDbEntity
  8
freecads.com
100
AcDbCircle
 10
10461.39986037926
 20
29888.52351667497
 30
0.0
 40
401.870538708577
100
AcDbArc
 50
243.3071698913412
 51
243.7912039169676
  0
ARC
  5
ABB9
330
1F
100
AcDbEntity
  8
freecads.com
100
AcDbCircle
 10
10314.84475755738
 20
29597.0405272306
 30
0.0
 40
75.61798117303522
100
AcDbArc
 50
238.4399121671323
 51
243.3072588491859
  0
ARC
  5
ABBA
330
1F
100
AcDbEntity
  8
freecads.com
100
AcDbCircle
 10
10278.65916556079
 20
29538.12977991753
 30
0.0
 40
6.481353998079407
100
AcDbArc
 50
208.9937307987907
 51
238.4399343726506
  0
ARC
  5
ABBB
330
1F
100
AcDbEntity
  8
freecads.com
100
AcDbCircle
 10
10280.0133335813
 20
29538.88020490138
 30
0.0
 40
8.029549297165681
100
AcDbArc
 50
183.7866623136377
 51
208.9936751166173
  0
ARC
  5
ABBC
330
1F
100
AcDbEntity
  8
freecads.com
100
AcDbCircle
 10
10412.80215465364
 20
29547.66910057822
 30
0.0
 40
141.1089079107444
100
AcDbArc
 50
180.6631381498221
 51
183.7867106291867
  0
ARC
  5
ABBD
330
1F
100
AcDbEntity
  8
freecads.com
100
AcDbCircle
 10
9556.515664405832
 20
29537.75813435985
 30
0.0
 40
715.2349369508296
100
AcDbArc
 50
0.6631310756998014
 51
1.165958029814444
  0
ARC
  5
ABBE
330
1F
100
AcDbEntity
  8
freecads.com
100
AcDbCircle
 10
10271.29441663573
 20
29552.30575173134
 30
0.0
 40
0.3081590144372287
100
AcDbArc
 50
1.165986319215944
 51
109.2454012543735
  0
ARC
  5
ABBF
330
1F
100
AcDbEntity
  8
freecads.com
100
AcDbCircle
 10
10271.42270492174
 20
29551.93829205783
 30
0.0
 40
0.6973691067863104
100
AcDbArc
 50
109.2453014033056
 51
172.1928249451292
  0
ARC
  5
ABC0
330
1F
100
AcDbEntity
  8
freecads.com
100
AcDbCircle
 10
11181.13174108445
 20
29427.20695900896
 30
0.0
 40
918.9176236863882
100
AcDbArc
 50
172.1927857213056
 51
172.6108152651395
  0
LINE
  5
ABC1
330
1F
100
AcDbEntity
  8
freecads.com
100
AcDbLine
 10
10269.84530884269
 20
29545.38748842699
 30
0.0
 11
10269.02160084269
 21
29539.03595042699
 31
0.0
  0
LINE
  5
ABC2
330
1F
100
AcDbEntity
  8
freecads.com
100
AcDbLine
 10
10269.02160084269
 20
29539.03595042699
 30
0.0
 11
10268.78295384269
 21
29549.03595042699
 31
0.0
  0
ARC
  5
ABC3
330
1F
100
AcDbEntity
  8
freecads.com
100
AcDbCircle
 10
8940.906796210786
 20
29517.34761719704
 30
0.0
 40
1328.254207774313
100
AcDbArc
 50
1.367042556118707
 51
1.639311972304906
  0
ARC
  5
ABC4
330
1F
100
AcDbEntity
  8
freecads.com
100
AcDbCircle
 10
10261.30213294892
 20
29555.13628752586
 30
0.0
 40
7.318240785365903
100
AcDbArc
 50
1.639229075435314
 51
12.50193017013971
  0
ARC
  5
ABC5
330
1F
100
AcDbEntity
  8
freecads.com
100
AcDbCircle
 10
10268.32205132263
 20
29556.69281396619
 30
0.0
 40
0.1278285209043779
100
AcDbArc
 50
12.50197649736861
 51
167.8251635725666
  0
ARC
  5
ABC6
330
1F
100
AcDbEntity
  8
freecads.com
100
AcDbCircle
 10
10334.65749939856
 20
29542.380916018
 30
0.0
 40
67.98961522236564
100
AcDbArc
 50
167.8250325338199
 51
170.1293911286154
  0
ARC
  5
ABC7
330
1F
100
AcDbEntity
  8
freecads.com
100
AcDbCircle
 10
10056.14576947585
 20
29590.84204337823
 30
0.0
 40
214.7068024584893
100
AcDbArc
 50
349.5059471486441
 51
350.1293236923591
  0
ARC
  5
ABC8
330
1F
100
AcDbEntity
  8
freecads.com
100
AcDbCircle
 10
9803.390573332743
 20
29637.66029487951
 30
0.0
 40
471.7615395301428
100
AcDbArc
 50
349.1598831919714
 51
349.50594943726
  0
ARC
  5
ABC9
330
1F
100
AcDbEntity
  8
freecads.com
100
AcDbCircle
 10
9796.317797375181
 20
29639.01414031733
 30
0.0
 40
478.9627239456108
100
AcDbArc
 50
348.8147914558179
 51
349.1599409705768
  0
ARC
  5
ABCA
330
1F
100
AcDbEntity
  8
freecads.com
100
AcDbCircle
 10
10018.5269285674
 20
29595.07474238354
 30
0.0
 40
252.4509832440125
100
AcDbArc
 50
348.2575119635883
 51
348.8148842078672
  0
LINE
  5
ABCB
330
1F
100
AcDbEntity
  8
freecads.com
100
AcDbLine
 10
10265.69465884269
 20
29543.69758742699
 30
0.0
 11
10264.58500884269
 21
29538.35922542699
 31
0.0
  0
LINE
  5
ABCC
330
1F
100
AcDbEntity
  8
freecads.com
100
AcDbLine
 10
10264.58500884269
 20
29538.35922542699
 30
0.0
 11
10262.36264884269
 21
29540.44702342699
 31
0.0
  0
ARC
  5
ABCD
330
1F
100
AcDbEntity
  8
freecads.com
100
AcDbCircle
 10
10267.74675221626
 20
29546.1781345786
 30
0.0
 40
7.863472780483467
100
AcDbArc
 50
213.5474040642423
 51
226.7881459329406
  0
ARC
  5
ABCE
330
1F
100
AcDbEntity
  8
freecads.com
100
AcDbCircle
 10
10264.67484902204
 20
29544.14123205033
 30
0.0
 40
4.177613159674695
100
AcDbArc
 50
192.2911297558675
 51
213.5474365733083
  0
ARC
  5
ABCF
330
1F
100
AcDbEntity
  8
freecads.com
100
AcDbCircle
 10
10268.95877420419
 20
29545.0746027242
 30
0.0
 40
8.562039665044169
100
AcDbArc
 50
178.9516068904968
 51
192.2912517127875
  0
ARC
  5
ABD0
330
1F
100
AcDbEntity
  8
freecads.com
100
AcDbCircle
 10
10336.8747951967
 20
29543.8318098983
 30
0.0
 40
76.48943061643278
100
AcDbArc
 50
176.286836048775
 51
178.9516572459326
  0
ARC
  5
ABD1
330
1F
100
AcDbEntity
  8
freecads.com
100
AcDbCircle
 10
10322.06724469805
 20
29544.79281846177
 30
0.0
 40
61.650728205908
100
AcDbArc
 50
169.8684365300838
 51
176.2868646600213
  0
ARC
  5
ABD2
330
1F
100
AcDbEntity
  8
freecads.com
100
AcDbCircle
 10
10364.03146022303
 20
29537.29405878958
 30
0.0
 40
104.2796712053068
100
AcDbArc
 50
165.5385686509552
 51
169.8684684270088
  0
ARC
  5
ABD3
330
1F
100
AcDbEntity
  8
freecads.com
100
AcDbCircle
 10
10358.59540492829
 20
29538.69607313219
 30
0.0
 40
98.66572950798506
100
AcDbArc
 50
161.2235932047565
 51
165.5386013766836
  0
ARC
  5
ABD4
330
1F
100
AcDbEntity
  8
freecads.com
100
AcDbCircle
 10
10290.469762838
 20
29561.85661319167
 30
0.0
 40
26.71078717557442
100
AcDbArc
 50
149.816680681122
 51
161.2235508203067
  0
ARC
  5
ABD5
330
1F
100
AcDbEntity
  8
freecads.com
100
AcDbCircle
 10
10060.65025083847
 20
29695.5252912213
 30
0.0
 40
239.1544485772258
100
AcDbArc
 50
329.816663033326
 51
330.8754815054909
  0
ARC
  5
ABD6
330
1F
100
AcDbEntity
  8
freecads.com
100
AcDbCircle
 10
10269.39553801319
 20
29579.22212559367
 30
0.0
 40
0.1962487751116631
100
AcDbArc
 50
330.8754571241154
 51
109.3043697182831
  0
ARC
  5
ABD7
330
1F
100
AcDbEntity
  8
freecads.com
100
AcDbCircle
 10
10269.84274374166
 20
29577.94541701388
 30
0.0
 40
1.549015481262786
100
AcDbArc
 50
109.3043497849419
 51
146.6582768099343
  0
ARC
  5
ABD8
330
1F
100
AcDbEntity
  8
freecads.com
100
AcDbCircle
 10
10533.28936553299
 20
29404.61831249673
 30
0.0
 40
316.9002604345156
100
AcDbArc
 50
146.6582366331469
 51
147.5220237150313
  0
ARC
  5
ABD9
330
1F
100
AcDbEntity
  8
freecads.com
100
AcDbCircle
 10
10285.72482190154
 20
29562.20057195637
 30
0.0
 40
23.4375340792683
100
AcDbArc
 50
147.5220246126914
 51
154.5106303237245
  0
ARC
  5
ABDA
330
1F
100
AcDbEntity
  8
freecads.com
100
AcDbCircle
 10
10355.64038339564
 20
29528.86840696776
 30
0.0
 40
100.8921592598383
100
AcDbArc
 50
154.5105922583801
 51
156.8743031243167
  0
ARC
  5
ABDB
330
1F
100
AcDbEntity
  8
freecads.com
100
AcDbCircle
 10
10366.75155512318
 20
29524.12316291958
 30
0.0
 40
112.9741904729526
100
AcDbArc
 50
156.874286045043
 51
159.2153101724236
  0
ARC
  5
ABDC
330
1F
100
AcDbEntity
  8
freecads.com
100
AcDbCircle
 10
10350.77333798178
 20
29530.18779285672
 30
0.0
 40
95.88374989083808
100
AcDbArc
 50
159.2152877137431
 51
161.8626933335226
  0
ARC
  5
ABDD
330
1F
100
AcDbEntity
  8
freecads.com
100
AcDbCircle
 10
10085.25340908158
 20
29617.1645056122
 30
0.0
 40
183.518793413463
100
AcDbArc
 50
339.869301186866
 51
341.8626856786041
  0
ARC
  5
ABDE
330
1F
100
AcDbEntity
  8
freecads.com
100
AcDbCircle
 10
10253.35938749562
 20
29555.54430164775
 30
0.0
 40
4.475029168069365
100
AcDbArc
 50
310.9385494163591
 51
339.8692927558355
  0
ARC
  5
ABDF
330
1F
100
AcDbEntity
  8
freecads.com
100
AcDbCircle
 10
10256.00871039312
 20
29552.48999410119
 30
0.0
 40
0.431799468412372
100
AcDbArc
 50
176.3708279212917
 51
310.9385822784121
  0
ARC
  5
ABE0
330
1F
100
AcDbEntity
  8
freecads.com
100
AcDbCircle
 10
10307.99216591328
 20
29549.19295502405
 30
0.0
 40
52.51970703334537
100
AcDbArc
 50
171.5587503460977
 51
176.3708885240125
  0
ARC
  5
ABE1
330
1F
100
AcDbEntity
  8
freecads.com
100
AcDbCircle
 10
10325.71837650827
 20
29546.56243085196
 30
0.0
 40
70.44003625663082
100
AcDbArc
 50
168.3827823994241
 51
171.5588278999577
  0
ARC
  5
ABE2
330
1F
100
AcDbEntity
  8
freecads.com
100
AcDbCircle
 10
11710.17315973484
 20
29261.94043161436
 30
0.0
 40
1483.848940024011
100
AcDbArc
 50
168.0360038383973
 51
168.3827576313919
  0
ARC
  5
ABE3
330
1F
100
AcDbEntity
  8
freecads.com
100
AcDbCircle
 10
11736.04757123177
 20
29256.4574719437
 30
0.0
 40
1510.297910080213
100
AcDbArc
 50
167.6949731097794
 51
168.0359973376616
  0
ARC
  5
ABE4
330
1F
100
AcDbEntity
  8
freecads.com
100
AcDbCircle
 10
10325.61180797113
 20
29564.11194704915
 30
0.0
 40
66.69813232435775
100
AcDbArc
 50
164.4111004721169
 51
167.6950697797062
  0
ARC
  5
ABE5
330
1F
100
AcDbEntity
  8
freecads.com
100
AcDbCircle
 10
10261.20018576741
 20
29582.08254384562
 30
0.0
 40
0.1733819708618819
100
AcDbArc
 50
344.4111263450597
 51
83.01893455689382
  0
ARC
  5
ABE6
330
1F
100
AcDbEntity
  8
freecads.com
100
AcDbCircle
 10
10261.16865943372
 20
29581.82508037839
 30
0.0
 40
0.4327684521458261
100
AcDbArc
 50
83.01891376858389
 51
134.8097282445089
  0
ARC
  5
ABE7
330
1F
100
AcDbEntity
  8
freecads.com
100
AcDbCircle
 10
10267.14035509539
 20
29575.81358965004
 30
0.0
 40
8.906207532749881
100
AcDbArc
 50
134.8097267302165
 51
143.1629590411152
  0
ARC
  5
ABE8
330
1F
100
AcDbEntity
  8
freecads.com
100
AcDbCircle
 10
10295.39206561649
 20
29554.65016810647
 30
0.0
 40
44.20563470654509
100
AcDbArc
 50
143.163019132178
 51
145.7100554388959
  0
ARC
  5
ABE9
330
1F
100
AcDbEntity
  8
freecads.com
100
AcDbCircle
 10
10278.63288324132
 20
29566.07822444993
 30
0.0
 40
23.92089498249603
100
AcDbArc
 50
145.7101081569959
 51
154.8219793226161
  0
ARC
  5
ABEA
330
1F
100
AcDbEntity
  8
freecads.com
100
AcDbCircle
 10
10280.78083102162
 20
29565.06851017897
 30
0.0
 40
26.29433185238626
100
AcDbArc
 50
154.8220325316014
 51
163.3098426772702
  0
ARC
  5
ABEB
330
1F
100
AcDbEntity
  8
freecads.com
100
AcDbCircle
 10
10300.09863945114
 20
29559.27646737908
 30
0.0
 40
46.46176803833391
100
AcDbArc
 50
163.3097959173977
 51
169.3679861147733
  0
ARC
  5
ABEC
330
1F
100
AcDbEntity
  8
freecads.com
100
AcDbCircle
 10
10456.87534670038
 20
29529.84557623834
 30
0.0
 40
205.9770127306151
100
AcDbArc
 50
169.3679172842552
 51
171.3734475568525
  0
LINE
  5
ABED
330
1F
100
AcDbEntity
  8
freecads.com
100
AcDbLine
 10
10253.22855684269
 20
29560.74079842699
 30
0.0
 11
10252.57693884269
 21
29556.44564742699
 31
0.0
  0
LINE
  5
ABEE
330
1F
100
AcDbEntity
  8
freecads.com
100
AcDbLine
 10
10252.57693884269
 20
29556.44564742699
 30
0.0
 11
10249.80888884269
 21
29560.74079842699
 31
0.0
  0
ARC
  5
ABEF
330
1F
100
AcDbEntity
  8
freecads.com
100
AcDbCircle
 10
10226.2165339797
 20
29545.53652500086
 30
0.0
 40
28.06722534198641
100
AcDbArc
 50
32.80006561639555
 51
38.27260567503233
  0
ARC
  5
ABF0
330
1F
100
AcDbEntity
  8
freecads.com
100
AcDbCircle
 10
10130.33125837156
 20
29469.88525280553
 30
0.0
 40
150.202810096059
100
AcDbArc
 50
38.27262213338586
 51
39.85258551905447
  0
ARC
  5
ABF1
330
1F
100
AcDbEntity
  8
freecads.com
100
AcDbCircle
 10
10115.88025580907
 20
29457.82231901045
 30
0.0
 40
169.026886348295
100
AcDbArc
 50
39.85267020112179
 51
41.43790454717484
  0
ARC
  5
ABF2
330
1F
100
AcDbEntity
  8
freecads.com
100
AcDbCircle
 10
10125.13834992004
 20
29465.99492117545
 30
0.0
 40
156.6776461846575
100
AcDbArc
 50
41.43801348201153
 51
43.11606228514007
  0
LINE
  5
ABF3
330
1F
100
AcDbEntity
  8
freecads.com
100
AcDbLine
 10
10239.50844084269
 20
29573.08071442699
 30
0.0
 11
10231.97604184269
 21
29581.12547942699
 31
0.0
  0
LINE
  5
ABF4
330
1F
100
AcDbEntity
  8
freecads.com
100
AcDbLine
 10
10231.97604184269
 20
29581.12547942699
 30
0.0
 11
10233.46077584269
 21
29584.58071442699
 31
0.0
  0
ARC
  5
ABF5
330
1F
100
AcDbEntity
  8
freecads.com
100
AcDbCircle
 10
9778.33989918758
 20
29780.14851741122
 30
0.0
 40
495.3602506574347
100
AcDbArc
 50
336.7465522155333
 51
337.559690506241
  0
ARC
  5
ABF6
330
1F
100
AcDbEntity
  8
freecads.com
100
AcDbCircle
 10
10235.05574947705
 20
29591.52781638753
 30
0.0
 40
1.227538969264708
100
AcDbArc
 50
337.5597466677405
 51
33.02907840167867
  0
ARC
  5
ABF7
330
1F
100
AcDbEntity
  8
freecads.com
100
AcDbCircle
 10
10235.71122989267
 20
29591.95396303786
 30
0.0
 40
0.4457106359000093
100
AcDbArc
 50
33.02912422521519
 51
142.9075468357158
  0
ARC
  5
ABF8
330
1F
100
AcDbEntity
  8
freecads.com
100
AcDbCircle
 10
10474.61934918907
 20
29411.31789937589
 30
0.0
 40
299.9561060498693
100
AcDbArc
 50
142.9074348831975
 51
144.0806130172472
  0
LINE
  5
ABF9
330
1F
100
AcDbEntity
  8
freecads.com
100
AcDbLine
 10
10231.70194084269
 20
29587.28607342699
 30
0.0
 11
10228.76799084269
 21
29583.23587342699
 31
0.0
  0
LINE
  5
ABFA
330
1F
100
AcDbEntity
  8
freecads.com
100
AcDbLine
 10
10228.76799084269
 20
29583.23587342699
 30
0.0
 11
10228.76209584269
 21
29591.63591242699
 31
0.0
  0
ARC
  5
ABFB
330
1F
100
AcDbEntity
  8
freecads.com
100
AcDbCircle
 10
10155.47993321028
 20
29591.58441793589
 30
0.0
 40
73.28218072468899
100
AcDbArc
 50
0.0402610459216454
 51
3.111589318864362
  0
ARC
  5
ABFC
330
1F
100
AcDbEntity
  8
freecads.com
100
AcDbCircle
 10
10049.13273142952
 20
29585.80319059311
 30
0.0
 40
179.786405599487
100
AcDbArc
 50
3.111619360502693
 51
4.682645026975658
  0
ARC
  5
ABFD
330
1F
100
AcDbEntity
  8
freecads.com
100
AcDbCircle
 10
10042.18292827866
 20
29585.23405422968
 30
0.0
 40
186.7594737922993
100
AcDbArc
 50
4.682607667655291
 51
6.242403885384497
  0
ARC
  5
ABFE
330
1F
100
AcDbEntity
  8
freecads.com
100
AcDbCircle
 10
10119.12984044266
 20
29593.65077357479
 30
0.0
 40
109.3536054352532
100
AcDbArc
 50
6.242411425200386
 51
8.571290108344575
  0
ARC
  5
ABFF
330
1F
100
AcDbEntity
  8
freecads.com
100
AcDbCircle
 10
10535.65389071003
 20
29656.43049153083
 30
0.0
 40
311.875046768957
100
AcDbArc
 50
187.8248157686041
 51
188.5712625447713
  0
ARC
  5
AC00
330
1F
100
AcDbEntity
  8
freecads.com
100
AcDbCircle
 10
10494.07555887077
 20
29650.71648335166
 30
0.0
 40
269.9059204022447
100
AcDbArc
 50
186.9928557022199
 51
187.8247867666602
  0
ARC
  5
AC01
330
1F
100
AcDbEntity
  8
freecads.com
100
AcDbCircle
 10
10473.30282743958
 20
29648.16850891142
 30
0.0
 40
248.977505630471
100
AcDbArc
 50
186.2241708859462
 51
186.9928481815967
  0
ARC
  5
AC02
330
1F
100
AcDbEntity
  8
freecads.com
100
AcDbCircle
 10
10249.03140964299
 20
29623.70906837652
 30
0.0
 40
23.37623552819091
100
AcDbArc
 50
181.8637142783782
 51
186.2240844540274
  0
ARC
  5
AC03
330
1F
100
AcDbEntity
  8
freecads.com
100
AcDbCircle
 10
10081.40081516701
 20
29618.25466931612
 30
0.0
 40
144.3430736567837
100
AcDbArc
 50
1.863633134878778
 51
2.654082574739749
  0
ARC
  5
AC04
330
1F
100
AcDbEntity
  8
freecads.com
100
AcDbCircle
 10
10225.49834951172
 20
29624.93440263463
 30
0.0
 40
0.0908007407865895
100
AcDbArc
 50
2.654196889803107
 51
130.3088351226324
  0
ARC
  5
AC05
330
1F
100
AcDbEntity
  8
freecads.com
100
AcDbCircle
 10
10225.82256611815
 20
29624.55221662268
 30
0.0
 40
0.5919819012526942
100
AcDbArc
 50
130.3086849255305
 51
165.9655419340524
  0
ARC
  5
AC06
330
1F
100
AcDbEntity
  8
freecads.com
100
AcDbCircle
 10
10690.90086010078
 20
29508.29917362513
 30
0.0
 40
479.9797055029163
100
AcDbArc
 50
165.9656730835799
 51
166.2927171711489
  0
ARC
  5
AC07
330
1F
100
AcDbEntity
  8
freecads.com
100
AcDbCircle
 10
10237.86325036029
 20
29618.79884837088
 30
0.0
 40
13.6608725588749
100
AcDbArc
 50
166.2927200635109
 51
176.9267417728105
  0
ARC
  5
AC08
330
1F
100
AcDbEntity
  8
freecads.com
100
AcDbCircle
 10
10287.10395305265
 20
29616.15514272078
 30
0.0
 40
62.9724937165899
100
AcDbArc
 50
176.9267657974451
 51
180.348444677956
  0
ARC
  5
AC09
330
1F
100
AcDbEntity
  8
freecads.com
100
AcDbCircle
 10
10320.19337786877
 20
29616.35627241165
 30
0.0
 40
96.06252979705363
100
AcDbArc
 50
180.3483812444863
 51
183.2157707936524
  0
ARC
  5
AC0A
330
1F
100
AcDbEntity
  8
freecads.com
100
AcDbCircle
 10
10446.73453572275
 20
29623.46567380738
 30
0.0
 40
222.8032423530252
100
AcDbArc
 50
183.2156968909009
 51
184.7447839654792
  0
ARC
  5
AC0B
330
1F
100
AcDbEntity
  8
freecads.com
100
AcDbCircle
 10
9681.069906015423
 20
29559.91470207539
 30
0.0
 40
545.4942593955576
100
AcDbArc
 50
4.193300496205048
 51
4.744714014396559
  0
ARC
  5
AC0C
330
1F
100
AcDbEntity
  8
freecads.com
100
AcDbCircle
 10
9782.139838196428
 20
29567.32508616235
 30
0.0
 40
444.1530289739784
100
AcDbArc
 50
3.549965387099656
 51
4.193280709929422
  0
ARC
  5
AC0D
330
1F
100
AcDbEntity
  8
freecads.com
100
AcDbCircle
 10
9802.297155157955
 20
29568.5751382208
 30
0.0
 40
423.9569883469546
100
AcDbArc
 50
2.980051188932016
 51
3.550028428223977
  0
ARC
  5
AC0E
330
1F
100
AcDbEntity
  8
freecads.com
100
AcDbCircle
 10
10195.048485565
 20
29589.02123214227
 30
0.0
 40
30.67382026935833
100
AcDbArc
 50
359.0935020829608
 51
2.980075147003013
  0
ARC
  5
AC0F
330
1F
100
AcDbEntity
  8
freecads.com
100
AcDbCircle
 10
10114.63615824608
 20
29590.29348750948
 30
0.0
 40
111.0962115454388
100
AcDbArc
 50
357.9425975829112
 51
359.0935455260087
  0
ARC
  5
AC10
330
1F
100
AcDbEntity
  8
freecads.com
100
AcDbCircle
 10
10224.96682798852
 20
29586.32997997928
 30
0.0
 40
0.6943724404831367
100
AcDbArc
 50
315.7864954199396
 51
357.942673969019
  0
ARC
  5
AC11
330
1F
100
AcDbEntity
  8
freecads.com
100
AcDbCircle
 10
10225.30789407182
 20
29585.99815156508
 30
0.0
 40
0.2185193437680809
100
AcDbArc
 50
218.5095987519931
 51
315.7864379281037
  0
ARC
  5
AC12
330
1F
100
AcDbEntity
  8
freecads.com
100
AcDbCircle
 10
10244.23966292751
 20
29601.06230058633
 30
0.0
 40
24.41232966252148
100
AcDbArc
 50
215.0688303647669
 51
218.5095271805182
  0
ARC
  5
AC13
330
1F
100
AcDbEntity
  8
freecads.com
100
AcDbCircle
 10
10177.60868083539
 20
29554.28745418005
 30
0.0
 40
56.99758392847076
100
AcDbArc
 50
35.06878085495266
 51
36.19451927706578
  0
ARC
  5
AC14
330
1F
100
AcDbEntity
  8
freecads.com
100
AcDbCircle
 10
10125.37639350104
 20
29516.06683658636
 30
0.0
 40
121.7202804840155
100
AcDbArc
 50
36.19453232928653
 51
36.83280566282384
  0
ARC
  5
AC15
330
1F
100
AcDbEntity
  8
freecads.com
100
AcDbCircle
 10
10124.43076165046
 20
29515.35850417892
 30
0.0
 40
122.9017856230673
100
AcDbArc
 50
36.83282976259103
 51
37.46995718959801
  0
ARC
  5
AC16
330
1F
100
AcDbEntity
  8
freecads.com
100
AcDbCircle
 10
10171.88657901102
 20
29551.73316502148
 30
0.0
 40
63.10905569068552
100
AcDbArc
 50
37.46992126887464
 51
38.51911425365618
  0
ARC
  5
AC17
330
1F
100
AcDbEntity
  8
freecads.com
100
AcDbCircle
 10
10183.29138400171
 20
29560.8111955271
 30
0.0
 40
48.53235459832438
100
AcDbArc
 50
38.51909087523352
 51
40.16528490064824
  0
ARC
  5
AC18
330
1F
100
AcDbEntity
  8
freecads.com
100
AcDbCircle
 10
10220.32492911191
 20
29592.06852468626
 30
0.0
 40
0.0709876180845884
100
AcDbArc
 50
40.165387198899
 51
183.2239475195902
  0
ARC
  5
AC19
330
1F
100
AcDbEntity
  8
freecads.com
100
AcDbCircle
 10
10221.41921497863
 20
29592.13016182787
 30
0.0
 40
1.16700800810017
100
AcDbArc
 50
183.2238618350732
 51
205.4654370041453
  0
ARC
  5
AC1A
330
1F
100
AcDbEntity
  8
freecads.com
100
AcDbCircle
 10
10473.21336448702
 20
29712.04314394921
 30
0.0
 40
280.0566223860573
100
AcDbArc
 50
205.4653867608269
 51
205.9271901186711
  0
ARC
  5
AC1B
330
1F
100
AcDbEntity
  8
freecads.com
100
AcDbCircle
 10
10170.1810743741
 20
29564.72085069824
 30
0.0
 40
56.88911054405795
100
AcDbArc
 50
22.06464285197106
 51
25.92715856573671
  0
ARC
  5
AC1C
330
1F
100
AcDbEntity
  8
freecads.com
100
AcDbCircle
 10
10201.13022754017
 20
29577.26576888163
 30
0.0
 40
23.49412508328809
100
AcDbArc
 50
14.58627471355495
 51
22.06461474975622
  0
ARC
  5
AC1D
330
1F
100
AcDbEntity
  8
freecads.com
100
AcDbCircle
 10
10217.73729071773
 20
29581.58733130606
 30
0.0
 40
6.333983790992315
100
AcDbArc
 50
358.9703919817608
 51
14.5863238507581
  0
ARC
  5
AC1E
330
1F
100
AcDbEntity
  8
freecads.com
100
AcDbCircle
 10
10223.71865517917
 20
29581.47983460383
 30
0.0
 40
0.3516534455858509
100
AcDbArc
 50
238.2824912161791
 51
358.970345218432
  0
ARC
  5
AC1F
330
1F
100
AcDbEntity
  8
freecads.com
100
AcDbCircle
 10
10222.84648957281
 20
29580.06864481303
 30
0.0
 40
1.307300884884073
100
AcDbArc
 50
58.28244718189067
 51
78.7477871645803
  0
ARC
  5
AC20
330
1F
100
AcDbEntity
  8
freecads.com
100
AcDbCircle
 10
10223.06502487916
 20
29581.16707400898
 30
0.0
 40
0.1873435738049502
100
AcDbArc
 50
78.74780307045563
 51
163.4508828188869
  0
ARC
  5
AC21
330
1F
100
AcDbEntity
  8
freecads.com
100
AcDbCircle
 10
10223.61918823824
 20
29581.00240897292
 30
0.0
 40
0.7654539461700164
100
AcDbArc
 50
163.4510624683846
 51
196.2709993689335
  0
ARC
  5
AC22
330
1F
100
AcDbEntity
  8
freecads.com
100
AcDbCircle
 10
10232.88789445364
 20
29583.70766510257
 30
0.0
 40
10.42088379856608
100
AcDbArc
 50
196.2709390997209
 51
201.1364531431945
  0
ARC
  5
AC23
330
1F
100
AcDbEntity
  8
freecads.com
100
AcDbCircle
 10
10204.08983223095
 20
29572.57436394174
 30
0.0
 40
20.4543292779452
100
AcDbArc
 50
11.92893228063659
 51
21.13644904711398
  0
ARC
  5
AC24
330
1F
100
AcDbEntity
  8
freecads.com
100
AcDbCircle
 10
10211.87072588298
 20
29574.21817511086
 30
0.0
 40
12.50169316257155
100
AcDbArc
 50
358.6150272387208
 51
11.92886183761145
  0
ARC
  5
AC25
330
1F
100
AcDbEntity
  8
freecads.com
100
AcDbCircle
 10
10208.06008008376
 20
29574.31029992001
 30
0.0
 40
16.31345238732961
100
AcDbArc
 50
347.2811054620869
 51
358.6150459928263
  0
ARC
  5
AC26
330
1F
100
AcDbEntity
  8
freecads.com
100
AcDbCircle
 10
10173.3578951132
 20
29582.14278421704
 30
0.0
 40
51.88857644887503
100
AcDbArc
 50
342.4957879840308
 51
347.2811234914908
  0
ARC
  5
AC27
330
1F
100
AcDbEntity
  8
freecads.com
100
AcDbCircle
 10
10292.16205123214
 20
29544.6744215031
 30
0.0
 40
72.68391536050383
100
AcDbArc
 50
162.4958225731224
 51
164.6915588425013
  0
ARC
  5
AC28
330
1F
100
AcDbEntity
  8
freecads.com
100
AcDbCircle
 10
10287.34186786685
 20
29545.99381422836
 30
0.0
 40
67.6864195037843
100
AcDbArc
 50
164.6915396222143
 51
167.0078145283174
  0
ARC
  5
AC29
330
1F
100
AcDbEntity
  8
freecads.com
100
AcDbCircle
 10
10280.0373324891
 20
29547.67914646541
 30
0.0
 40
60.18998156073742
100
AcDbArc
 50
167.0078114628773
 51
169.2521299942224
  0
ARC
  5
AC2A
330
1F
100
AcDbEntity
  8
freecads.com
100
AcDbCircle
 10
10228.544723015
 20
29557.45333969756
 30
0.0
 40
7.777924896335875
100
AcDbArc
 50
169.2521235449024
 51
179.3914398506881
  0
ARC
  5
AC2B
330
1F
100
AcDbEntity
  8
freecads.com
100
AcDbCircle
 10
10200.24346071451
 20
29557.75396732269
 30
0.0
 40
20.52493405413515
100
AcDbArc
 50
352.276623772497
 51
359.3913898645911
  0
ARC
  5
AC2C
330
1F
100
AcDbEntity
  8
freecads.com
100
AcDbCircle
 10
10205.92469648077
 20
29556.98349579163
 30
0.0
 40
14.79169184650045
100
AcDbArc
 50
343.1816006481096
 51
352.2765390070934
  0
ARC
  5
AC2D
330
1F
100
AcDbEntity
  8
freecads.com
100
AcDbCircle
 10
10209.91937338789
 20
29555.77603557029
 30
0.0
 40
10.61851514543133
100
AcDbArc
 50
333.2616310607869
 51
343.1815814310164
  0
ARC
  5
AC2E
330
1F
100
AcDbEntity
  8
freecads.com
100
AcDbCircle
 10
10218.65136004402
 20
29551.37697472387
 30
0.0
 40
0.841024296884478
100
AcDbArc
 50
269.9999862837596
 51
333.2616282795811
  0
ARC
  5
AC2F
330
1F
100
AcDbEntity
  8
freecads.com
100
AcDbCircle
 10
10218.65135938639
 20
29550.89195707069
 30
0.0
 40
0.3560066436982165
100
AcDbArc
 50
188.0466619071236
 51
270.0000734365189
  0
ARC
  5
AC30
330
1F
100
AcDbEntity
  8
freecads.com
100
AcDbCircle
 10
10277.95187495593
 20
29559.27540849179
 30
0.0
 40
60.24618450737573
100
AcDbArc
 50
185.877329537371
 51
188.046712138371
  0
ARC
  5
AC31
330
1F
100
AcDbEntity
  8
freecads.com
100
AcDbCircle
 10
10262.95198003907
 20
29557.73135220308
 30
0.0
 40
45.16702812056534
100
AcDbArc
 50
182.2843045592634
 51
185.8773722571786
  0
ARC
  5
AC32
330
1F
100
AcDbEntity
  8
freecads.com
100
AcDbCircle
 10
10306.334148097
 20
29559.4618234327
 30
0.0
 40
88.58369584255468
100
AcDbArc
 50
180.1137544272212
 51
182.2842828410213
  0
ARC
  5
AC33
330
1F
100
AcDbEntity
  8
freecads.com
100
AcDbCircle
 10
10149.9774997075
 20
29559.15153036221
 30
0.0
 40
67.77326043828907
100
AcDbArc
 50
0.1136393230493424
 51
3.379506860954354
  0
ARC
  5
AC34
330
1F
100
AcDbEntity
  8
freecads.com
100
AcDbCircle
 10
10105.13796995348
 20
29556.50374965174
 30
0.0
 40
112.6908980792894
100
AcDbArc
 50
3.379464189778237
 51
5.610949690209546
  0
ARC
  5
AC35
330
1F
100
AcDbEntity
  8
freecads.com
100
AcDbCircle
 10
10109.92170569238
 20
29556.97371072053
 30
0.0
 40
107.8841329481811
100
AcDbArc
 50
5.610955683246736
 51
7.861461563751242
  0
ARC
  5
AC36
330
1F
100
AcDbEntity
  8
freecads.com
100
AcDbCircle
 10
10174.11996901703
 20
29565.83792071488
 30
0.0
 40
43.07679360513855
100
AcDbArc
 50
7.861496674804921
 51
12.32908476722527
  0
ARC
  5
AC37
330
1F
100
AcDbEntity
  8
freecads.com
100
AcDbCircle
 10
10748.49856178746
 20
29691.37767957088
 30
0.0
 40
544.8611273410947
100
AcDbArc
 50
191.9937396688702
 51
192.3290343313535
  0
ARC
  5
AC38
330
1F
100
AcDbEntity
  8
freecads.com
100
AcDbCircle
 10
11145.98450586004
 20
29775.82056005017
 30
0.0
 40
951.2177143418526
100
AcDbArc
 50
191.7728087854486
 51
191.9937412427676
  0
ARC
  5
AC39
330
1F
100
AcDbEntity
  8
freecads.com
100
AcDbCircle
 10
11115.10604599574
 20
29769.38601600133
 30
0.0
 40
919.6759540914131
100
AcDbArc
 50
191.5505628347928
 51
191.7728703895218
  0
ARC
  5
AC3A
330
1F
100
AcDbEntity
  8
freecads.com
100
AcDbCircle
 10
10587.18135869544
 20
29661.49327733747
 30
0.0
 40
380.8389485716439
100
AcDbArc
 50
191.1210758998063
 51
191.5505645601921
  0
ARC
  5
AC3B
330
1F
100
AcDbEntity
  8
freecads.com
100
AcDbCircle
 10
10057.4979709117
 20
29557.37131272913
 30
0.0
 40
158.9812759550066
100
AcDbArc
 50
11.12102653916821
 51
12.22774321372351
  0
ARC
  5
AC3C
330
1F
100
AcDbEntity
  8
freecads.com
100
AcDbCircle
 10
10208.10576684416
 20
29590.01020879672
 30
0.0
 40
4.877396275921957
100
AcDbArc
 50
12.22779882247077
 51
25.94336621365436
  0
ARC
  5
AC3D
330
1F
100
AcDbEntity
  8
freecads.com
100
AcDbCircle
 10
10212.34969038866
 20
29592.07491838365
 30
0.0
 40
0.1578716462759352
100
AcDbArc
 50
25.94334892180266
 51
158.9339352845644
  0
ARC
  5
AC3E
330
1F
100
AcDbEntity
  8
freecads.com
100
AcDbCircle
 10
10215.9381150553
 20
29590.69271093185
 30
0.0
 40
4.003296073831046
100
AcDbArc
 50
158.9340572368155
 51
173.0158839483971
  0
ARC
  5
AC3F
330
1F
100
AcDbEntity
  8
freecads.com
100
AcDbCircle
 10
10219.60744073819
 20
29590.24320382221
 30
0.0
 40
7.70005243700969
100
AcDbArc
 50
173.0158610190181
 51
184.7740866033371
  0
ARC
  5
AC40
330
1F
100
AcDbEntity
  8
freecads.com
100
AcDbCircle
 10
10270.86468778312
 20
29594.52400724194
 30
0.0
 40
59.13574677997424
100
AcDbArc
 50
184.77404511851
 51
187.3909734040064
  0
ARC
  5
AC41
330
1F
100
AcDbEntity
  8
freecads.com
100
AcDbCircle
 10
10278.46746986709
 20
29595.5101052835
 30
0.0
 40
66.80221172496644
100
AcDbArc
 50
187.3908772919261
 51
190.0825092521531
  0
ARC
  5
AC42
330
1F
100
AcDbEntity
  8
freecads.com
100
AcDbCircle
 10
10283.68667041648
 20
29596.43816806394
 30
0.0
 40
72.10328283358667
100
AcDbArc
 50
190.0825290460099
 51
192.624294790733
  0
ARC
  5
AC43
330
1F
100
AcDbEntity
  8
freecads.com
100
AcDbCircle
 10
10158.72108720131
 20
29568.4493160987
 30
0.0
 40
55.95831493347024
100
AcDbArc
 50
2.984904937134908
 51
12.6243881645121
  0
ARC
  5
AC44
330
1F
100
AcDbEntity
  8
freecads.com
100
AcDbCircle
 10
9470.458474741979
 20
29532.56046169483
 30
0.0
 40
745.1559887395821
100
AcDbArc
 50
1.533764741195459
 51
2.984932850424873
  0
ARC
  5
AC45
330
1F
100
AcDbEntity
  8
freecads.com
100
AcDbCircle
 10
7564.586296727198
 20
29481.52966105404
 30
0.0
 40
2651.711233558058
100
AcDbArc
 50
1.091897038617451
 51
1.53376154277681
  0
ARC
  5
AC46
330
1F
100
AcDbEntity
  8
freecads.com
100
AcDbCircle
 10
10213.42855230879
 20
29532.0152843627
 30
0.0
 40
2.387906156233353
100
AcDbArc
 50
301.7174454922245
 51
1.09192145272273
  0
ARC
  5
AC47
330
1F
100
AcDbEntity
  8
freecads.com
100
AcDbCircle
 10
10214.55049283237
 20
29530.19994422282
 30
0.0
 40
0.2538465596175945
100
AcDbArc
 50
205.5770553249383
 51
301.7174681023319
  0
ARC
  5
AC48
330
1F
100
AcDbEntity
  8
freecads.com
100
AcDbCircle
 10
10218.6294730729
 20
29532.15224754172
 30
0.0
 40
4.775966422206044
100
AcDbArc
 50
193.9997807198535
 51
205.5769633277934
  0
ARC
  5
AC49
330
1F
100
AcDbEntity
  8
freecads.com
100
AcDbCircle
 10
10223.91418597864
 20
29533.46985222563
 30
0.0
 40
10.22245819206061
100
AcDbArc
 50
185.8859605948392
 51
193.9997766532878
  0
ARC
  5
AC4A
330
1F
100
AcDbEntity
  8
freecads.com
100
AcDbCircle
 10
10238.32915446213
 20
29534.95588437275
 30
0.0
 40
24.71382141025332
100
AcDbArc
 50
181.690223067931
 51
185.8858679977029
  0
LINE
  5
AC4B
330
1F
100
AcDbEntity
  8
freecads.com
100
AcDbLine
 10
10213.62608584269
 20
29534.22693342699
 30
0.0
 11
10213.48417984269
 21
29539.03595042699
 31
0.0
  0
LINE
  5
AC4C
330
1F
100
AcDbEntity
  8
freecads.com
100
AcDbLine
 10
10213.48417984269
 20
29539.03595042699
 30
0.0
 11
10212.83733684269
 21
29535.03595042699
 31
0.0
  0
LINE
  5
AC4D
330
1F
100
AcDbEntity
  8
freecads.com
100
AcDbLine
 10
10212.83733684269
 20
29535.03595042699
 30
0.0
 11
10212.19049284269
 21
29531.03595042699
 31
0.0
  0
LINE
  5
AC4E
330
1F
100
AcDbEntity
  8
freecads.com
100
AcDbLine
 10
10212.19049284269
 20
29531.03595042699
 30
0.0
 11
10211.38408184269
 21
29534.35745642699
 31
0.0
  0
ARC
  5
AC4F
330
1F
100
AcDbEntity
  8
freecads.com
100
AcDbCircle
 10
10189.33862414497
 20
29529.00511872668
 30
0.0
 40
22.68589261986935
100
AcDbArc
 50
13.64659250728353
 51
16.90466939743962
  0
ARC
  5
AC50
330
1F
100
AcDbEntity
  8
freecads.com
100
AcDbCircle
 10
10201.81695567911
 20
29532.7974347984
 30
0.0
 40
9.64402085758593
100
AcDbArc
 50
16.90467939065074
 51
23.07875367412745
  0
ARC
  5
AC51
330
1F
100
AcDbEntity
  8
freecads.com
100
AcDbCircle
 10
10205.42703586
 20
29534.33567160608
 30
0.0
 40
5.7198838328668
100
AcDbArc
 50
23.0788540765072
 51
30.33580301052203
  0
ARC
  5
AC52
330
1F
100
AcDbEntity
  8
freecads.com
100
AcDbCircle
 10
10210.24665389515
 20
29537.15607041542
 30
0.0
 40
0.1356768660270045
100
AcDbArc
 50
30.33585089961631
 51
135.0000122107394
  0
ARC
  5
AC53
330
1F
100
AcDbEntity
  8
freecads.com
100
AcDbCircle
 10
10210.46027459207
 20
29536.94244945408
 30
0.0
 40
0.4377823397859561
100
AcDbArc
 50
134.9999793133081
 51
187.6757320269339
  0
ARC
  5
AC54
330
1F
100
AcDbEntity
  8
freecads.com
100
AcDbCircle
 10
10288.56681753366
 20
29547.46907245393
 30
0.0
 40
79.25048335978472
100
AcDbArc
 50
187.6756527832842
 51
188.9996289276294
  0
ARC
  5
AC55
330
1F
100
AcDbEntity
  8
freecads.com
100
AcDbCircle
 10
10258.27099249803
 20
29542.67095621042
 30
0.0
 40
48.57705945458954
100
AcDbArc
 50
188.9997103797585
 51
191.5891402392066
  0
ARC
  5
AC56
330
1F
100
AcDbEntity
  8
freecads.com
100
AcDbCircle
 10
10295.86141578805
 20
29550.37977546045
 30
0.0
 40
86.94978176291177
100
AcDbArc
 50
191.5891649381524
 51
193.2637761783558
  0
ARC
  5
AC57
330
1F
100
AcDbEntity
  8
freecads.com
100
AcDbCircle
 10
10159.66438455414
 20
29518.27516085659
 30
0.0
 40
52.97997774452067
100
AcDbArc
 50
10.19532778702683
 51
13.26367721373833
  0
ARC
  5
AC58
330
1F
100
AcDbEntity
  8
freecads.com
100
AcDbCircle
 10
10137.65465665816
 20
29514.31682890074
 30
0.0
 40
75.34281553241533
100
AcDbArc
 50
7.838728118620806
 51
10.19533506140411
  0
ARC
  5
AC59
330
1F
100
AcDbEntity
  8
freecads.com
100
AcDbCircle
 10
10143.29919934272
 20
29515.09393636025
 30
0.0
 40
69.6450301625348
100
AcDbArc
 50
5.450715039158121
 51
7.838716704892024
  0
ARC
  5
AC5A
330
1F
100
AcDbEntity
  8
freecads.com
100
AcDbCircle
 10
10190.241307359
 20
29519.57321169601
 30
0.0
 40
22.4896973512256
100
AcDbArc
 50
359.9050714467995
 51
5.450678683608556
  0
LINE
  5
AC5B
330
1F
100
AcDbEntity
  8
freecads.com
100
AcDbLine
 10
10212.73097384269
 20
29519.53595042699
 30
0.0
 11
10212.72351884269
 21
29515.03595042699
 31
0.0
  0
LINE
  5
AC5C
330
1F
100
AcDbEntity
  8
freecads.com
100
AcDbLine
 10
10212.72351884269
 20
29515.03595042699
 30
0.0
 11
10210.76786384269
 21
29517.53595042699
 31
0.0
  0
ARC
  5
AC5D
330
1F
100
AcDbEntity
  8
freecads.com
100
AcDbCircle
 10
10223.08869292299
 20
29527.1740582243
 30
0.0
 40
15.64276034268506
100
AcDbArc
 50
202.9054160216012
 51
218.0346965835077
  0
ARC
  5
AC5E
330
1F
100
AcDbEntity
  8
freecads.com
100
AcDbCircle
 10
10243.3407969956
 20
29535.73108826015
 30
0.0
 40
37.62844846931066
100
AcDbArc
 50
195.0527109676738
 51
202.9053462810026
  0
ARC
  5
AC5F
330
1F
100
AcDbEntity
  8
freecads.com
100
AcDbCircle
 10
10274.1132475228
 20
29544.00682990261
 30
0.0
 40
69.49428615137406
100
AcDbArc
 50
189.414977809318
 51
195.0526618259888
  0
ARC
  5
AC60
330
1F
100
AcDbEntity
  8
freecads.com
100
AcDbCircle
 10
10453.21313412421
 20
29573.70466368106
 30
0.0
 40
251.039681884156
100
AcDbArc
 50
187.2471848738039
 51
189.4149633367933
  0
ARC
  5
AC61
330
1F
100
AcDbEntity
  8
freecads.com
100
AcDbCircle
 10
10499.05405731313
 20
29579.53383884749
 30
0.0
 40
297.2497405498423
100
AcDbArc
 50
185.5956743845728
 51
187.2471393486998
  0
ARC
  5
AC62
330
1F
100
AcDbEntity
  8
freecads.com
100
AcDbCircle
 10
10234.49909976404
 20
29553.61411513696
 30
0.0
 40
31.42807544142771
100
AcDbArc
 50
176.985563398472
 51
185.5955871185261
  0
ARC
  5
AC63
330
1F
100
AcDbEntity
  8
freecads.com
100
AcDbCircle
 10
10228.81574802894
 20
29553.91340611093
 30
0.0
 40
25.73684868158606
100
AcDbArc
 50
167.1017634467125
 51
176.9855704364171
  0
ARC
  5
AC64
330
1F
100
AcDbEntity
  8
freecads.com
100
AcDbCircle
 10
10355.38962415063
 20
29524.9283746708
 30
0.0
 40
155.5870630212211
100
AcDbArc
 50
164.4890159484393
 51
167.1018194746125
  0
ARC
  5
AC65
330
1F
100
AcDbEntity
  8
freecads.com
100
AcDbCircle
 10
10205.38827868455
 20
29566.55839896964
 30
0.0
 40
0.0839444424554418
100
AcDbArc
 50
344.4891157806774
 51
98.66432872029051
  0
ARC
  5
AC66
330
1F
100
AcDbEntity
  8
freecads.com
100
AcDbCircle
 10
10205.42530743519
 20
29566.3153965919
 30
0.0
 40
0.3297518547957349
100
AcDbArc
 50
98.66415318480781
 51
143.2278369718552
  0
ARC
  5
AC67
330
1F
100
AcDbEntity
  8
freecads.com
100
AcDbCircle
 10
10213.00645689885
 20
29560.64971215388
 30
0.0
 40
9.794095854331473
100
AcDbArc
 50
143.2278249443222
 51
149.1289025308634
  0
ARC
  5
AC68
330
1F
100
AcDbEntity
  8
freecads.com
100
AcDbCircle
 10
10246.55545172396
 20
29540.59401140604
 30
0.0
 40
48.88074557341192
100
AcDbArc
 50
149.1288823680329
 51
150.9210578199244
  0
ARC
  5
AC69
330
1F
100
AcDbEntity
  8
freecads.com
100
AcDbCircle
 10
10169.61538248888
 20
29583.38125585381
 30
0.0
 40
39.1563065201966
100
AcDbArc
 50
328.4634157377081
 51
330.9210812846762
  0
ARC
  5
AC6A
330
1F
100
AcDbEntity
  8
freecads.com
100
AcDbCircle
 10
10178.042764201
 20
29578.20956391437
 30
0.0
 40
29.26857877121147
100
AcDbArc
 50
325.4064919936344
 51
328.4633843108573
  0
ARC
  5
AC6B
330
1F
100
AcDbEntity
  8
freecads.com
100
AcDbCircle
 10
10179.13234295211
 20
29577.45813266117
 30
0.0
 40
27.94501132593037
100
AcDbArc
 50
322.7386300711024
 51
325.4064302455682
  0
ARC
  5
AC6C
330
1F
100
AcDbEntity
  8
freecads.com
100
AcDbCircle
 10
10200.06365717421
 20
29561.5350358787
 30
0.0
 40
1.645488018313775
100
AcDbArc
 50
301.7174917113076
 51
322.7386062770259
  0
ARC
  5
AC6D
330
1F
100
AcDbEntity
  8
freecads.com
100
AcDbCircle
 10
10200.77718212102
 20
29560.38052816895
 30
0.0
 40
0.2882828379574294
100
AcDbArc
 50
208.8481897897918
 51
301.7175829780426
  0
ARC
  5
AC6E
330
1F
100
AcDbEntity
  8
freecads.com
100
AcDbCircle
 10
10210.61817950484
 20
29565.80143590396
 30
0.0
 40
11.52356076864837
100
AcDbArc
 50
202.241024253785
 51
208.8481468009641
  0
ARC
  5
AC6F
330
1F
100
AcDbEntity
  8
freecads.com
100
AcDbCircle
 10
10215.40748384527
 20
29567.75992669776
 30
0.0
 40
16.69783581493264
100
AcDbArc
 50
195.9687360807845
 51
202.2410574440304
  0
ARC
  5
AC70
330
1F
100
AcDbEntity
  8
freecads.com
100
AcDbCircle
 10
10234.20376320237
 20
29573.13857770765
 30
0.0
 40
36.24853923850742
100
AcDbArc
 50
192.4554088168349
 51
195.9687399596727
  0
ARC
  5
AC71
330
1F
100
AcDbEntity
  8
freecads.com
100
AcDbCircle
 10
10142.7610581007
 20
29552.94078535217
 30
0.0
 40
57.39823930912924
100
AcDbArc
 50
12.4554907220539
 51
16.52879169430078
  0
ARC
  5
AC72
330
1F
100
AcDbEntity
  8
freecads.com
100
AcDbCircle
 10
10169.65652640525
 20
29560.92227369411
 30
0.0
 40
29.34346482290344
100
AcDbArc
 50
16.52882091651746
 51
23.25845265491087
  0
ARC
  5
AC73
330
1F
100
AcDbEntity
  8
freecads.com
100
AcDbCircle
 10
10196.42438821747
 20
29572.4273332434
 30
0.0
 40
0.2078367838403918
100
AcDbArc
 50
23.25836846960244
 51
157.5759225995437
  0
ARC
  5
AC74
330
1F
100
AcDbEntity
  8
freecads.com
100
AcDbCircle
 10
10197.79070353768
 20
29571.86350789564
 30
0.0
 40
1.68591546138908
100
AcDbArc
 50
157.5759544508675
 51
191.2032834005739
  0
ARC
  5
AC75
330
1F
100
AcDbEntity
  8
freecads.com
100
AcDbCircle
 10
10034.60822062363
 20
29539.54254978076
 30
0.0
 40
164.6666230327929
100
AcDbArc
 50
8.576812022623002
 51
11.20336473944053
  0
ARC
  5
AC76
330
1F
100
AcDbEntity
  8
freecads.com
100
AcDbCircle
 10
10106.8816531343
 20
29550.44288450633
 30
0.0
 40
91.57581414417091
100
AcDbArc
 50
4.501497047908842
 51
8.576860016319592
  0
ARC
  5
AC77
330
1F
100
AcDbEntity
  8
freecads.com
100
AcDbCircle
 10
10130.40835150834
 20
29552.29511577195
 30
0.0
 40
67.97631633079202
100
AcDbArc
 50
0.1154497063679886
 51
4.501479046044742
  0
ARC
  5
AC78
330
1F
100
AcDbEntity
  8
freecads.com
100
AcDbCircle
 10
10189.29430379223
 20
29552.41378460939
 30
0.0
 40
9.090244474431578
100
AcDbArc
 50
340.7813980750856
 51
0.1153563709599281
  0
ARC
  5
AC79
330
1F
100
AcDbEntity
  8
freecads.com
100
AcDbCircle
 10
10215.21528086251
 20
29543.37768495138
 30
0.0
 40
18.36058701220758
100
AcDbArc
 50
160.78132983636
 51
165.3345992191452
  0
ARC
  5
AC7A
330
1F
100
AcDbEntity
  8
freecads.com
100
AcDbCircle
 10
10223.2507643048
 20
29541.27477633678
 30
0.0
 40
26.66668229171647
100
AcDbArc
 50
165.3345482293779
 51
168.7768489652759
  0
ARC
  5
AC7B
330
1F
100
AcDbEntity
  8
freecads.com
100
AcDbCircle
 10
10221.36654689872
 20
29541.64863168517
 30
0.0
 40
24.74573381389941
100
AcDbArc
 50
168.7768012779513
 51
172.2720311870119
  0
ARC
  5
AC7C
330
1F
100
AcDbEntity
  8
freecads.com
100
AcDbCircle
 10
10205.3086226751
 20
29543.82771402862
 30
0.0
 40
8.540631832411083
100
AcDbArc
 50
172.2719204608023
 51
180.0000241618359
  0
ARC
  5
AC7D
330
1F
100
AcDbEntity
  8
freecads.com
100
AcDbCircle
 10
10190.97953976118
 20
29543.82771075088
 30
0.0
 40
5.788451081505637
100
AcDbArc
 50
351.1057425901926
 51
359.9999967939715
  0
ARC
  5
AC7E
330
1F
100
AcDbEntity
  8
freecads.com
100
AcDbCircle
 10
10194.80431445355
 20
29543.22915930219
 30
0.0
 40
1.917125044589667
100
AcDbArc
 50
330.8336870259406
 51
351.1057560554307
  0
ARC
  5
AC7F
330
1F
100
AcDbEntity
  8
freecads.com
100
AcDbCircle
 10
10195.89937247199
 20
29542.61799700922
 30
0.0
 40
0.6630630795793762
100
AcDbArc
 50
292.2372521584833
 51
330.8336655790864
  0
ARC
  5
AC80
330
1F
100
AcDbEntity
  8
freecads.com
100
AcDbCircle
 10
10195.99028608451
 20
29542.3956321122
 30
0.0
 40
0.4228310409811842
100
AcDbArc
 50
238.2825561078039
 51
292.2373172527039
  0
ARC
  5
AC81
330
1F
100
AcDbEntity
  8
freecads.com
100
AcDbCircle
 10
10195.38935321559
 20
29541.42330183908
 30
0.0
 40
0.7202115973258475
100
AcDbArc
 50
58.28252717098143
 51
110.8422344891503
  0
ARC
  5
AC82
330
1F
100
AcDbEntity
  8
freecads.com
100
AcDbCircle
 10
10195.30597535577
 20
29541.64230829719
 30
0.0
 40
0.4858706145665803
100
AcDbArc
 50
110.8421983871735
 51
180.9802163374395
  0
ARC
  5
AC83
330
1F
100
AcDbEntity
  8
freecads.com
100
AcDbCircle
 10
10199.9278385247
 20
29541.72138620361
 30
0.0
 40
5.108410226902091
100
AcDbArc
 50
180.9802089892421
 51
196.5518848529113
  0
ARC
  5
AC84
330
1F
100
AcDbEntity
  8
freecads.com
100
AcDbCircle
 10
10249.36402084121
 20
29556.41382124447
 30
0.0
 40
56.68169565123974
100
AcDbArc
 50
196.5519450306972
 51
199.2185994448696
  0
ARC
  5
AC85
330
1F
100
AcDbEntity
  8
freecads.com
100
AcDbCircle
 10
10185.03114655988
 20
29533.98731072823
 30
0.0
 40
11.44808555517103
100
AcDbArc
 50
12.01895719761197
 51
19.21866732798494
  0
ARC
  5
AC86
330
1F
100
AcDbEntity
  8
freecads.com
100
AcDbCircle
 10
10177.27510516791
 20
29532.33603088434
 30
0.0
 40
19.37795965233298
100
AcDbArc
 50
7.164668124320384
 51
12.01895724407429
  0
ARC
  5
AC87
330
1F
100
AcDbEntity
  8
freecads.com
100
AcDbCircle
 10
10177.93288560445
 20
29532.41872451529
 30
0.0
 40
18.71500163011842
100
AcDbArc
 50
2.265682089304827
 51
7.164641685608494
  0
ARC
  5
AC88
330
1F
100
AcDbEntity
  8
freecads.com
100
AcDbCircle
 10
10188.31048867273
 20
29532.8292934346
 30
0.0
 40
8.32928007213882
100
AcDbArc
 50
353.2930269746338
 51
2.265771606252249
  0
ARC
  5
AC89
330
1F
100
AcDbEntity
  8
freecads.com
100
AcDbCircle
 10
10196.36516564804
 20
29531.88209236599
 30
0.0
 40
0.2191006018112487
100
AcDbArc
 50
218.9211236655673
 51
353.2930723821863
  0
ARC
  5
AC8A
330
1F
100
AcDbEntity
  8
freecads.com
100
AcDbCircle
 10
10199.01422815127
 20
29534.02123547157
 30
0.0
 40
3.624018423460293
100
AcDbArc
 50
199.3922392353001
 51
218.9211989147971
  0
ARC
  5
AC8B
330
1F
100
AcDbEntity
  8
freecads.com
100
AcDbCircle
 10
10233.40135480064
 20
29546.12560067104
 30
0.0
 40
40.07933540304878
100
AcDbArc
 50
194.754410280297
 51
199.3922142343557
  0
ARC
  5
AC8C
330
1F
100
AcDbEntity
  8
freecads.com
100
AcDbCircle
 10
10444.51042459175
 20
29601.7228524137
 30
0.0
 40
258.38667323063
100
AcDbArc
 50
193.5838740805443
 51
194.7543020891023
  0
ARC
  5
AC8D
330
1F
100
AcDbEntity
  8
freecads.com
100
AcDbCircle
 10
10020.83788717029
 20
29499.35208732718
 30
0.0
 40
177.4782054985311
100
AcDbArc
 50
13.58381270651216
 51
15.21098550304632
  0
ARC
  5
AC8E
330
1F
100
AcDbEntity
  8
freecads.com
100
AcDbCircle
 10
10034.22568031721
 20
29502.99226611777
 30
0.0
 40
163.6043485376689
100
AcDbArc
 50
15.21097219240436
 51
16.9405843467614
  0
ARC
  5
AC8F
330
1F
100
AcDbEntity
  8
freecads.com
100
AcDbCircle
 10
10050.33142296909
 20
29507.89804387691
 30
0.0
 40
146.7680305972593
100
AcDbArc
 50
16.94057872307697
 51
18.59937716450455
  0
ARC
  5
AC90
330
1F
100
AcDbEntity
  8
freecads.com
100
AcDbCircle
 10
10172.55217701122
 20
29549.02837335262
 30
0.0
 40
17.81215937999054
100
AcDbArc
 50
18.59943668012612
 51
26.43765037009917
  0
ARC
  5
AC91
330
1F
100
AcDbEntity
  8
freecads.com
100
AcDbCircle
 10
10204.35515512228
 20
29564.84158181959
 30
0.0
 40
17.70525858292898
100
AcDbArc
 50
199.3600236459126
 51
206.4376976563683
  0
ARC
  5
AC92
330
1F
100
AcDbEntity
  8
freecads.com
100
AcDbCircle
 10
10199.70487809934
 20
29563.20762424588
 30
0.0
 40
12.77627352083332
100
AcDbArc
 50
190.321449811084
 51
199.3600973162688
  0
ARC
  5
AC93
330
1F
100
AcDbEntity
  8
freecads.com
100
AcDbCircle
 10
10199.19961052411
 20
29563.1156196968
 30
0.0
 40
12.26269766523384
100
AcDbArc
 50
181.0771566066954
 51
190.3215120924137
  0
ARC
  5
AC94
330
1F
100
AcDbEntity
  8
freecads.com
100
AcDbCircle
 10
10201.85716657152
 20
29563.16558725474
 30
0.0
 40
14.92072341792627
100
AcDbArc
 50
173.0974756108497
 51
181.0771558580521
  0
LINE
  5
AC95
330
1F
100
AcDbEntity
  8
freecads.com
100
AcDbLine
 10
10187.04458784269
 20
29564.95876842699
 30
0.0
 11
10187.53816284269
 21
29569.03595042699
 31
0.0
  0
LINE
  5
AC96
330
1F
100
AcDbEntity
  8
freecads.com
100
AcDbLine
 10
10187.53816284269
 20
29569.03595042699
 30
0.0
 11
10186.19818084269
 21
29566.03595042699
 31
0.0
  0
ARC
  5
AC97
330
1F
100
AcDbEntity
  8
freecads.com
100
AcDbCircle
 10
10160.17133702376
 20
29577.66109502961
 30
0.0
 40
28.50509754774599
100
AcDbArc
 50
332.0970418975489
 51
335.9316051545706
  0
ARC
  5
AC98
330
1F
100
AcDbEntity
  8
freecads.com
100
AcDbCircle
 10
10185.20352720906
 20
29564.40557787698
 30
0.0
 40
0.1798564992344063
100
AcDbArc
 50
201.8341532557984
 51
332.0970327390843
  0
ARC
  5
AC99
330
1F
100
AcDbEntity
  8
freecads.com
100
AcDbCircle
 10
10187.31494649828
 20
29565.25154355698
 30
0.0
 40
2.454444230370952
100
AcDbArc
 50
180.877082978694
 51
201.8341084584857
  0
ARC
  5
AC9A
330
1F
100
AcDbEntity
  8
freecads.com
100
AcDbCircle
 10
10699.13363554909
 20
29573.08600324097
 30
0.0
 40
514.3330911968387
100
AcDbArc
 50
180.4002640898144
 51
180.8769642877507
  0
ARC
  5
AC9B
330
1F
100
AcDbEntity
  8
freecads.com
100
AcDbCircle
 10
10122.79418420719
 20
29569.05967421534
 30
0.0
 40
62.02042401626902
100
AcDbArc
 50
0.4002628222547484
 51
3.614803602672405
  0
ARC
  5
AC9C
330
1F
100
AcDbEntity
  8
freecads.com
100
AcDbCircle
 10
9787.231226755315
 20
29547.86041396327
 30
0.0
 40
398.2523485104538
100
AcDbArc
 50
3.614858724251547
 51
4.428455375506853
  0
ARC
  5
AC9D
330
1F
100
AcDbEntity
  8
freecads.com
100
AcDbCircle
 10
9738.95009195021
 20
29544.12105617302
 30
0.0
 40
446.6780728180426
100
AcDbArc
 50
4.428481682155183
 51
5.257662585283776
  0
ARC
  5
AC9E
330
1F
100
AcDbEntity
  8
freecads.com
100
AcDbCircle
 10
9744.115339253241
 20
29544.59623300649
 30
0.0
 40
441.4910146243221
100
AcDbArc
 50
5.25768059341833
 51
6.094195259364819
  0
ARC
  5
AC9F
330
1F
100
AcDbEntity
  8
freecads.com
100
AcDbCircle
 10
10563.88048332435
 20
29632.11969723678
 30
0.0
 40
382.9331772968205
100
AcDbArc
 50
184.8263437921838
 51
186.0941718680989
  0
ARC
  5
ACA0
330
1F
100
AcDbEntity
  8
freecads.com
100
AcDbCircle
 10
10276.8815664361
 20
29607.88693118174
 30
0.0
 40
94.91303000558282
100
AcDbArc
 50
181.2512081735349
 51
184.8264039599854
  0
ARC
  5
ACA1
330
1F
100
AcDbEntity
  8
freecads.com
100
AcDbCircle
 10
10246.51152423911
 20
29607.2236177663
 30
0.0
 40
64.53574494364878
100
AcDbArc
 50
176.7329935979462
 51
181.2512116963994
  0
ARC
  5
ACA2
330
1F
100
AcDbEntity
  8
freecads.com
100
AcDbCircle
 10
10275.96678289178
 20
29605.54225630576
 30
0.0
 40
94.03895220416627
100
AcDbArc
 50
173.3255212328092
 51
176.7329939138262
  0
ARC
  5
ACA3
330
1F
100
AcDbEntity
  8
freecads.com
100
AcDbCircle
 10
9927.649617441865
 20
29646.30283548957
 30
0.0
 40
256.6550348592979
100
AcDbArc
 50
353.3255212500157
 51
354.1478267489619
  0
ARC
  5
ACA4
330
1F
100
AcDbEntity
  8
freecads.com
100
AcDbCircle
 10
10045.82150474314
 20
29634.19077903401
 30
0.0
 40
137.8640551516766
100
AcDbArc
 50
354.1477716786978
 51
355.4570805876549
  0
ARC
  5
ACA5
330
1F
100
AcDbEntity
  8
freecads.com
100
AcDbCircle
 10
9773.938623288643
 20
29655.7936425361
 30
0.0
 40
410.6038302844326
100
AcDbArc
 50
355.4570416852197
 51
355.8370269468725
  0
ARC
  5
ACA6
330
1F
100
AcDbEntity
  8
freecads.com
100
AcDbCircle
 10
10183.0683641659
 20
29626.01484198806
 30
0.0
 40
0.3917853218643754
100
AcDbArc
 50
355.8371113101389
 51
45.00007881219358
  0
ARC
  5
ACA7
330
1F
100
AcDbEntity
  8
freecads.com
100
AcDbCircle
 10
10183.25816188252
 20
29626.20464053922
 30
0.0
 40
0.1233702268023809
100
AcDbArc
 50
44.99997622519437
 51
153.71290149995
  0
ARC
  5
ACA8
330
1F
100
AcDbEntity
  8
freecads.com
100
AcDbCircle
 10
10268.54128502057
 20
29584.07900764487
 30
0.0
 40
95.24318960703991
100
AcDbArc
 50
153.7129124413048
 51
154.7701266658539
  0
ARC
  5
ACA9
330
1F
100
AcDbEntity
  8
freecads.com
100
AcDbCircle
 10
10229.39342880449
 20
29602.52547077693
 30
0.0
 40
51.96702239698896
100
AcDbArc
 50
154.7700701090065
 51
157.1335518161708
  0
ARC
  5
ACAA
330
1F
100
AcDbEntity
  8
freecads.com
100
AcDbCircle
 10
10281.55862559696
 20
29580.52599179391
 30
0.0
 40
108.5813742162954
100
AcDbArc
 50
157.1335389879778
 51
158.4955582235634
  0
ARC
  5
ACAB
330
1F
100
AcDbEntity
  8
freecads.com
100
AcDbCircle
 10
10212.01429915691
 20
29550.85747536182
 30
0.0
 40
34.57017459137992
100
AcDbArc
 50
35.86716649995922
 51
42.85004795465555
  0
ARC
  5
ACAC
330
1F
100
AcDbEntity
  8
freecads.com
100
AcDbCircle
 10
10030.91484108871
 20
29419.92137882704
 30
0.0
 40
258.0456208676185
100
AcDbArc
 50
34.28102381302268
 51
35.8671748476654
  0
ARC
  5
ACAD
330
1F
100
AcDbEntity
  8
freecads.com
100
AcDbCircle
 10
10040.2529507385
 20
29426.28683158233
 30
0.0
 40
246.7443253396708
100
AcDbArc
 50
32.60183737970879
 51
34.2810320368568
  0
ARC
  5
ACAE
330
1F
100
AcDbEntity
  8
freecads.com
100
AcDbCircle
 10
10203.81595249169
 20
29530.89714865561
 30
0.0
 40
52.58929970117697
100
AcDbArc
 50
27.31549953214278
 51
32.60181636210737
  0
ARC
  5
ACAF
330
1F
100
AcDbEntity
  8
freecads.com
100
AcDbCircle
 10
10245.1986647904
 20
29552.27053930991
 30
0.0
 40
6.013010612634996
100
AcDbArc
 50
1.580144276643376
 51
27.31549021033249
  0
ARC
  5
ACB0
330
1F
100
AcDbEntity
  8
freecads.com
100
AcDbCircle
 10
10220.29667599948
 20
29551.58360304492
 30
0.0
 40
30.92447237575924
100
AcDbArc
 50
353.9319301625209
 51
1.580138931647605
  0
ARC
  5
ACB1
330
1F
100
AcDbEntity
  8
freecads.com
100
AcDbCircle
 10
10222.95804410824
 20
29551.30066401029
 30
0.0
 40
28.24810642410252
100
AcDbArc
 50
346.3803723604546
 51
353.9319721683775
  0
ARC
  5
ACB2
330
1F
100
AcDbEntity
  8
freecads.com
100
AcDbCircle
 10
10249.73150817714
 20
29544.81377096508
 30
0.0
 40
0.7000001438429694
100
AcDbArc
 50
240.817110741151
 51
346.3804598204897
  0
ARC
  5
ACB3
330
1F
100
AcDbEntity
  8
freecads.com
100
AcDbCircle
 10
10248.64219733488
 20
29542.86331749971
 30
0.0
 40
1.534024661670363
100
AcDbArc
 50
60.81699544753137
 51
74.43459248698411
  0
ARC
  5
ACB4
330
1F
100
AcDbEntity
  8
freecads.com
100
AcDbCircle
 10
10249.0334709606
 20
29544.26797657479
 30
0.0
 40
0.0758881223214109
100
AcDbArc
 50
74.43443931955382
 51
190.0654123417486
  0
ARC
  5
ACB5
330
1F
100
AcDbEntity
  8
freecads.com
100
AcDbCircle
 10
10249.54857128421
 20
29544.35941211499
 30
0.0
 40
0.5990408738183508
100
AcDbArc
 50
190.0656929253454
 51
219.2136151392989
  0
ARC
  5
ACB6
330
1F
100
AcDbEntity
  8
freecads.com
100
AcDbCircle
 10
10257.10886361798
 20
29550.52842962175
 30
0.0
 40
10.35684785954062
100
AcDbArc
 50
219.2136211579766
 51
222.8671780773667
  0
ARC
  5
ACB7
330
1F
100
AcDbEntity
  8
freecads.com
100
AcDbCircle
 10
10247.04666318672
 20
29541.18879128719
 30
0.0
 40
3.371834587772271
100
AcDbArc
 50
28.9591169999497
 51
42.86718490529477
  0
ARC
  5
ACB8
330
1F
100
AcDbEntity
  8
freecads.com
100
AcDbCircle
 10
10244.28075902395
 20
29539.65820191242
 30
0.0
 40
6.532994133218852
100
AcDbArc
 50
20.48071072570774
 51
28.95913723165265
  0
ARC
  5
ACB9
330
1F
100
AcDbEntity
  8
freecads.com
100
AcDbCircle
 10
10244.10834918283
 20
29539.59378842882
 30
0.0
 40
6.717043718664109
100
AcDbArc
 50
12.08734171426925
 51
20.48085643474236
  0
ARC
  5
ACBA
330
1F
100
AcDbEntity
  8
freecads.com
100
AcDbCircle
 10
10246.64004254227
 20
29540.1359542877
 30
0.0
 40
4.127948300422733
100
AcDbArc
 50
359.9999464134057
 51
12.08730326280223
  0
ARC
  5
ACBB
330
1F
100
AcDbEntity
  8
freecads.com
100
AcDbCircle
 10
10250.09836201802
 20
29540.13595067157
 30
0.0
 40
0.6696288246733266
100
AcDbArc
 50
284.7767242603855
 51
359.9999790731658
  0
ARC
  5
ACBC
330
1F
100
AcDbEntity
  8
freecads.com
100
AcDbCircle
 10
10250.09584464513
 20
29540.14549631236
 30
0.0
 40
0.679500826704895
100
AcDbArc
 50
210.3279300436243
 51
284.7766797322089
  0
ARC
  5
ACBD
330
1F
100
AcDbEntity
  8
freecads.com
100
AcDbCircle
 10
10272.16212546141
 20
29553.05439653256
 30
0.0
 40
26.2443292821805
100
AcDbArc
 50
202.5851243907847
 51
210.3278791081521
  0
ARC
  5
ACBE
330
1F
100
AcDbEntity
  8
freecads.com
100
AcDbCircle
 10
10553.18918693868
 20
29669.94882816194
 30
0.0
 40
330.6133773611538
100
AcDbArc
 50
201.3729465258222
 51
202.5850847346367
  0
ARC
  5
ACBF
330
1F
100
AcDbEntity
  8
freecads.com
100
AcDbCircle
 10
10003.03096182418
 20
29454.64370308247
 30
0.0
 40
260.1745452867503
100
AcDbArc
 50
21.3729638033732
 51
23.12732630463684
  0
ARC
  5
ACC0
330
1F
100
AcDbEntity
  8
freecads.com
100
AcDbCircle
 10
10141.09000311898
 20
29513.60873199304
 30
0.0
 40
110.0506846993619
100
AcDbArc
 50
23.12731806251509
 51
26.46421762497805
  0
ARC
  5
ACC1
330
1F
100
AcDbEntity
  8
freecads.com
100
AcDbCircle
 10
10164.26544904011
 20
29525.14554546103
 30
0.0
 40
84.1624758266434
100
AcDbArc
 50
26.46420045725736
 51
30.34710764484286
  0
ARC
  5
ACC2
330
1F
100
AcDbEntity
  8
freecads.com
100
AcDbCircle
 10
10161.53269376924
 20
29523.54566325772
 30
0.0
 40
87.32911038630442
100
AcDbArc
 50
30.34709261914656
 51
34.12391765452578
  0
ARC
  5
ACC3
330
1F
100
AcDbEntity
  8
freecads.com
100
AcDbCircle
 10
10298.02560609157
 20
29616.04148651294
 30
0.0
 40
77.55203600070654
100
AcDbArc
 50
209.744107199693
 51
214.1239508581755
  0
ARC
  5
ACC4
330
1F
100
AcDbEntity
  8
freecads.com
100
AcDbCircle
 10
10231.62383811391
 20
29578.09880947729
 30
0.0
 40
1.074316819293442
100
AcDbArc
 50
117.4100865760043
 51
209.7441223331718
  0
ARC
  5
ACC5
330
1F
100
AcDbEntity
  8
freecads.com
100
AcDbCircle
 10
10231.86606596639
 20
29577.63170081207
 30
0.0
 40
1.600496292128517
100
AcDbArc
 50
46.71853445579457
 51
117.4100033875194
  0
ARC
  5
ACC6
330
1F
100
AcDbEntity
  8
freecads.com
100
AcDbCircle
 10
10169.59091456223
 20
29511.50409209015
 30
0.0
 40
92.43581496107934
100
AcDbArc
 50
42.85005235107269
 51
46.71852513102917
  0
ARC
  5
ACC7
330
1F
100
AcDbEntity
  8
freecads.com
100
AcDbCircle
 10
10158.56326279014
 20
29518.46835011437
 30
0.0
 40
90.24267589328852
100
AcDbArc
 50
26.1265236610813
 51
30.56845294112939
  0
ARC
  5
ACC8
330
1F
100
AcDbEntity
  8
freecads.com
100
AcDbCircle
 10
10081.94797253879
 20
29480.89088122148
 30
0.0
 40
175.5771288926124
100
AcDbArc
 50
23.42711120162316
 51
26.12653431014911
  0
ARC
  5
ACC9
330
1F
100
AcDbEntity
  8
freecads.com
100
AcDbCircle
 10
9813.61977238688
 20
29364.6233374843
 30
0.0
 40
468.0120186086714
100
AcDbArc
 50
22.43759317723516
 51
23.42719973067021
  0
ARC
  5
ACCA
330
1F
100
AcDbEntity
  8
freecads.com
100
AcDbCircle
 10
10245.72182348493
 20
29543.05471772753
 30
0.0
 40
0.5187673005382161
100
AcDbArc
 50
270.000039512461
 51
22.43761686714472
  0
ARC
  5
ACCB
330
1F
100
AcDbEntity
  8
freecads.com
100
AcDbCircle
 10
10245.72182397846
 20
29542.34531598609
 30
0.0
 40
0.190634440899251
100
AcDbArc
 50
90.00004080573203
 51
193.6842393909637
  0
ARC
  5
ACCC
330
1F
100
AcDbEntity
  8
freecads.com
100
AcDbCircle
 10
10250.5703017271
 20
29543.52582083686
 30
0.0
 40
5.180757503683997
100
AcDbArc
 50
193.6840914542526
 51
203.4176007773403
  0
ARC
  5
ACCD
330
1F
100
AcDbEntity
  8
freecads.com
100
AcDbCircle
 10
10255.55862891194
 20
29545.68628387652
 30
0.0
 40
10.61684144792204
100
AcDbArc
 50
203.4176083875879
 51
210.5277952304753
  0
ARC
  5
ACCE
330
1F
100
AcDbEntity
  8
freecads.com
100
AcDbCircle
 10
10268.87505760202
 20
29553.53892195656
 30
0.0
 40
26.07618159792546
100
AcDbArc
 50
210.5277159758463
 51
214.1615681284451
  0
ARC
  5
ACCF
330
1F
100
AcDbEntity
  8
freecads.com
100
AcDbCircle
 10
10233.67867066271
 20
29529.65399162832
 30
0.0
 40
16.45939821905647
100
AcDbArc
 50
27.76165141311593
 51
34.16153022476902
  0
ARC
  5
ACD0
330
1F
100
AcDbEntity
  8
freecads.com
100
AcDbCircle
 10
10231.59946338175
 20
29528.55952481282
 30
0.0
 40
18.80907064886579
100
AcDbArc
 50
21.97120543593113
 51
27.76165958215498
  0
ARC
  5
ACD1
330
1F
100
AcDbEntity
  8
freecads.com
100
AcDbCircle
 10
10233.84736302757
 20
29529.46640350033
 30
0.0
 40
16.38513134038821
100
AcDbArc
 50
15.98613215907716
 51
21.97126340174907
  0
ARC
  5
ACD2
330
1F
100
AcDbEntity
  8
freecads.com
100
AcDbCircle
 10
10245.39437503526
 20
29532.77442694231
 30
0.0
 40
4.373615807428013
100
AcDbArc
 50
0.0000587507159143
 51
15.98618943859785
  0
ARC
  5
ACD3
330
1F
100
AcDbEntity
  8
freecads.com
100
AcDbCircle
 10
10226.2859721719
 20
29532.77444407085
 30
0.0
 40
23.48201867078978
100
AcDbArc
 50
356.2872982553477
 51
359.9999691490894
  0
ARC
  5
ACD4
330
1F
100
AcDbEntity
  8
freecads.com
100
AcDbCircle
 10
10249.26768129877
 20
29531.28316838847
 30
0.0
 40
0.4519761707733358
100
AcDbArc
 50
293.0781599905224
 51
356.2871828944887
  0
ARC
  5
ACD5
330
1F
100
AcDbEntity
  8
freecads.com
100
AcDbCircle
 10
10249.22753076852
 20
29531.37739900297
 30
0.0
 40
0.5544040663349356
100
AcDbArc
 50
238.7380409882122
 51
293.0781803214482
  0
ARC
  5
ACD6
330
1F
100
AcDbEntity
  8
freecads.com
100
AcDbCircle
 10
10266.60033039992
 20
29559.99343614685
 30
0.0
 40
34.03113850761762
100
AcDbArc
 50
235.8935823469842
 51
238.7380571431937
  0
ARC
  5
ACD7
330
1F
100
AcDbEntity
  8
freecads.com
100
AcDbCircle
 10
10250.73142497044
 20
29536.56080681709
 30
0.0
 40
5.730780261912536
100
AcDbArc
 50
224.8424206217785
 51
235.8935372850313
  0
ARC
  5
ACD8
330
1F
100
AcDbEntity
  8
freecads.com
100
AcDbCircle
 10
10250.68570535582
 20
29536.51533695292
 30
0.0
 40
5.666299321247131
100
AcDbArc
 50
213.6970942804766
 51
224.842413138027
  0
ARC
  5
ACD9
330
1F
100
AcDbEntity
  8
freecads.com
100
AcDbCircle
 10
10249.79688055083
 20
29535.92262708254
 30
0.0
 40
4.597976090948058
100
AcDbArc
 50
201.5068677973227
 51
213.6970679975915
  0
ARC
  5
ACDA
330
1F
100
AcDbEntity
  8
freecads.com
100
AcDbCircle
 10
10247.02406635901
 20
29534.83000505475
 30
0.0
 40
1.617653719465254
100
AcDbArc
 50
174.9359790732742
 51
201.5069496617801
  0
ARC
  5
ACDB
330
1F
100
AcDbEntity
  8
freecads.com
100
AcDbCircle
 10
10240.53393343764
 20
29535.40512839024
 30
0.0
 40
4.897911658004036
100
AcDbArc
 50
354.9359541839611
 51
3.384398626082974
  0
ARC
  5
ACDC
330
1F
100
AcDbEntity
  8
freecads.com
100
AcDbCircle
 10
10245.04893125891
 20
29535.67213639268
 30
0.0
 40
0.3750255661989933
100
AcDbArc
 50
3.384179278537579
 51
58.64068461528652
  0
ARC
  5
ACDD
330
1F
100
AcDbEntity
  8
freecads.com
100
AcDbCircle
 10
10245.07549753551
 20
29535.71572736756
 30
0.0
 40
0.3239771564001209
100
AcDbArc
 50
58.64079024285679
 51
119.7644394335434
  0
ARC
  5
ACDE
330
1F
100
AcDbEntity
  8
freecads.com
100
AcDbCircle
 10
10246.84610640718
 20
29532.61961811265
 30
0.0
 40
3.890620998270001
100
AcDbArc
 50
119.7644565718383
 51
129.6901257860401
  0
ARC
  5
ACDF
330
1F
100
AcDbEntity
  8
freecads.com
100
AcDbCircle
 10
10244.02324466304
 20
29536.0209623119
 30
0.0
 40
0.529525016092267
100
AcDbArc
 50
209.9060108625351
 51
309.690246564251
  0
ARC
  5
ACE0
330
1F
100
AcDbEntity
  8
freecads.com
100
AcDbCircle
 10
10263.84627218592
 20
29547.42245984356
 30
0.0
 40
23.39754998846286
100
AcDbArc
 50
203.2420639785815
 51
209.9059763071056
  0
ARC
  5
ACE1
330
1F
100
AcDbEntity
  8
freecads.com
100
AcDbCircle
 10
10297.18702537382
 20
29561.74123088684
 30
0.0
 40
59.68298821545165
100
AcDbArc
 50
198.8660472084986
 51
203.2419961754278
  0
ARC
  5
ACE2
330
1F
100
AcDbEntity
  8
freecads.com
100
AcDbCircle
 10
10672.82867896164
 20
29690.10330330031
 30
0.0
 40
456.6508377252951
100
AcDbArc
 50
197.8894839169554
 51
198.8660272729985
  0
ARC
  5
ACE3
330
1F
100
AcDbEntity
  8
freecads.com
100
AcDbCircle
 10
9868.723756198242
 20
29430.54699341176
 30
0.0
 40
388.3072705945977
100
AcDbArc
 50
17.88954978544706
 51
18.81223603347207
  0
ARC
  5
ACE4
330
1F
100
AcDbEntity
  8
freecads.com
100
AcDbCircle
 10
10005.57350144685
 20
29477.16685692869
 30
0.0
 40
243.7345745248105
100
AcDbArc
 50
18.81228159103022
 51
20.12021544602752
  0
ARC
  5
ACE5
330
1F
100
AcDbEntity
  8
freecads.com
100
AcDbCircle
 10
9909.159406816559
 20
29441.84587577291
 30
0.0
 40
346.414900552598
100
AcDbArc
 50
20.12019291402671
 51
20.89368300071523
  0
ARC
  5
ACE6
330
1F
100
AcDbEntity
  8
freecads.com
100
AcDbCircle
 10
10228.85537675683
 20
29563.88550842222
 30
0.0
 40
4.217318542977985
100
AcDbArc
 50
20.89370642971281
 51
38.93704929954337
  0
ARC
  5
ACE7
330
1F
100
AcDbEntity
  8
freecads.com
100
AcDbCircle
 10
10235.70013728446
 20
29569.41584235407
 30
0.0
 40
4.582416684763635
100
AcDbArc
 50
207.2160519892182
 51
218.9370186590422
  0
ARC
  5
ACE8
330
1F
100
AcDbEntity
  8
freecads.com
100
AcDbCircle
 10
10245.20897392337
 20
29574.30609254015
 30
0.0
 40
15.27505532580648
100
AcDbArc
 50
202.4350818865053
 51
207.216064811098
  0
ARC
  5
ACE9
330
1F
100
AcDbEntity
  8
freecads.com
100
AcDbCircle
 10
10246.79985963484
 20
29574.96294350917
 30
0.0
 40
16.99620916624709
100
AcDbArc
 50
197.7642746379605
 51
202.4350673519869
  0
ARC
  5
ACEA
330
1F
100
AcDbEntity
  8
freecads.com
100
AcDbCircle
 10
10243.28658863403
 20
29573.83736899076
 30
0.0
 40
13.3070370204047
100
AcDbArc
 50
192.1529203706708
 51
197.7642641995081
  0
ARC
  5
ACEB
330
1F
100
AcDbEntity
  8
freecads.com
100
AcDbCircle
 10
10392.95650561949
 20
29606.06831848858
 30
0.0
 40
166.4080434049685
100
AcDbArc
 50
191.4437886911839
 51
192.1528789956901
  0
ARC
  5
ACEC
330
1F
100
AcDbEntity
  8
freecads.com
100
AcDbCircle
 10
10230.17905800456
 20
29573.11714485451
 30
0.0
 40
0.328913783290951
100
AcDbArc
 50
135.1502241296789
 51
191.4435767704946
  0
ARC
  5
ACED
330
1F
100
AcDbEntity
  8
freecads.com
100
AcDbCircle
 10
10230.05862395361
 20
29573.2369495352
 30
0.0
 40
0.159038764103713
100
AcDbArc
 50
40.55994863402637
 51
135.150355188883
  0
ARC
  5
ACEE
330
1F
100
AcDbEntity
  8
freecads.com
100
AcDbCircle
 10
10168.15991820734
 20
29520.2581729347
 30
0.0
 40
81.63419168294714
100
AcDbArc
 50
39.36555292265767
 51
40.56004451799926
  0
ARC
  5
ACEF
330
1F
100
AcDbEntity
  8
freecads.com
100
AcDbCircle
 10
10219.04139993725
 20
29562.00147916615
 30
0.0
 40
15.8206003953999
100
AcDbArc
 50
34.26228361800077
 51
39.36557721166612
  0
ARC
  5
ACF0
330
1F
100
AcDbEntity
  8
freecads.com
100
AcDbCircle
 10
10140.88599932218
 20
29508.76280635084
 30
0.0
 40
110.3860429652783
100
AcDbArc
 50
33.04557369363403
 51
34.26229543615895
  0
ARC
  5
ACF1
330
1F
100
AcDbEntity
  8
freecads.com
100
AcDbCircle
 10
10129.72121503432
 20
29501.4995007212
 30
0.0
 40
123.7055030460981
100
AcDbArc
 50
31.79706537165794
 51
33.04564264615558
  0
ARC
  5
ACF2
330
1F
100
AcDbEntity
  8
freecads.com
100
AcDbCircle
 10
10127.44159920903
 20
29500.08609027804
 30
0.0
 40
126.3877367002949
100
AcDbArc
 50
30.56848439048192
 51
31.7971233160568
  0
ARC
  5
ACF3
330
1F
100
AcDbEntity
  8
freecads.com
100
AcDbCircle
 10
10211.53319290451
 20
29551.62991815159
 30
0.0
 40
20.00745664307786
100
AcDbArc
 50
4.96125225025145
 51
16.67856156974971
  0
ARC
  5
ACF4
330
1F
100
AcDbEntity
  8
freecads.com
100
AcDbCircle
 10
10115.90520621094
 20
29543.32876513612
 30
0.0
 40
115.9950651165329
100
AcDbArc
 50
1.768684303641148
 51
4.961227803182374
  0
ARC
  5
ACF5
330
1F
100
AcDbEntity
  8
freecads.com
100
AcDbCircle
 10
10020.10684466211
 20
29540.37047620677
 30
0.0
 40
211.8390923108274
100
AcDbArc
 50
359.9886858255422
 51
1.768715309811724
  0
ARC
  5
ACF6
330
1F
100
AcDbEntity
  8
freecads.com
100
AcDbCircle
 10
10229.65596113788
 20
29540.32909682777
 30
0.0
 40
2.28997174949562
100
AcDbArc
 50
315.0000053789217
 51
359.988680796907
  0
ARC
  5
ACF7
330
1F
100
AcDbEntity
  8
freecads.com
100
AcDbCircle
 10
10230.819746421
 20
29539.16531177629
 30
0.0
 40
0.6441309822099674
100
AcDbArc
 50
216.4906572629241
 51
315.000004553317
  0
ARC
  5
ACF8
330
1F
100
AcDbEntity
  8
freecads.com
100
AcDbCircle
 10
10234.26893220051
 20
29541.71670394977
 30
0.0
 40
4.934408894476645
100
AcDbArc
 50
193.9328628837756
 51
216.4906501177284
  0
ARC
  5
ACF9
330
1F
100
AcDbEntity
  8
freecads.com
100
AcDbCircle
 10
10256.06667336593
 20
29547.12436232489
 30
0.0
 40
27.3929103809178
100
AcDbArc
 50
185.7540263783159
 51
193.9328482412722
  0
ARC
  5
ACFA
330
1F
100
AcDbEntity
  8
freecads.com
100
AcDbCircle
 10
10411.34408332534
 20
29562.77112820292
 30
0.0
 40
183.4566644243924
100
AcDbArc
 50
183.7457865915452
 51
185.7540668507166
  0
ARC
  5
ACFB
330
1F
100
AcDbEntity
  8
freecads.com
100
AcDbCircle
 10
10448.23998588185
 20
29565.18691446855
 30
0.0
 40
220.4315700861878
100
AcDbArc
 50
181.8141064386905
 51
183.7458451929341
  0
ARC
  5
ACFC
330
1F
100
AcDbEntity
  8
freecads.com
100
AcDbCircle
 10
10235.56456094312
 20
29558.45091295628
 30
0.0
 40
7.649498263301816
100
AcDbArc
 50
159.8277914611144
 51
181.8141557734298
  0
ARC
  5
ACFD
330
1F
100
AcDbEntity
  8
freecads.com
100
AcDbCircle
 10
10228.84189448383
 20
29560.92067119567
 30
0.0
 40
0.487518782466427
100
AcDbArc
 50
24.61984594949104
 51
159.8278138642762
  0
ARC
  5
ACFE
330
1F
100
AcDbEntity
  8
freecads.com
100
AcDbCircle
 10
10202.96713968035
 20
29549.06343415747
 30
0.0
 40
28.94972190029262
100
AcDbArc
 50
16.67863387334029
 51
24.6198577899604
  0
ARC
  5
ACFF
330
1F
100
AcDbEntity
  8
freecads.com
100
AcDbCircle
 10
10185.0464220556
 20
29549.44083705097
 30
0.0
 40
0.4139209167671404
100
AcDbArc
 50
298.3523270571357
 51
338.0255089804031
  0
ARC
  5
AD00
330
1F
100
AcDbEntity
  8
freecads.com
100
AcDbCircle
 10
10185.18577502241
 20
29549.18259506384
 30
0.0
 40
0.120478974851437
100
AcDbArc
 50
201.9745711798663
 51
298.3524907503958
  0
ARC
  5
AD01
330
1F
100
AcDbEntity
  8
freecads.com
100
AcDbCircle
 10
10186.61914102805
 20
29549.76097099549
 30
0.0
 40
1.666136383341362
100
AcDbArc
 50
184.0081620535842
 51
201.974518141049
  0
ARC
  5
AD02
330
1F
100
AcDbEntity
  8
freecads.com
100
AcDbCircle
 10
10197.67899466636
 20
29550.53595189319
 30
0.0
 40
12.75310882367202
100
AcDbArc
 50
180.0000065871471
 51
184.0082397853711
  0
ARC
  5
AD03
330
1F
100
AcDbEntity
  8
freecads.com
100
AcDbCircle
 10
10197.67899466636
 20
29550.53594896079
 30
0.0
 40
12.75310882367202
100
AcDbArc
 50
175.9917602146289
 51
179.9999934128528
  0
ARC
  5
AD04
330
1F
100
AcDbEntity
  8
freecads.com
100
AcDbCircle
 10
10186.61914102805
 20
29551.31092985849
 30
0.0
 40
1.666136383341375
100
AcDbArc
 50
158.025481858951
 51
175.9918379464157
  0
ARC
  5
AD05
330
1F
100
AcDbEntity
  8
freecads.com
100
AcDbCircle
 10
10185.18577502241
 20
29551.88930579014
 30
0.0
 40
0.1204789748514515
100
AcDbArc
 50
61.64750924960417
 51
158.0254288201337
  0
ARC
  5
AD06
330
1F
100
AcDbEntity
  8
freecads.com
100
AcDbCircle
 10
10185.0464220556
 20
29551.63106380301
 30
0.0
 40
0.4139209167672013
100
AcDbArc
 50
21.97449101959689
 51
61.64767294286431
  0
ARC
  5
AD07
330
1F
100
AcDbEntity
  8
freecads.com
100
AcDbCircle
 10
10183.05917773367
 20
29550.82919658099
 30
0.0
 40
2.55684672900681
100
AcDbArc
 50
8.699889202812876
 51
21.97443679515597
  0
ARC
  5
AD08
330
1F
100
AcDbEntity
  8
freecads.com
100
AcDbCircle
 10
10181.14281948069
 20
29550.53595332797
 30
0.0
 40
4.495511361999248
100
AcDbArc
 50
359.9999630267653
 51
8.699927319143206
  0
ARC
  5
AD09
330
1F
100
AcDbEntity
  8
freecads.com
100
AcDbCircle
 10
10181.14281948069
 20
29550.535947526
 30
0.0
 40
4.495511361999232
100
AcDbArc
 50
351.3000726808568
 51
0.00003697323471
  0
ARC
  5
AD0A
330
1F
100
AcDbEntity
  8
freecads.com
100
AcDbCircle
 10
10183.05917773367
 20
29550.24270427299
 30
0.0
 40
2.556846729006801
100
AcDbArc
 50
338.0255632048441
 51
351.3001107971871
  0
ARC
  5
AD0B
330
1F
100
AcDbEntity
  8
freecads.com
100
AcDbCircle
 10
10229.32693448944
 20
29537.76509582839
 30
0.0
 40
27.94291767472889
100
AcDbArc
 50
174.7546527136147
 51
178.398128131168
  0
ARC
  5
AD0C
330
1F
100
AcDbEntity
  8
freecads.com
100
AcDbCircle
 10
10212.44213178208
 20
29538.23728292446
 30
0.0
 40
11.05151385147667
100
AcDbArc
 50
178.3981270401781
 51
185.6820923752273
  0
ARC
  5
AD0D
330
1F
100
AcDbEntity
  8
freecads.com
100
AcDbCircle
 10
10206.37931303079
 20
29537.63404271164
 30
0.0
 40
4.958758320079414
100
AcDbArc
 50
185.6820442488628
 51
196.2888516915497
  0
ARC
  5
AD0E
330
1F
100
AcDbEntity
  8
freecads.com
100
AcDbCircle
 10
10201.81241433001
 20
29536.29955221579
 30
0.0
 40
0.2008776336164447
100
AcDbArc
 50
196.288744780137
 51
301.7174378487157
  0
ARC
  5
AD0F
330
1F
100
AcDbEntity
  8
freecads.com
100
AcDbCircle
 10
10202.07035176181
 20
29535.88219980516
 30
0.0
 40
0.2897492647395732
100
AcDbArc
 50
54.27967878177501
 51
121.717408378321
  0
ARC
  5
AD10
330
1F
100
AcDbEntity
  8
freecads.com
100
AcDbCircle
 10
10201.75074125315
 20
29535.43774740163
 30
0.0
 40
0.8371876779398776
100
AcDbArc
 50
23.53084127847766
 51
54.27968056121788
  0
ARC
  5
AD11
330
1F
100
AcDbEntity
  8
freecads.com
100
AcDbCircle
 10
10200.18682710078
 20
29534.75673792476
 30
0.0
 40
2.54294304831794
100
AcDbArc
 50
7.540813405754414
 51
23.53082127638057
  0
ARC
  5
AD12
330
1F
100
AcDbEntity
  8
freecads.com
100
AcDbCircle
 10
10195.80555789612
 20
29534.17676282435
 30
0.0
 40
6.962432946575801
100
AcDbArc
 50
359.9999308958195
 51
7.540770771080559
  0
ARC
  5
AD13
330
1F
100
AcDbEntity
  8
freecads.com
100
AcDbCircle
 10
10214.63895000764
 20
29534.17675226027
 30
0.0
 40
11.87095916494647
100
AcDbArc
 50
179.999989542315
 51
185.2013239417012
  0
ARC
  5
AD14
330
1F
100
AcDbEntity
  8
freecads.com
100
AcDbCircle
 10
10220.70970175014
 20
29534.72939593504
 30
0.0
 40
17.96681363746813
100
AcDbArc
 50
185.2013891939103
 51
189.0141861147506
  0
ARC
  5
AD15
330
1F
100
AcDbEntity
  8
freecads.com
100
AcDbCircle
 10
10219.59427763549
 20
29534.55242533354
 30
0.0
 40
16.83743790333092
100
AcDbArc
 50
189.0141133000439
 51
192.8823569620936
  0
ARC
  5
AD16
330
1F
100
AcDbEntity
  8
freecads.com
100
AcDbCircle
 10
10209.26691242419
 20
29532.19048950758
 30
0.0
 40
6.243420107728975
100
AcDbArc
 50
192.8823559421557
 51
200.9936541437729
  0
ARC
  5
AD17
330
1F
100
AcDbEntity
  8
freecads.com
100
AcDbCircle
 10
10196.9399379267
 20
29527.46019037232
 30
0.0
 40
6.959989685614955
100
AcDbArc
 50
14.81120739522671
 51
20.99352627651961
  0
ARC
  5
AD18
330
1F
100
AcDbEntity
  8
freecads.com
100
AcDbCircle
 10
10203.00662048699
 20
29529.06434671423
 30
0.0
 40
0.6848040424137687
100
AcDbArc
 50
340.8970650570398
 51
14.8112005385736
  0
ARC
  5
AD19
330
1F
100
AcDbEntity
  8
freecads.com
100
AcDbCircle
 10
10203.47369532988
 20
29528.90258030139
 30
0.0
 40
0.1905093113276149
100
AcDbArc
 50
261.2872539373163
 51
340.8971935138986
  0
ARC
  5
AD1A
330
1F
100
AcDbEntity
  8
freecads.com
100
AcDbCircle
 10
10203.60141271324
 20
29529.73597036148
 30
0.0
 40
1.033628948306448
100
AcDbArc
 50
238.2825924440094
 51
261.2871969765645
  0
ARC
  5
AD1B
330
1F
100
AcDbEntity
  8
freecads.com
100
AcDbCircle
 10
10205.08619887793
 20
29532.13839341576
 30
0.0
 40
3.857850343056558
100
AcDbArc
 50
200.0848708458532
 51
238.2824542848691
  0
ARC
  5
AD1C
330
1F
100
AcDbEntity
  8
freecads.com
100
AcDbCircle
 10
10237.236778185
 20
29543.89420408805
 30
0.0
 40
38.09027407177953
100
AcDbArc
 50
192.9758215337498
 51
200.0848635634037
  0
ARC
  5
AD1D
330
1F
100
AcDbEntity
  8
freecads.com
100
AcDbCircle
 10
10237.26842254754
 20
29543.90152417855
 30
0.0
 40
38.12275404462689
100
AcDbArc
 50
185.2344820538263
 51
192.9758632409582
  0
ARC
  5
AD1E
330
1F
100
AcDbEntity
  8
freecads.com
100
AcDbCircle
 10
10218.71000568717
 20
29542.20132113441
 30
0.0
 40
19.48661907101511
100
AcDbArc
 50
172.4435688974858
 51
185.2345032719616
  0
ARC
  5
AD1F
330
1F
100
AcDbEntity
  8
freecads.com
100
AcDbCircle
 10
10385.07245976004
 20
29520.13249574294
 30
0.0
 40
187.3064605061345
100
AcDbArc
 50
171.4954196719963
 51
172.4435448223599
  0
ARC
  5
AD20
330
1F
100
AcDbEntity
  8
freecads.com
100
AcDbCircle
 10
10202.0719758666
 20
29547.49705887922
 30
0.0
 40
2.271338378267291
100
AcDbArc
 50
149.3188083854565
 51
171.4954507837113
  0
ARC
  5
AD21
330
1F
100
AcDbEntity
  8
freecads.com
100
AcDbCircle
 10
10200.29045613967
 20
29548.55405668622
 30
0.0
 40
0.1998517378445812
100
AcDbArc
 50
28.92158818402963
 51
149.3187192264227
  0
ARC
  5
AD22
330
1F
100
AcDbEntity
  8
freecads.com
100
AcDbCircle
 10
10192.54516397007
 20
29544.27460482672
 30
0.0
 40
9.048764609501676
100
AcDbArc
 50
20.76778461148683
 51
28.92165721856983
  0
ARC
  5
AD23
330
1F
100
AcDbEntity
  8
freecads.com
100
AcDbCircle
 10
10195.35545523155
 20
29545.34032470689
 30
0.0
 40
6.043187154616234
100
AcDbArc
 50
8.382669291680846
 51
20.76780125825562
  0
ARC
  5
AD24
330
1F
100
AcDbEntity
  8
freecads.com
100
AcDbCircle
 10
10177.49040914073
 20
29542.70778182566
 30
0.0
 40
24.10115364724059
100
AcDbArc
 50
3.953302171891282
 51
8.382631101474473
  0
ARC
  5
AD25
330
1F
100
AcDbEntity
  8
freecads.com
100
AcDbCircle
 10
10174.29041493632
 20
29542.48666608187
 30
0.0
 40
27.30877817010579
100
AcDbArc
 50
359.6185306730307
 51
3.953241575075468
  0
ARC
  5
AD26
330
1F
100
AcDbEntity
  8
freecads.com
100
AcDbCircle
 10
10178.17876034689
 20
29542.46075110459
 30
0.0
 40
23.42034640174356
100
AcDbArc
 50
354.7546847634479
 51
359.6185952479723
  0
ARC
  5
AD27
330
1F
100
AcDbEntity
  8
freecads.com
100
AcDbCircle
 10
10256.3974697721
 20
29541.03595032204
 30
0.0
 40
0.3398950705939276
100
AcDbArc
 50
316.8927255808108
 51
0.0000176905818191
  0
ARC
  5
AD28
330
1F
100
AcDbEntity
  8
freecads.com
100
AcDbCircle
 10
10256.5270565736
 20
29540.91465484644
 30
0.0
 40
0.1623976578608936
100
AcDbArc
 50
242.7154366231444
 51
316.8925781767255
  0
ARC
  5
AD29
330
1F
100
AcDbEntity
  8
freecads.com
100
AcDbCircle
 10
10256.9025852068
 20
29541.64271067978
 30
0.0
 40
0.981596687902943
100
AcDbArc
 50
219.2413171561762
 51
242.715469326262
  0
ARC
  5
AD2A
330
1F
100
AcDbEntity
  8
freecads.com
100
AcDbCircle
 10
10260.57623750018
 20
29544.64327823971
 30
0.0
 40
5.724921139631257
100
AcDbArc
 50
212.8725519277552
 51
219.2412860161749
  0
ARC
  5
AD2B
330
1F
100
AcDbEntity
  8
freecads.com
100
AcDbCircle
 10
10261.62785563703
 20
29545.32289312053
 30
0.0
 40
6.977030197160938
100
AcDbArc
 50
206.739749205609
 51
212.8726002599664
  0
ARC
  5
AD2C
330
1F
100
AcDbEntity
  8
freecads.com
100
AcDbCircle
 10
10262.52206456553
 20
29545.77342737288
 30
0.0
 40
7.978324719345556
100
AcDbArc
 50
201.193789421338
 51
206.7398547559854
  0
ARC
  5
AD2D
330
1F
100
AcDbEntity
  8
freecads.com
100
AcDbCircle
 10
10261.57407707996
 20
29545.40583894465
 30
0.0
 40
6.961564410657714
100
AcDbArc
 50
195.4729129238287
 51
201.1937393352249
  0
ARC
  5
AD2E
330
1F
100
AcDbEntity
  8
freecads.com
100
AcDbCircle
 10
10256.62533722814
 20
29544.03594951763
 30
0.0
 40
1.826720385451393
100
AcDbArc
 50
179.9999714775819
 51
195.4728655720474
  0
ARC
  5
AD2F
330
1F
100
AcDbEntity
  8
freecads.com
100
AcDbCircle
 10
10255.13851191328
 20
29544.03595053193
 30
0.0
 40
0.3398950705939276
100
AcDbArc
 50
136.8927255808108
 51
180.0000176905818
  0
ARC
  5
AD30
330
1F
100
AcDbEntity
  8
freecads.com
100
AcDbCircle
 10
10255.00892511178
 20
29544.15724600754
 30
0.0
 40
0.1623976578608936
100
AcDbArc
 50
62.71543662314442
 51
136.8925781767255
  0
ARC
  5
AD31
330
1F
100
AcDbEntity
  8
freecads.com
100
AcDbCircle
 10
10254.63339647858
 20
29543.42919017419
 30
0.0
 40
0.981596687902943
100
AcDbArc
 50
39.24131715617623
 51
62.71546932626205
  0
ARC
  5
AD32
330
1F
100
AcDbEntity
  8
freecads.com
100
AcDbCircle
 10
10250.9597441852
 20
29540.42862261426
 30
0.0
 40
5.724921139631257
100
AcDbArc
 50
32.87255192775524
 51
39.24128601617491
  0
ARC
  5
AD33
330
1F
100
AcDbEntity
  8
freecads.com
100
AcDbCircle
 10
10249.90812604835
 20
29539.74900773344
 30
0.0
 40
6.977030197160938
100
AcDbArc
 50
26.73974920560903
 51
32.87260025996645
  0
ARC
  5
AD34
330
1F
100
AcDbEntity
  8
freecads.com
100
AcDbCircle
 10
10249.01391711985
 20
29539.2984734811
 30
0.0
 40
7.978324719345556
100
AcDbArc
 50
21.193789421338
 51
26.73985475598542
  0
ARC
  5
AD35
330
1F
100
AcDbEntity
  8
freecads.com
100
AcDbCircle
 10
10249.96190460542
 20
29539.66606190933
 30
0.0
 40
6.961564410657714
100
AcDbArc
 50
15.47291292382874
 51
21.19373933522495
  0
ARC
  5
AD36
330
1F
100
AcDbEntity
  8
freecads.com
100
AcDbCircle
 10
10254.91064445724
 20
29541.03595133634
 30
0.0
 40
1.826720385451393
100
AcDbArc
 50
359.9999714775819
 51
15.47286557204748
  0
ARC
  5
AD37
330
1F
100
AcDbEntity
  8
freecads.com
100
AcDbCircle
 10
10170.50906460563
 20
29539.91350509028
 30
0.0
 40
1.258926237063451
100
AcDbArc
 50
335.3250028375599
 51
0.0000153241530579
  0
ARC
  5
AD38
330
1F
100
AcDbEntity
  8
freecads.com
100
AcDbCircle
 10
10170.37901786742
 20
29539.97325243207
 30
0.0
 40
1.402041222194831
100
AcDbArc
 50
312.5633674535306
 51
335.3249557831365
  0
ARC
  5
AD39
330
1F
100
AcDbEntity
  8
freecads.com
100
AcDbCircle
 10
10170.30663489894
 20
29540.05206924901
 30
0.0
 40
1.509052365339352
100
AcDbArc
 50
290.7243912356339
 51
312.563371301529
  0
ARC
  5
AD3A
330
1F
100
AcDbEntity
  8
freecads.com
100
AcDbCircle
 10
10170.26798841659
 20
29540.1542149107
 30
0.0
 40
1.618264483713738
100
AcDbArc
 50
270.0000858977372
 51
290.7243631593699
  0
ARC
  5
AD3B
330
1F
100
AcDbEntity
  8
freecads.com
100
AcDbCircle
 10
10170.26799101248
 20
29539.7012572169
 30
0.0
 40
1.165306789915815
100
AcDbArc
 50
237.3821440811939
 51
269.9999916516321
  0
ARC
  5
AD3C
330
1F
100
AcDbEntity
  8
freecads.com
100
AcDbCircle
 10
10170.42441664007
 20
29539.94568875891
 30
0.0
 40
1.455506300067466
100
AcDbArc
 50
209.7689580922993
 51
237.3822176131217
  0
ARC
  5
AD3D
330
1F
100
AcDbEntity
  8
freecads.com
100
AcDbCircle
 10
10171.36166640555
 20
29540.48178304006
 30
0.0
 40
2.535244324394104
100
AcDbArc
 50
189.871469977892
 51
209.7689660634462
  0
ARC
  5
AD3E
330
1F
100
AcDbEntity
  8
freecads.com
100
AcDbCircle
 10
10175.24992141003
 20
29541.15839616467
 30
0.0
 40
6.481930567336408
100
AcDbArc
 50
180.0000065206545
 51
189.871460596524
  0
ARC
  5
AD3F
330
1F
100
AcDbEntity
  8
freecads.com
100
AcDbCircle
 10
10191.81755000704
 20
29541.15841177145
 30
0.0
 40
23.04955916435995
100
AcDbArc
 50
176.4340099416686
 51
180.0000406284531
  0
ARC
  5
AD40
330
1F
100
AcDbEntity
  8
freecads.com
100
AcDbCircle
 10
10169.52532588212
 20
29542.54763517658
 30
0.0
 40
0.7140896572039014
100
AcDbArc
 50
132.5634852191726
 51
176.4339910871264
  0
ARC
  5
AD41
330
1F
100
AcDbEntity
  8
freecads.com
100
AcDbCircle
 10
10169.27546531289
 20
29542.81970382041
 30
0.0
 40
0.3446960310926623
100
AcDbArc
 50
58.88125723718484
 51
132.5634310656528
  0
ARC
  5
AD42
330
1F
100
AcDbEntity
  8
freecads.com
100
AcDbCircle
 10
10165.9986743667
 20
29537.39173521177
 30
0.0
 40
6.685058964043845
100
AcDbArc
 50
50.30984714956905
 51
58.88119331747613
  0
ARC
  5
AD43
330
1F
100
AcDbEntity
  8
freecads.com
100
AcDbCircle
 10
10167.56262167225
 20
29539.27618479699
 30
0.0
 40
4.236165047646292
100
AcDbArc
 50
39.27444645901729
 51
50.30978617497834
  0
ARC
  5
AD44
330
1F
100
AcDbEntity
  8
freecads.com
100
AcDbCircle
 10
10166.84043501641
 20
29538.68563002564
 30
0.0
 40
5.169068313680627
100
AcDbArc
 50
29.76894040052346
 51
39.27435648232741
  0
ARC
  5
AD45
330
1F
100
AcDbEntity
  8
freecads.com
100
AcDbCircle
 10
10167.36230225544
 20
29538.98413271349
 30
0.0
 40
4.567861801886944
100
AcDbArc
 50
19.79658329427476
 51
29.76891781346576
  0
ARC
  5
AD46
330
1F
100
AcDbEntity
  8
freecads.com
100
AcDbCircle
 10
10169.94420962415
 20
29539.91350486033
 30
0.0
 40
1.823781218538536
100
AcDbArc
 50
0.000017802097664
 51
19.79651779422676
  0
ARC
  5
AD47
330
1F
100
AcDbEntity
  8
freecads.com
100
AcDbCircle
 10
10187.97415939415
 20
29535.24374214457
 30
0.0
 40
0.5904031670549347
100
AcDbArc
 50
213.3441219819911
 51
315.0000501590025
  0
ARC
  5
AD48
330
1F
100
AcDbEntity
  8
freecads.com
100
AcDbCircle
 10
10199.6886453328
 20
29542.95165111147
 30
0.0
 40
14.61327881539099
100
AcDbArc
 50
203.1826511328606
 51
213.344154622551
  0
ARC
  5
AD49
330
1F
100
AcDbEntity
  8
freecads.com
100
AcDbCircle
 10
10203.07595191503
 20
29544.40225278591
 30
0.0
 40
18.29812495868874
100
AcDbArc
 50
194.0062938372904
 51
203.1826918113872
  0
ARC
  5
AD4A
330
1F
100
AcDbEntity
  8
freecads.com
100
AcDbCircle
 10
10188.56289872614
 20
29540.78205159077
 30
0.0
 40
3.340365448765348
100
AcDbArc
 50
161.6885766085853
 51
194.0063396890605
  0
ARC
  5
AD4B
330
1F
100
AcDbEntity
  8
freecads.com
100
AcDbCircle
 10
10190.69214941068
 20
29540.07739321744
 30
0.0
 40
5.58318775574779
100
AcDbArc
 50
150.3758488994041
 51
161.6885273870385
  0
ARC
  5
AD4C
330
1F
100
AcDbEntity
  8
freecads.com
100
AcDbCircle
 10
10186.0465094446
 20
29542.71907479853
 30
0.0
 40
0.2389897550823374
100
AcDbArc
 50
42.54374768974824
 51
150.375848347939
  0
ARC
  5
AD4D
330
1F
100
AcDbEntity
  8
freecads.com
100
AcDbCircle
 10
10184.77195718661
 20
29541.54936526709
 30
0.0
 40
1.968933062329659
100
AcDbArc
 50
17.85051452834121
 51
42.54387633135801
  0
ARC
  5
AD4E
330
1F
100
AcDbEntity
  8
freecads.com
100
AcDbCircle
 10
10079.24043349621
 20
29507.56422599127
 30
0.0
 40
112.8377392433886
100
AcDbArc
 50
16.49766829021121
 51
17.85052052254779
  0
ARC
  5
AD4F
330
1F
100
AcDbEntity
  8
freecads.com
100
AcDbCircle
 10
10139.13655137186
 20
29525.30359959359
 30
0.0
 40
50.36990502147788
100
AcDbArc
 50
14.46419449784032
 51
16.497682939938
  0
ARC
  5
AD50
330
1F
100
AcDbEntity
  8
freecads.com
100
AcDbCircle
 10
10160.42529690583
 20
29530.79504210946
 30
0.0
 40
28.38430456765804
100
AcDbArc
 50
11.33995428358483
 51
14.46421418457292
  0
ARC
  5
AD51
330
1F
100
AcDbEntity
  8
freecads.com
100
AcDbCircle
 10
10149.18715072079
 20
29528.54122695167
 30
0.0
 40
39.84622467029242
100
AcDbArc
 50
9.505927199045547
 51
11.34004053648336
  0
ARC
  5
AD52
330
1F
100
AcDbEntity
  8
freecads.com
100
AcDbCircle
 10
10188.15204478172
 20
29535.06585757486
 30
0.0
 40
0.3388358177174677
100
AcDbArc
 50
314.9999896091576
 51
9.505968413013292
  0
ARC
  5
AD53
330
1F
100
AcDbEntity
  8
freecads.com
100
AcDbCircle
 10
10161.20083243895
 20
29527.26153908875
 30
0.0
 40
15.83672964579285
100
AcDbArc
 50
22.74599607453026
 51
27.3443965359461
  0
ARC
  5
AD54
330
1F
100
AcDbEntity
  8
freecads.com
100
AcDbCircle
 10
10169.67987773701
 20
29530.8164057786
 30
0.0
 40
6.642639894809886
100
AcDbArc
 50
13.94484376558929
 51
22.74595939053848
  0
ARC
  5
AD55
330
1F
100
AcDbEntity
  8
freecads.com
100
AcDbCircle
 10
10173.16922491277
 20
29531.68283203766
 30
0.0
 40
3.047332094996083
100
AcDbArc
 50
1.132409558423326
 51
13.94481999908505
  0
ARC
  5
AD56
330
1F
100
AcDbEntity
  8
freecads.com
100
AcDbCircle
 10
10176.01290892572
 20
29531.73904300356
 30
0.0
 40
0.2030925765719115
100
AcDbArc
 50
269.9999765764616
 51
1.132326927595157
  0
ARC
  5
AD57
330
1F
100
AcDbEntity
  8
freecads.com
100
AcDbCircle
 10
10176.01290862037
 20
29532.0335038898
 30
0.0
 40
0.497553462811588
100
AcDbArc
 50
220.1885057938194
 51
270.0000256008071
  0
ARC
  5
AD58
330
1F
100
AcDbEntity
  8
freecads.com
100
AcDbCircle
 10
10180.88457596577
 20
29536.14868211066
 30
0.0
 40
6.874687185228909
100
AcDbArc
 50
212.8734735106157
 51
220.1883471918522
  0
ARC
  5
AD59
330
1F
100
AcDbEntity
  8
freecads.com
100
AcDbCircle
 10
10182.59811702163
 20
29537.25609055064
 30
0.0
 40
8.914926485659465
100
AcDbArc
 50
205.7227282645554
 51
212.8734412651153
  0
ARC
  5
AD5A
330
1F
100
AcDbEntity
  8
freecads.com
100
AcDbCircle
 10
10187.36647624429
 20
29539.55326152993
 30
0.0
 40
14.20777488556388
100
AcDbArc
 50
200.6793951934946
 51
205.7226722292837
  0
ARC
  5
AD5B
330
1F
100
AcDbEntity
  8
freecads.com
100
AcDbCircle
 10
10200.93572972113
 20
29544.67505629189
 30
0.0
 40
28.71147860226761
100
AcDbArc
 50
198.2436856758622
 51
200.6793521510164
  0
ARC
  5
AD5C
330
1F
100
AcDbEntity
  8
freecads.com
100
AcDbCircle
 10
10186.42422188226
 20
29539.8916397064
 30
0.0
 40
13.43191925039022
100
AcDbArc
 50
193.9448950712697
 51
198.2436369875735
  0
ARC
  5
AD5D
330
1F
100
AcDbEntity
  8
freecads.com
100
AcDbCircle
 10
10186.33719323235
 20
29539.87000530343
 30
0.0
 40
13.34224186906476
100
AcDbArc
 50
190.628973361329
 51
193.9447925183495
  0
ARC
  5
AD5E
330
1F
100
AcDbEntity
  8
freecads.com
100
AcDbCircle
 10
10173.32917497319
 20
29537.42881202082
 30
0.0
 40
0.1071384061611084
100
AcDbArc
 50
90.00006979015923
 51
190.6290215498623
  0
ARC
  5
AD5F
330
1F
100
AcDbEntity
  8
freecads.com
100
AcDbCircle
 10
10173.32917482749
 20
29537.27862800278
 30
0.0
 40
0.257322424212703
100
AcDbArc
 50
34.93868558740736
 51
89.99999661606732
  0
ARC
  5
AD60
330
1F
100
AcDbEntity
  8
freecads.com
100
AcDbCircle
 10
10152.40470066423
 20
29522.66044116944
 30
0.0
 40
25.78231028519128
100
AcDbArc
 50
32.87344895182153
 51
34.93879129995959
  0
ARC
  5
AD61
330
1F
100
AcDbEntity
  8
freecads.com
100
AcDbCircle
 10
10157.76260844832
 20
29526.12310056868
 30
0.0
 40
19.40287567560826
100
AcDbArc
 50
29.52762716658115
 51
32.87346297087255
  0
ARC
  5
AD62
330
1F
100
AcDbEntity
  8
freecads.com
100
AcDbCircle
 10
10144.78609353129
 20
29518.77311863102
 30
0.0
 40
34.3163653368246
100
AcDbArc
 50
27.34443790092321
 51
29.52757024919137
  0
ARC
  5
AD63
330
1F
100
AcDbEntity
  8
freecads.com
100
AcDbCircle
 10
10038.20132603117
 20
29507.70877567336
 30
0.0
 40
195.5425353586744
100
AcDbArc
 50
5.660033642011473
 51
7.121743749083744
  0
ARC
  5
AD64
330
1F
100
AcDbEntity
  8
freecads.com
100
AcDbCircle
 10
10231.78054856631
 20
29526.89418487562
 30
0.0
 40
1.014914380138717
100
AcDbArc
 50
305.0626218312396
 51
5.660032573546714
  0
ARC
  5
AD65
330
1F
100
AcDbEntity
  8
freecads.com
100
AcDbCircle
 10
10232.11373151544
 20
29526.41945652175
 30
0.0
 40
0.434933442897365
100
AcDbArc
 50
198.4042722501964
 51
305.0625424917525
  0
ARC
  5
AD66
330
1F
100
AcDbEntity
  8
freecads.com
100
AcDbCircle
 10
10364.2655200638
 20
29570.39156209375
 30
0.0
 40
139.7103486638383
100
AcDbArc
 50
196.5397231471413
 51
198.4043158542787
  0
ARC
  5
AD67
330
1F
100
AcDbEntity
  8
freecads.com
100
AcDbCircle
 10
10460.14818303194
 20
29598.86550545642
 30
0.0
 40
239.7315989483417
100
AcDbArc
 50
195.4804192048051
 51
196.5396960335233
  0
ARC
  5
AD68
330
1F
100
AcDbEntity
  8
freecads.com
100
AcDbCircle
 10
10235.59503011615
 20
29536.67403812229
 30
0.0
 40
6.725382092238318
100
AcDbArc
 50
181.5175364500542
 51
195.4804051909172
  0
ARC
  5
AD69
330
1F
100
AcDbEntity
  8
freecads.com
100
AcDbCircle
 10
10229.75879042902
 20
29536.51942334199
 30
0.0
 40
0.8870947221352341
100
AcDbArc
 50
126.3734295640758
 51
181.5175406132416
  0
ARC
  5
AD6A
330
1F
100
AcDbEntity
  8
freecads.com
100
AcDbCircle
 10
10230.15276887742
 20
29535.9845251211
 30
0.0
 40
1.55142530588371
100
AcDbArc
 50
90.00003821366609
 51
126.3734362278048
  0
ARC
  5
AD6B
330
1F
100
AcDbEntity
  8
freecads.com
100
AcDbCircle
 10
10230.15276807445
 20
29536.72974439744
 30
0.0
 40
0.8062060295423286
100
AcDbArc
 50
35.75949531138364
 51
90.0000164709945
  0
ARC
  5
AD6C
330
1F
100
AcDbEntity
  8
freecads.com
100
AcDbCircle
 10
10227.18412119079
 20
29534.59187219179
 30
0.0
 40
4.464533774230283
100
AcDbArc
 50
20.45160884771254
 51
35.7595496660744
  0
ARC
  5
AD6D
330
1F
100
AcDbEntity
  8
freecads.com
100
AcDbCircle
 10
10221.54600664213
 20
29532.48927933124
 30
0.0
 40
10.48194454640628
100
AcDbArc
 50
10.70787672218369
 51
20.45168067468343
  0
ARC
  5
AD6E
330
1F
100
AcDbEntity
  8
freecads.com
100
AcDbCircle
 10
10192.34971134359
 20
29526.9684152679
 30
0.0
 40
40.19563834514217
100
AcDbArc
 50
7.121696322037242
 51
10.70789021311439
  0
ARC
  5
AD6F
330
1F
100
AcDbEntity
  8
freecads.com
100
AcDbCircle
 10
10201.31051972915
 20
29536.24988786954
 30
0.0
 40
29.51338810445536
100
AcDbArc
 50
186.7402463524756
 51
189.8216568656184
  0
ARC
  5
AD70
330
1F
100
AcDbEntity
  8
freecads.com
100
AcDbCircle
 10
10206.13483800329
 20
29537.08506982099
 30
0.0
 40
34.40946568781327
100
AcDbArc
 50
189.8216559621217
 51
192.568054977986
  0
ARC
  5
AD71
330
1F
100
AcDbEntity
  8
freecads.com
100
AcDbCircle
 10
10202.44453238222
 20
29536.26232199971
 30
0.0
 40
30.62855712589863
100
AcDbArc
 50
192.5680059864875
 51
195.3451110807687
  0
ARC
  5
AD72
330
1F
100
AcDbEntity
  8
freecads.com
100
AcDbCircle
 10
10179.73112891755
 20
29530.02941334559
 30
0.0
 40
7.075471399411213
100
AcDbArc
 50
195.3451189986294
 51
203.5894031225933
  0
ARC
  5
AD73
330
1F
100
AcDbEntity
  8
freecads.com
100
AcDbCircle
 10
10167.18780264812
 20
29524.55213620703
 30
0.0
 40
6.611588137028226
100
AcDbArc
 50
14.68458355517352
 51
23.58936429373453
  0
ARC
  5
AD74
330
1F
100
AcDbEntity
  8
freecads.com
100
AcDbCircle
 10
10173.12887886097
 20
29526.10904031862
 30
0.0
 40
0.4698996900616964
100
AcDbArc
 50
313.3647305533983
 51
14.68453685585908
  0
ARC
  5
AD75
330
1F
100
AcDbEntity
  8
freecads.com
100
AcDbCircle
 10
10172.96946222707
 20
29526.27782537462
 30
0.0
 40
0.7020678581927848
100
AcDbArc
 50
267.1837783899856
 51
313.364803971392
  0
ARC
  5
AD76
330
1F
100
AcDbEntity
  8
freecads.com
100
AcDbCircle
 10
10173.62517215018
 20
29539.60709634025
 30
0.0
 40
14.04745732341279
100
AcDbArc
 50
261.9530547155621
 51
267.18370936179
  0
ARC
  5
AD77
330
1F
100
AcDbEntity
  8
freecads.com
100
AcDbCircle
 10
10172.31077343364
 20
29530.30993900433
 30
0.0
 40
4.657847186949846
100
AcDbArc
 50
246.0134446368107
 51
261.9530484158301
  0
ARC
  5
AD78
330
1F
100
AcDbEntity
  8
freecads.com
100
AcDbCircle
 10
10171.12653070726
 20
29527.64840202155
 30
0.0
 40
1.744737174316441
100
AcDbArc
 50
212.8491275424291
 51
246.0133959083231
  0
ARC
  5
AD79
330
1F
100
AcDbEntity
  8
freecads.com
100
AcDbCircle
 10
10172.24395059827
 20
29528.3698854403
 30
0.0
 40
3.074836996271912
100
AcDbArc
 50
189.9656630624637
 51
212.84910630613
  0
ARC
  5
AD7A
330
1F
100
AcDbEntity
  8
freecads.com
100
AcDbCircle
 10
10191.39065768314
 20
29531.7341344443
 30
0.0
 40
22.51486177903348
100
AcDbArc
 50
184.6953753796734
 51
189.9656578994431
  0
ARC
  5
AD7B
330
1F
100
AcDbEntity
  8
freecads.com
100
AcDbCircle
 10
10197.60305030841
 20
29532.24434978778
 30
0.0
 40
28.74817083815325
100
AcDbArc
 50
175.9530110360184
 51
184.6953128397348
  0
ARC
  5
AD7C
330
1F
100
AcDbEntity
  8
freecads.com
100
AcDbCircle
 10
10172.27392857671
 20
29534.03641050061
 30
0.0
 40
3.355733198223156
100
AcDbArc
 50
133.5071662075864
 51
175.9530193019278
  0
ARC
  5
AD7D
330
1F
100
AcDbEntity
  8
freecads.com
100
AcDbCircle
 10
10170.48131038789
 20
29535.92496344996
 30
0.0
 40
0.7518683374116683
100
AcDbArc
 50
20.20391336504966
 51
133.5072003868953
  0
ARC
  5
AD7E
330
1F
100
AcDbEntity
  8
freecads.com
100
AcDbCircle
 10
10157.19725746375
 20
29531.03635558514
 30
0.0
 40
14.9068868448979
100
AcDbArc
 50
6.740239546321112
 51
20.20390574945094
  0
ARC
  5
AD7F
330
1F
100
AcDbEntity
  8
freecads.com
100
AcDbCircle
 10
10193.08103654425
 20
29510.59392872481
 30
0.0
 40
70.18747751626793
100
AcDbArc
 50
14.10215769814198
 51
16.45005659969287
  0
ARC
  5
AD80
330
1F
100
AcDbEntity
  8
freecads.com
100
AcDbCircle
 10
10259.26875330079
 20
29527.22178040959
 30
0.0
 40
1.94306894607913
100
AcDbArc
 50
342.8750287530873
 51
14.10225754962728
  0
ARC
  5
AD81
330
1F
100
AcDbEntity
  8
freecads.com
100
AcDbCircle
 10
10260.94220981618
 20
29526.70615961666
 30
0.0
 40
0.1919774261930887
100
AcDbArc
 50
204.3202133525959
 51
342.8749914742386
  0
ARC
  5
AD82
330
1F
100
AcDbEntity
  8
freecads.com
100
AcDbCircle
 10
10292.77897040774
 20
29541.0945754047
 30
0.0
 40
35.12914722933164
100
AcDbArc
 50
200.5106888780193
 51
204.3202781223275
  0
ARC
  5
AD83
330
1F
100
AcDbEntity
  8
freecads.com
100
AcDbCircle
 10
10352.24066781174
 20
29563.33904424366
 30
0.0
 40
98.61544379869256
100
AcDbArc
 50
198.6167663272695
 51
200.5106925013251
  0
ARC
  5
AD84
330
1F
100
AcDbEntity
  8
freecads.com
100
AcDbCircle
 10
10281.07495578389
 20
29539.36594040009
 30
0.0
 40
23.52038220123607
100
AcDbArc
 50
193.1238180600408
 51
198.6167437448187
  0
ARC
  5
AD85
330
1F
100
AcDbEntity
  8
freecads.com
100
AcDbCircle
 10
10262.08463435489
 20
29534.93843332831
 30
0.0
 40
4.020763567854172
100
AcDbArc
 50
177.7857851587326
 51
193.1238431183716
  0
ARC
  5
AD86
330
1F
100
AcDbEntity
  8
freecads.com
100
AcDbCircle
 10
10258.25024640715
 20
29535.08668812282
 30
0.0
 40
0.1835105897624574
100
AcDbArc
 50
46.39959198333609
 51
177.7857100900385
  0
ARC
  5
AD87
330
1F
100
AcDbEntity
  8
freecads.com
100
AcDbCircle
 10
10257.03974886816
 20
29533.81555516976
 30
0.0
 40
1.938812067067849
100
AcDbArc
 50
26.34363593610855
 51
46.39966204997419
  0
ARC
  5
AD88
330
1F
100
AcDbEntity
  8
freecads.com
100
AcDbCircle
 10
10238.53674985745
 20
29524.65328619805
 30
0.0
 40
22.58604299764257
100
AcDbArc
 50
23.02524368130798
 51
26.34358332450908
  0
ARC
  5
AD89
330
1F
100
AcDbEntity
  8
freecads.com
100
AcDbCircle
 10
10236.22876515327
 20
29523.67240551483
 30
0.0
 40
25.09381497879314
100
AcDbArc
 50
19.46745947980134
 51
23.0252415668717
  0
ARC
  5
AD8A
330
1F
100
AcDbEntity
  8
freecads.com
100
AcDbCircle
 10
10230.41582323195
 20
29521.61767407736
 30
0.0
 40
31.25921967437677
100
AcDbArc
 50
16.44993720384592
 51
19.46741694715213
  0
ARC
  5
AD8B
330
1F
100
AcDbEntity
  8
freecads.com
100
AcDbCircle
 10
10243.30734395719
 20
29526.01268857382
 30
0.0
 40
6.395727342427937
100
AcDbArc
 50
350.4447466341724
 51
357.6529281644035
  0
ARC
  5
AD8C
330
1F
100
AcDbEntity
  8
freecads.com
100
AcDbCircle
 10
10233.58973723512
 20
29527.64846822316
 30
0.0
 40
16.25004900684478
100
AcDbArc
 50
346.8522248201071
 51
350.4448342647195
  0
ARC
  5
AD8D
330
1F
100
AcDbEntity
  8
freecads.com
100
AcDbCircle
 10
10232.74057554865
 20
29527.84682405423
 30
0.0
 40
17.12206999596792
100
AcDbArc
 50
343.3010771210224
 51
346.8522144963805
  0
ARC
  5
AD8E
330
1F
100
AcDbEntity
  8
freecads.com
100
AcDbCircle
 10
10238.86177445998
 20
29526.01049146706
 30
0.0
 40
10.7313584954693
100
AcDbArc
 50
338.2617471687785
 51
343.3011299763719
  0
ARC
  5
AD8F
330
1F
100
AcDbEntity
  8
freecads.com
100
AcDbCircle
 10
10244.54942512735
 20
29523.74269856581
 30
0.0
 40
4.608266567610071
100
AcDbArc
 50
325.7619270740098
 51
338.261770190523
  0
ARC
  5
AD90
330
1F
100
AcDbEntity
  8
freecads.com
100
AcDbCircle
 10
10248.15292571792
 20
29521.29026021914
 30
0.0
 40
0.2494054376267754
100
AcDbArc
 50
223.8925417917307
 51
325.7618990882346
  0
ARC
  5
AD91
330
1F
100
AcDbEntity
  8
freecads.com
100
AcDbCircle
 10
10249.20835697348
 20
29522.30565556184
 30
0.0
 40
1.713974601991649
100
AcDbArc
 50
197.3913408026674
 51
223.8924389704072
  0
ARC
  5
AD92
330
1F
100
AcDbEntity
  8
freecads.com
100
AcDbCircle
 10
10324.63017404413
 20
29545.92890574957
 30
0.0
 40
80.7488304547712
100
AcDbArc
 50
195.7311692831645
 51
197.3913427512655
  0
ARC
  5
AD93
330
1F
100
AcDbEntity
  8
freecads.com
100
AcDbCircle
 10
10407.38895426847
 20
29569.23972297611
 30
0.0
 40
166.7279552698705
100
AcDbArc
 50
194.449291124136
 51
195.7310989380175
  0
ARC
  5
AD94
330
1F
100
AcDbEntity
  8
freecads.com
100
AcDbCircle
 10
10248.44777403032
 20
29528.28478024453
 30
0.0
 40
2.595063655653953
100
AcDbArc
 50
169.1541719032962
 51
194.4492590646809
  0
ARC
  5
AD95
330
1F
100
AcDbEntity
  8
freecads.com
100
AcDbCircle
 10
10246.29625693322
 20
29528.69698824178
 30
0.0
 40
0.4044150640086234
100
AcDbArc
 50
74.14894946078156
 51
169.1542237095189
  0
ARC
  5
AD96
330
1F
100
AcDbEntity
  8
freecads.com
100
AcDbCircle
 10
10244.53563686878
 20
29522.49624157265
 30
0.0
 40
6.850269721538906
100
AcDbArc
 50
61.84503458104163
 51
74.1488138367813
  0
ARC
  5
AD97
330
1F
100
AcDbEntity
  8
freecads.com
100
AcDbCircle
 10
10245.99259254259
 20
29525.21858302307
 30
0.0
 40
3.762574333690844
100
AcDbArc
 50
47.64361010154675
 51
61.84507209971294
  0
ARC
  5
AD98
330
1F
100
AcDbEntity
  8
freecads.com
100
AcDbCircle
 10
10245.65413068398
 20
29524.84734337252
 30
0.0
 40
4.264944026093065
100
AcDbArc
 50
34.71614178644788
 51
47.64369664536229
  0
ARC
  5
AD99
330
1F
100
AcDbEntity
  8
freecads.com
100
AcDbCircle
 10
10246.09229848157
 20
29525.150926679
 30
0.0
 40
3.73188320139941
100
AcDbArc
 50
20.96062546187395
 51
34.71615600984952
  0
ARC
  5
AD9A
330
1F
100
AcDbEntity
  8
freecads.com
100
AcDbCircle
 10
10247.85527850171
 20
29525.82627985571
 30
0.0
 40
1.843974182220254
100
AcDbArc
 50
357.652998063643
 51
20.96067605434284
  0
ARC
  5
AD9B
330
1F
100
AcDbEntity
  8
freecads.com
100
AcDbCircle
 10
10255.77132781627
 20
29513.31057343313
 30
0.0
 40
24.27024312846195
100
AcDbArc
 50
9.408411484132127
 51
14.0892840584302
  0
ARC
  5
AD9C
330
1F
100
AcDbEntity
  8
freecads.com
100
AcDbCircle
 10
10279.18736955065
 20
29517.19060675412
 30
0.0
 40
0.534917786724127
100
AcDbArc
 50
296.9324238563088
 51
9.40832851458642
  0
ARC
  5
AD9D
330
1F
100
AcDbEntity
  8
freecads.com
100
AcDbCircle
 10
10279.01649893617
 20
29517.5269383147
 30
0.0
 40
0.9121652990286325
100
AcDbArc
 50
247.9353584671211
 51
296.9324511499504
  0
ARC
  5
AD9E
330
1F
100
AcDbEntity
  8
freecads.com
100
AcDbCircle
 10
10301.41194583011
 20
29572.7780818994
 30
0.0
 40
60.52965358053916
100
AcDbArc
 50
245.5045107249679
 51
247.9353648969565
  0
ARC
  5
AD9F
330
1F
100
AcDbEntity
  8
freecads.com
100
AcDbCircle
 10
10279.14862535211
 20
29523.91549741302
 30
0.0
 40
6.83414537552704
100
AcDbArc
 50
232.3659005737699
 51
245.5045365238191
  0
ARC
  5
ADA0
330
1F
100
AcDbEntity
  8
freecads.com
100
AcDbCircle
 10
10276.50254857302
 20
29520.48372381575
 30
0.0
 40
2.500694978470721
100
AcDbArc
 50
204.5475741902123
 51
232.3659033835105
  0
ARC
  5
ADA1
330
1F
100
AcDbEntity
  8
freecads.com
100
AcDbCircle
 10
10278.00655275506
 20
29521.17064028479
 30
0.0
 40
4.15414071843545
100
AcDbArc
 50
184.5985919554761
 51
204.5474929895997
  0
ARC
  5
ADA2
330
1F
100
AcDbEntity
  8
freecads.com
100
AcDbCircle
 10
10304.1465809049
 20
29523.27317963284
 30
0.0
 40
30.37859006220934
100
AcDbArc
 50
179.9999796415839
 51
184.5986091937884
  0
LINE
  5
ADA3
330
1F
100
AcDbEntity
  8
freecads.com
100
AcDbLine
 10
10273.76799084269
 20
29523.27319042699
 30
0.0
 11
10273.76799084269
 21
29527.68940142698
 31
0.0
  0
LINE
  5
ADA4
330
1F
100
AcDbEntity
  8
freecads.com
100
AcDbLine
 10
10273.76799084269
 20
29527.68940142698
 30
0.0
 11
10276.20305484269
 21
29524.79549142699
 31
0.0
  0
ARC
  5
ADA5
330
1F
100
AcDbEntity
  8
freecads.com
100
AcDbCircle
 10
10264.70067449608
 20
29515.11688696279
 30
0.0
 40
15.03263576398117
100
AcDbArc
 50
33.85334594353779
 51
40.07871968715623
  0
ARC
  5
ADA6
330
1F
100
AcDbEntity
  8
freecads.com
100
AcDbCircle
 10
10259.11468553793
 20
29511.36987071173
 30
0.0
 40
21.75895745017747
100
AcDbArc
 50
29.13487291448847
 51
33.85331571723599
  0
ARC
  5
ADA7
330
1F
100
AcDbEntity
  8
freecads.com
100
AcDbCircle
 10
10260.50190939141
 20
29512.14311695958
 30
0.0
 40
20.17078246639723
100
AcDbArc
 50
24.32818040317854
 51
29.13482060812129
  0
ARC
  5
ADA8
330
1F
100
AcDbEntity
  8
freecads.com
100
AcDbCircle
 10
10272.20973414422
 20
29517.43633939319
 30
0.0
 40
7.321994034238444
100
AcDbArc
 50
14.08934509529931
 51
24.32815913616165
  0
ARC
  5
ADA9
330
1F
100
AcDbEntity
  8
freecads.com
100
AcDbCircle
 10
10146.97648661123
 20
29486.97009246947
 30
0.0
 40
99.76329251546745
100
AcDbArc
 50
16.21192015989744
 51
17.23911201679482
  0
ARC
  5
ADAA
330
1F
100
AcDbEntity
  8
freecads.com
100
AcDbCircle
 10
10242.58842892526
 20
29514.76950106313
 30
0.0
 40
0.1919581304204604
100
AcDbArc
 50
293.6741769751763
 51
16.21204558098726
  0
ARC
  5
ADAB
330
1F
100
AcDbEntity
  8
freecads.com
100
AcDbCircle
 10
10242.55752087192
 20
29514.84000018213
 30
0.0
 40
0.2689349681076638
100
AcDbArc
 50
229.0155762782
 51
293.6739804074873
  0
ARC
  5
ADAC
330
1F
100
AcDbEntity
  8
freecads.com
100
AcDbCircle
 10
10336.79124117976
 20
29623.3033824454
 30
0.0
 40
143.9501770807967
100
AcDbArc
 50
228.2304891166221
 51
229.0156674070221
  0
ARC
  5
ADAD
330
1F
100
AcDbEntity
  8
freecads.com
100
AcDbCircle
 10
10245.05639256753
 20
29520.59360192224
 30
0.0
 40
6.238226019810926
100
AcDbArc
 50
214.475923937628
 51
228.2305410511551
  0
ARC
  5
ADAE
330
1F
100
AcDbEntity
  8
freecads.com
100
AcDbCircle
 10
10244.29678108503
 20
29520.07200122892
 30
0.0
 40
5.316772338066457
100
AcDbArc
 50
198.9699141749983
 51
214.4758882578949
  0
ARC
  5
ADAF
330
1F
100
AcDbEntity
  8
freecads.com
100
AcDbCircle
 10
10245.9088163843
 20
29520.62611067997
 30
0.0
 40
7.021382290435921
100
AcDbArc
 50
185.783442985615
 51
198.9698203868027
  0
ARC
  5
ADB0
330
1F
100
AcDbEntity
  8
freecads.com
100
AcDbCircle
 10
10255.97844969619
 20
29521.64601168544
 30
0.0
 40
17.14253405774818
100
AcDbArc
 50
179.0142127633827
 51
185.7834588036205
  0
LINE
  5
ADB1
330
1F
100
AcDbEntity
  8
freecads.com
100
AcDbLine
 10
10238.83845284269
 20
29521.94093842699
 30
0.0
 11
10238.90891484269
 21
29526.03595042699
 31
0.0
  0
LINE
  5
ADB2
330
1F
100
AcDbEntity
  8
freecads.com
100
AcDbLine
 10
10238.90891484269
 20
29526.03595042699
 30
0.0
 11
10240.19560184269
 21
29522.53595042699
 31
0.0
  0
ARC
  5
ADB3
330
1F
100
AcDbEntity
  8
freecads.com
100
AcDbCircle
 10
10114.82046533285
 20
29476.44488859418
 30
0.0
 40
133.5788562450506
100
AcDbArc
 50
19.49027787164845
 51
20.18470059415095
  0
ARC
  5
ADB4
330
1F
100
AcDbEntity
  8
freecads.com
100
AcDbCircle
 10
10055.72912163902
 20
29455.53058655308
 30
0.0
 40
196.2621469162732
100
AcDbArc
 50
18.9698708497974
 51
19.49034481610145
  0
ARC
  5
ADB5
330
1F
100
AcDbEntity
  8
freecads.com
100
AcDbCircle
 10
10068.42667183437
 20
29459.89526400359
 30
0.0
 40
182.835375516955
100
AcDbArc
 50
18.44388832927857
 51
18.96986266173762
  0
ARC
  5
ADB6
330
1F
100
AcDbEntity
  8
freecads.com
100
AcDbCircle
 10
10184.80896512924
 20
29498.70945930238
 30
0.0
 40
60.15130992875322
100
AcDbArc
 50
17.23915563640068
 51
18.44396018940623
  0
ARC
  5
ADB7
330
1F
100
AcDbEntity
  8
freecads.com
100
AcDbCircle
 10
10280.52822235468
 20
29518.19364296452
 30
0.0
 40
5.049730936931827
100
AcDbArc
 50
29.41321444053044
 51
38.71362792922698
  0
ARC
  5
ADB8
330
1F
100
AcDbEntity
  8
freecads.com
100
AcDbCircle
 10
10270.56276485889
 20
29512.5753528975
 30
0.0
 40
16.48981513144073
100
AcDbArc
 50
25.56174129517829
 51
29.41325933467167
  0
ARC
  5
ADB9
330
1F
100
AcDbEntity
  8
freecads.com
100
AcDbCircle
 10
10269.07479961196
 20
29511.86362568012
 30
0.0
 40
18.13923812361373
100
AcDbArc
 50
21.78112090236394
 51
25.56184099169501
  0
ARC
  5
ADBA
330
1F
100
AcDbEntity
  8
freecads.com
100
AcDbCircle
 10
10273.25544714934
 20
29513.53416540581
 30
0.0
 40
13.63718117074156
100
AcDbArc
 50
17.09888275232744
 51
21.78112985157612
  0
ARC
  5
ADBB
330
1F
100
AcDbEntity
  8
freecads.com
100
AcDbCircle
 10
10229.72493089547
 20
29500.14332431867
 30
0.0
 40
59.1807918131708
100
AcDbArc
 50
15.56295273198285
 51
17.09891499266103
  0
ARC
  5
ADBC
330
1F
100
AcDbEntity
  8
freecads.com
100
AcDbCircle
 10
10286.37216619916
 20
29515.92004002
 30
0.0
 40
0.3776114070819832
100
AcDbArc
 50
320.1358100982757
 51
15.56301642144997
  0
ARC
  5
ADBD
330
1F
100
AcDbEntity
  8
freecads.com
100
AcDbCircle
 10
10286.50758449262
 20
29515.80695605066
 30
0.0
 40
0.2011855066971321
100
AcDbArc
 50
232.9478513932447
 51
320.1359049217938
  0
ARC
  5
ADBE
330
1F
100
AcDbEntity
  8
freecads.com
100
AcDbCircle
 10
10303.28044666445
 20
29538.02303573736
 30
0.0
 40
28.03790769305733
100
AcDbArc
 50
230.3098723301223
 51
232.9476535385374
  0
ARC
  5
ADBF
330
1F
100
AcDbEntity
  8
freecads.com
100
AcDbCircle
 10
10291.84729234094
 20
29524.24689234007
 30
0.0
 40
10.13541779115146
100
AcDbArc
 50
223.7320127926315
 51
230.3098241671868
  0
ARC
  5
ADC0
330
1F
100
AcDbEntity
  8
freecads.com
100
AcDbCircle
 10
10328.11442242147
 20
29558.94333246189
 30
0.0
 40
60.32652936885329
100
AcDbArc
 50
221.9735449978502
 51
223.7320325528797
  0
ARC
  5
ADC1
330
1F
100
AcDbEntity
  8
freecads.com
100
AcDbCircle
 10
10333.83363702064
 20
29564.08819529642
 30
0.0
 40
68.01932009893075
100
AcDbArc
 50
220.19720633804
 51
221.9735691131567
  0
ARC
  5
ADC2
330
1F
100
AcDbEntity
  8
freecads.com
100
AcDbCircle
 10
10332.27548666376
 20
29562.77150603336
 30
0.0
 40
65.97934383774327
100
AcDbArc
 50
218.3797690135359
 51
220.1971530449162
  0
LINE
  5
ADC3
330
1F
100
AcDbEntity
  8
freecads.com
100
AcDbLine
 10
10280.55343884269
 20
29521.80684342699
 30
0.0
 11
10277.41445984269
 21
29525.77012942699
 31
0.0
  0
LINE
  5
ADC4
330
1F
100
AcDbEntity
  8
freecads.com
100
AcDbLine
 10
10277.41445984269
 20
29525.77012942699
 30
0.0
 11
10280.41405784269
 21
29524.21897642699
 31
0.0
  0
ARC
  5
ADC5
330
1F
100
AcDbEntity
  8
freecads.com
100
AcDbCircle
 10
10271.37726947777
 20
29506.74373855364
 30
0.0
 40
19.67352237609233
100
AcDbArc
 50
58.55758343129284
 51
62.65562831470882
  0
ARC
  5
ADC6
330
1F
100
AcDbEntity
  8
freecads.com
100
AcDbCircle
 10
10270.38517983438
 20
29505.12110953087
 30
0.0
 40
21.57540744250886
100
AcDbArc
 50
54.73359796388631
 51
58.55762174046333
  0
ARC
  5
ADC7
330
1F
100
AcDbEntity
  8
freecads.com
100
AcDbCircle
 10
10271.9212373759
 20
29507.29323330471
 30
0.0
 40
18.91503257052896
100
AcDbArc
 50
50.85280144088588
 51
54.73364657214896
  0
ARC
  5
ADC8
330
1F
100
AcDbEntity
  8
freecads.com
100
AcDbCircle
 10
10281.29500716302
 20
29518.80825113565
 30
0.0
 40
4.067029483621845
100
AcDbArc
 50
38.71364769166695
 51
50.85288390963973
  0
ARC
  5
ADC9
330
1F
100
AcDbEntity
  8
freecads.com
100
AcDbCircle
 10
10177.52449395105
 20
29523.8358846842
 30
0.0
 40
2.743302603717635
100
AcDbArc
 50
181.0429692290389
 51
189.9459192684264
  0
ARC
  5
ADCA
330
1F
100
AcDbEntity
  8
freecads.com
100
AcDbCircle
 10
10201.21714650749
 20
29527.99058289952
 30
0.0
 40
26.79747692793099
100
AcDbArc
 50
189.9461277086493
 51
191.6150096756354
  0
ARC
  5
ADCB
330
1F
100
AcDbEntity
  8
freecads.com
100
AcDbCircle
 10
10203.85606059843
 20
29528.53300402085
 30
0.0
 40
29.49156086354619
100
AcDbArc
 50
191.6150275130453
 51
193.3920777962775
  0
ARC
  5
ADCC
330
1F
100
AcDbEntity
  8
freecads.com
100
AcDbCircle
 10
10207.89330966994
 20
29529.49428356581
 30
0.0
 40
33.64167392536471
100
AcDbArc
 50
193.3921789197139
 51
195.0021638397432
  0
ARC
  5
ADCD
330
1F
100
AcDbEntity
  8
freecads.com
100
AcDbCircle
 10
10172.2243316591
 20
29519.93536397051
 30
0.0
 40
3.285943600906297
100
AcDbArc
 50
345.8030880525266
 51
15.00219639063868
  0
ARC
  5
ADCE
330
1F
100
AcDbEntity
  8
freecads.com
100
AcDbCircle
 10
10174.61216224829
 20
29519.33128706085
 30
0.0
 40
0.8228878087157166
100
AcDbArc
 50
265.1067184646095
 51
345.803075647457
  0
ARC
  5
ADCF
330
1F
100
AcDbEntity
  8
freecads.com
100
AcDbCircle
 10
10174.722214983
 20
29520.61677777097
 30
0.0
 40
2.113080805996702
100
AcDbArc
 50
221.4494303779735
 51
265.1067414973593
  0
ARC
  5
ADD0
330
1F
100
AcDbEntity
  8
freecads.com
100
AcDbCircle
 10
10178.79011869681
 20
29524.20936499165
 30
0.0
 40
7.540282991557122
100
AcDbArc
 50
204.4954671032683
 51
221.4494628938766
  0
ARC
  5
ADD1
330
1F
100
AcDbEntity
  8
freecads.com
100
AcDbCircle
 10
10212.30269580498
 20
29539.47870833304
 30
0.0
 40
44.36752386714485
100
AcDbArc
 50
203.0720101428961
 51
204.4954481856582
  0
ARC
  5
ADD2
330
1F
100
AcDbEntity
  8
freecads.com
100
AcDbCircle
 10
10198.79307622186
 20
29533.72423886351
 30
0.0
 40
29.68339160985618
100
AcDbArc
 50
201.1484216503971
 51
203.0721395629328
  0
ARC
  5
ADD3
330
1F
100
AcDbEntity
  8
freecads.com
100
AcDbCircle
 10
10203.35349185092
 20
29535.48836497931
 30
0.0
 40
34.57312899154287
100
AcDbArc
 50
199.7714732715945
 51
201.1483888779991
  0
ARC
  5
ADD4
330
1F
100
AcDbEntity
  8
freecads.com
100
AcDbCircle
 10
10171.62432317431
 20
29524.08300518237
 30
0.0
 40
0.8563323316222698
100
AcDbArc
 50
180.00011744953
 51
199.7715946939134
  0
ARC
  5
ADD5
330
1F
100
AcDbEntity
  8
freecads.com
100
AcDbCircle
 10
10171.20865284214
 20
29524.08300344871
 30
0.0
 40
0.4406619994558702
100
AcDbArc
 50
94.36816053919645
 51
180.0000028247901
  0
ARC
  5
ADD6
330
1F
100
AcDbEntity
  8
freecads.com
100
AcDbCircle
 10
10171.98480108483
 20
29513.92255880263
 30
0.0
 40
10.63070819663503
100
AcDbArc
 50
85.76719142615175
 51
94.36828960067378
  0
ARC
  5
ADD7
330
1F
100
AcDbEntity
  8
freecads.com
100
AcDbCircle
 10
10171.94715734531
 20
29513.41383186704
 30
0.0
 40
11.1408259732944
100
AcDbArc
 50
77.42864699029908
 51
85.76723102432177
  0
ARC
  5
ADD8
330
1F
100
AcDbEntity
  8
freecads.com
100
AcDbCircle
 10
10174.2580304421
 20
29523.77641761568
 30
0.0
 40
0.5237021693949722
100
AcDbArc
 50
1.042997439300701
 51
77.4286623534683
  0
ARC
  5
ADD9
330
1F
100
AcDbEntity
  8
freecads.com
100
AcDbCircle
 10
10195.90333158752
 20
29517.53055129461
 30
0.0
 40
5.770633806556049
100
AcDbArc
 50
353.9685071577257
 51
2.536649245899344
  0
ARC
  5
ADDA
330
1F
100
AcDbEntity
  8
freecads.com
100
AcDbCircle
 10
10198.41114895597
 20
29517.2655811954
 30
0.0
 40
3.248857229035893
100
AcDbArc
 50
340.7952755722758
 51
353.9684042643052
  0
ARC
  5
ADDB
330
1F
100
AcDbEntity
  8
freecads.com
100
AcDbCircle
 10
10199.7520256023
 20
29516.79851922836
 30
0.0
 40
1.828963901457023
100
AcDbArc
 50
323.140186583278
 51
340.7951376978846
  0
ARC
  5
ADDC
330
1F
100
AcDbEntity
  8
freecads.com
100
AcDbCircle
 10
10200.8845676813
 20
29515.94942276624
 30
0.0
 40
0.4134723392570593
100
AcDbArc
 50
270.0000223642422
 51
323.1403325076206
  0
ARC
  5
ADDD
330
1F
100
AcDbEntity
  8
freecads.com
100
AcDbCircle
 10
10200.88456784102
 20
29516.38906514078
 30
0.0
 40
0.8531147137932748
100
AcDbArc
 50
199.7948899338098
 51
270.000000112037
  0
ARC
  5
ADDE
330
1F
100
AcDbEntity
  8
freecads.com
100
AcDbCircle
 10
10212.17341774072
 20
29520.45216098817
 30
0.0
 40
12.85090117309179
100
AcDbArc
 50
190.0565642316653
 51
199.7948777201514
  0
ARC
  5
ADDF
330
1F
100
AcDbEntity
  8
freecads.com
100
AcDbCircle
 10
10213.75597823335
 20
29520.73281468477
 30
0.0
 40
14.45815479658079
100
AcDbArc
 50
180.0750577898465
 51
190.0565422720833
  0
ARC
  5
ADE0
330
1F
100
AcDbEntity
  8
freecads.com
100
AcDbCircle
 10
10207.67752934437
 20
29520.72485199629
 30
0.0
 40
8.379700692102019
100
AcDbArc
 50
165.0580490869055
 51
180.0750585960964
  0
ARC
  5
ADE1
330
1F
100
AcDbEntity
  8
freecads.com
100
AcDbCircle
 10
10255.26728867042
 20
29508.02481294532
 30
0.0
 40
57.63491548817094
100
AcDbArc
 50
163.615527508994
 51
165.0579870066755
  0
ARC
  5
ADE2
330
1F
100
AcDbEntity
  8
freecads.com
100
AcDbCircle
 10
10200.13021113495
 20
29524.23630190114
 30
0.0
 40
0.1639689732832344
100
AcDbArc
 50
74.73451621878645
 51
163.6155575902408
  0
ARC
  5
ADE3
330
1F
100
AcDbEntity
  8
freecads.com
100
AcDbCircle
 10
10200.09543523909
 20
29524.10888289202
 30
0.0
 40
0.2960483691717827
100
AcDbArc
 50
16.68664885313052
 51
74.73442462541955
  0
ARC
  5
ADE4
330
1F
100
AcDbEntity
  8
freecads.com
100
AcDbCircle
 10
10095.10149940315
 20
29492.63576065895
 30
0.0
 40
109.9057376553769
100
AcDbArc
 50
15.78647113959074
 51
16.68669779756516
  0
ARC
  5
ADE5
330
1F
100
AcDbEntity
  8
freecads.com
100
AcDbCircle
 10
10183.69407791703
 20
29517.68235725074
 30
0.0
 40
17.84066844577439
100
AcDbArc
 50
12.07650011010069
 51
15.78642152747988
  0
ARC
  5
ADE6
330
1F
100
AcDbEntity
  8
freecads.com
100
AcDbCircle
 10
10170.61901200596
 20
29514.88493015456
 30
0.0
 40
31.21164249171691
100
AcDbArc
 50
9.635993624950723
 51
12.07647240081415
  0
ARC
  5
ADE7
330
1F
100
AcDbEntity
  8
freecads.com
100
AcDbCircle
 10
10171.58215644351
 20
29515.04843592045
 30
0.0
 40
30.23471806134908
100
AcDbArc
 50
7.179511884832284
 51
9.636031647820937
  0
ARC
  5
ADE8
330
1F
100
AcDbEntity
  8
freecads.com
100
AcDbCircle
 10
10188.78231677819
 20
29517.21507263126
 30
0.0
 40
12.89863343490603
100
AcDbArc
 50
2.53666998753904
 51
7.179513903570614
  0
ARC
  5
ADE9
330
1F
100
AcDbEntity
  8
freecads.com
100
AcDbCircle
 10
10151.91843443442
 20
29529.9492064013
 30
0.0
 40
79.26583582893947
100
AcDbArc
 50
347.4986220966856
 51
349.0930233264704
  0
ARC
  5
ADEA
330
1F
100
AcDbEntity
  8
freecads.com
100
AcDbCircle
 10
10229.21141395962
 20
29512.81181509981
 30
0.0
 40
0.0957981599796977
100
AcDbArc
 50
196.8605848249379
 51
347.4986791728048
  0
ARC
  5
ADEB
330
1F
100
AcDbEntity
  8
freecads.com
100
AcDbCircle
 10
10231.82203509487
 20
29513.60301314096
 30
0.0
 40
2.823679581906553
100
AcDbArc
 50
180.5990412093493
 51
196.8604289748412
  0
ARC
  5
ADEC
330
1F
100
AcDbEntity
  8
freecads.com
100
AcDbCircle
 10
10890.7155433256
 20
29520.49241861242
 30
0.0
 40
661.7532047182124
100
AcDbArc
 50
180.25597717029
 51
180.5990640417474
  0
ARC
  5
ADED
330
1F
100
AcDbEntity
  8
freecads.com
100
AcDbCircle
 10
10372.58233248129
 20
29518.17786414522
 30
0.0
 40
143.6148242233779
100
AcDbArc
 50
179.0506031319503
 51
180.2560952152633
  0
ARC
  5
ADEE
330
1F
100
AcDbEntity
  8
freecads.com
100
AcDbCircle
 10
10236.89085066781
 20
29520.42650353891
 30
0.0
 40
7.904711793021477
100
AcDbArc
 50
169.092995559765
 51
179.0506900720498
  0
ARC
  5
ADEF
330
1F
100
AcDbEntity
  8
freecads.com
100
AcDbCircle
 10
10229.28218350781
 20
29521.89266645208
 30
0.0
 40
0.1560699997994658
100
AcDbArc
 50
44.99575311095695
 51
169.0929529550236
  0
ARC
  5
ADF0
330
1F
100
AcDbEntity
  8
freecads.com
100
AcDbCircle
 10
10228.45632133753
 20
29521.06692505357
 30
0.0
 40
1.323930086241525
100
AcDbArc
 50
16.86047247755383
 51
44.99580356437096
  0
ARC
  5
ADF1
330
1F
100
AcDbEntity
  8
freecads.com
100
AcDbCircle
 10
10223.57597943834
 20
29519.58785189517
 30
0.0
 40
6.423478542803394
100
AcDbArc
 50
5.326857200125719
 51
16.86037701830063
  0
ARC
  5
ADF2
330
1F
100
AcDbEntity
  8
freecads.com
100
AcDbCircle
 10
10210.71592982564
 20
29518.38878858279
 30
0.0
 40
19.33930715998407
100
AcDbArc
 50
0.2560689652133252
 51
5.326834587106795
  0
ARC
  5
ADF3
330
1F
100
AcDbEntity
  8
freecads.com
100
AcDbCircle
 10
10208.81296394846
 20
29518.38031655569
 30
0.0
 40
21.24229189559568
100
AcDbArc
 50
355.2988351561681
 51
0.2559803527962081
  0
ARC
  5
ADF4
330
1F
100
AcDbEntity
  8
freecads.com
100
AcDbCircle
 10
10214.29521279035
 20
29517.92946101539
 30
0.0
 40
15.74153530381385
100
AcDbArc
 50
349.0930017624702
 51
355.2989092662948
  0
ARC
  5
ADF5
330
1F
100
AcDbEntity
  8
freecads.com
100
AcDbCircle
 10
10188.61748753478
 20
29518.51791088428
 30
0.0
 40
1.790722301482694
100
AcDbArc
 50
274.7706703919195
 51
315.0000192448499
  0
ARC
  5
ADF6
330
1F
100
AcDbEntity
  8
freecads.com
100
AcDbCircle
 10
10188.67167776758
 20
29517.86856938424
 30
0.0
 40
1.139123525391763
100
AcDbArc
 50
218.454118832685
 51
274.7707591197155
  0
ARC
  5
ADF7
330
1F
100
AcDbEntity
  8
freecads.com
100
AcDbCircle
 10
10189.69599526861
 20
29518.68201339984
 30
0.0
 40
2.447143979905319
100
AcDbArc
 50
183.7467878181382
 51
218.4541824690448
  0
ARC
  5
ADF8
330
1F
100
AcDbEntity
  8
freecads.com
100
AcDbCircle
 10
10192.96477560388
 20
29518.89607160417
 30
0.0
 40
5.722925687393225
100
AcDbArc
 50
165.3449372679972
 51
183.7467385330589
  0
LINE
  5
ADF9
330
1F
100
AcDbEntity
  8
freecads.com
100
AcDbLine
 10
10187.42803684269
 20
29520.34396742699
 30
0.0
 11
10188.02257684269
 21
29522.61749042699
 31
0.0
  0
LINE
  5
ADFA
330
1F
100
AcDbEntity
  8
freecads.com
100
AcDbLine
 10
10188.02257684269
 20
29522.61749042699
 30
0.0
 11
10189.51101284269
 21
29520.49244942699
 31
0.0
  0
ARC
  5
ADFB
330
1F
100
AcDbEntity
  8
freecads.com
100
AcDbCircle
 10
10181.58745828428
 20
29514.94255778423
 30
0.0
 40
9.673883092455213
100
AcDbArc
 50
27.59361073533431
 51
35.00853404648007
  0
ARC
  5
ADFC
330
1F
100
AcDbEntity
  8
freecads.com
100
AcDbCircle
 10
10188.05317873234
 20
29518.32183438213
 30
0.0
 40
2.378332994102663
100
AcDbArc
 50
6.560501478397288
 51
27.59366078813994
  0
ARC
  5
ADFD
330
1F
100
AcDbEntity
  8
freecads.com
100
AcDbCircle
 10
10189.03409422385
 20
29518.43464445648
 30
0.0
 40
1.39095195601537
100
AcDbArc
 50
337.2290648047339
 51
6.560521908690633
  0
ARC
  5
ADFE
330
1F
100
AcDbEntity
  8
freecads.com
100
AcDbCircle
 10
10188.45960498832
 20
29518.67579199415
 30
0.0
 40
2.014000924126567
100
AcDbArc
 50
315.0000460101972
 51
337.2291343855477
  0
ARC
  5
ADFF
330
1F
100
AcDbEntity
  8
freecads.com
100
AcDbCircle
 10
10318.06175027026
 20
29510.62695197331
 30
0.0
 40
27.0647299654355
100
AcDbArc
 50
15.69315772529635
 51
19.21863270907295
  0
ARC
  5
AE00
330
1F
100
AcDbEntity
  8
freecads.com
100
AcDbCircle
 10
10342.15037590568
 20
29517.39485671238
 30
0.0
 40
2.04341066447513
100
AcDbArc
 50
352.3645775085854
 51
15.69312282928276
  0
ARC
  5
AE01
330
1F
100
AcDbEntity
  8
freecads.com
100
AcDbCircle
 10
10343.61602290102
 20
29517.19837576023
 30
0.0
 40
0.5646524423528339
100
AcDbArc
 50
297.4675687481499
 51
352.3645334752361
  0
ARC
  5
AE02
330
1F
100
AcDbEntity
  8
freecads.com
100
AcDbCircle
 10
10343.21596917332
 20
29517.96793184829
 30
0.0
 40
1.43198142130342
100
AcDbArc
 50
270.0000667941349
 51
297.46762756082
  0
ARC
  5
AE03
330
1F
100
AcDbEntity
  8
freecads.com
100
AcDbCircle
 10
10343.21597152874
 20
29517.55982568267
 30
0.0
 40
1.023875255677128
100
AcDbArc
 50
232.9859725855669
 51
269.9999616089507
  0
ARC
  5
AE04
330
1F
100
AcDbEntity
  8
freecads.com
100
AcDbCircle
 10
10343.52894969423
 20
29517.97495186169
 30
0.0
 40
1.543764740651856
100
AcDbArc
 50
205.764718294609
 51
232.986008806445
  0
ARC
  5
AE05
330
1F
100
AcDbEntity
  8
freecads.com
100
AcDbCircle
 10
10344.95677347682
 20
29518.66410527257
 30
0.0
 40
3.129202591166364
100
AcDbArc
 50
187.8188755425178
 51
205.7647315052494
  0
ARC
  5
AE06
330
1F
100
AcDbEntity
  8
freecads.com
100
AcDbCircle
 10
10351.30598788483
 20
29519.53595544089
 30
0.0
 40
9.537997042139025
100
AcDbArc
 50
180.0000301190748
 51
187.8187859647919
  0
ARC
  5
AE07
330
1F
100
AcDbEntity
  8
freecads.com
100
AcDbCircle
 10
10364.61942760688
 20
29519.53595675436
 30
0.0
 40
22.85143676419099
100
AcDbArc
 50
177.1149819947035
 51
180.0000158646401
  0
ARC
  5
AE08
330
1F
100
AcDbEntity
  8
freecads.com
100
AcDbCircle
 10
10353.51697627484
 20
29520.09547326691
 30
0.0
 40
11.73489574154714
100
AcDbArc
 50
172.3644727486777
 51
177.1149874972235
  0
ARC
  5
AE09
330
1F
100
AcDbEntity
  8
freecads.com
100
AcDbCircle
 10
10353.70652151594
 20
29520.07006842433
 30
0.0
 40
11.92613591625311
100
AcDbArc
 50
168.7061305185924
 51
172.3644990587447
  0
ARC
  5
AE0A
330
1F
100
AcDbEntity
  8
freecads.com
100
AcDbCircle
 10
10342.17016563913
 20
29522.37397607865
 30
0.0
 40
0.1619743483397771
100
AcDbArc
 50
89.99992799578224
 51
168.7060964591053
  0
ARC
  5
AE0B
330
1F
100
AcDbEntity
  8
freecads.com
100
AcDbCircle
 10
10342.17016575113
 20
29522.30711285583
 30
0.0
 40
0.2288375711649065
100
AcDbArc
 50
28.48282728420232
 51
89.99997707651109
  0
ARC
  5
AE0C
330
1F
100
AcDbEntity
  8
freecads.com
100
AcDbCircle
 10
10326.51718495783
 20
29513.8142617543
 30
0.0
 40
18.03738404604632
100
AcDbArc
 50
25.76475214992165
 51
28.48296564881423
  0
ARC
  5
AE0D
330
1F
100
AcDbEntity
  8
freecads.com
100
AcDbCircle
 10
10329.03793609833
 20
29515.03093063808
 30
0.0
 40
15.23837181222749
100
AcDbArc
 50
21.78285770899511
 51
25.76474285652737
  0
ARC
  5
AE0E
330
1F
100
AcDbEntity
  8
freecads.com
100
AcDbCircle
 10
10317.71626748332
 20
29510.50651922828
 30
0.0
 40
27.43060207716457
100
AcDbArc
 50
19.21862663201881
 51
21.78284953542245
  0
ARC
  5
AE0F
330
1F
100
AcDbEntity
  8
freecads.com
100
AcDbCircle
 10
10303.11092158293
 20
29518.82084338087
 30
0.0
 40
1.360215923772127
100
AcDbArc
 50
14.15885788768046
 51
31.71743557912061
  0
ARC
  5
AE10
330
1F
100
AcDbEntity
  8
freecads.com
100
AcDbCircle
 10
10303.90768420191
 20
29519.02184470143
 30
0.0
 40
0.5384907861178105
100
AcDbArc
 50
339.0949716194399
 51
14.15906083710294
  0
ARC
  5
AE11
330
1F
100
AcDbEntity
  8
freecads.com
100
AcDbCircle
 10
10304.03622096564
 20
29518.97274938256
 30
0.0
 40
0.4008970000492135
100
AcDbArc
 50
296.887045270467
 51
339.0948348673835
  0
ARC
  5
AE12
330
1F
100
AcDbEntity
  8
freecads.com
100
AcDbCircle
 10
10303.88602557534
 20
29519.26896869075
 30
0.0
 40
0.7330182637585847
100
AcDbArc
 50
269.9999427327575
 51
296.8869729639028
  0
ARC
  5
AE13
330
1F
100
AcDbEntity
  8
freecads.com
100
AcDbCircle
 10
10303.88602519164
 20
29519.8195902169
 30
0.0
 40
1.283639789911935
100
AcDbArc
 50
250.5126621100337
 51
269.9999844244673
  0
ARC
  5
AE14
330
1F
100
AcDbEntity
  8
freecads.com
100
AcDbCircle
 10
10304.25578391626
 20
29520.86446874467
 30
0.0
 40
2.392013667364142
100
AcDbArc
 50
238.2825236730388
 51
250.512488653849
  0
ARC
  5
AE15
330
1F
100
AcDbEntity
  8
freecads.com
100
AcDbCircle
 10
10304.34726802225
 20
29521.01249309288
 30
0.0
 40
2.566026739601399
100
AcDbArc
 50
226.4266960065566
 51
238.2825232779594
  0
ARC
  5
AE16
330
1F
100
AcDbEntity
  8
freecads.com
100
AcDbCircle
 10
10303.9051131898
 20
29520.54774888132
 30
0.0
 40
1.924553374583544
100
AcDbArc
 50
211.7175048030151
 51
226.4266448203709
  0
ARC
  5
AE17
330
1F
100
AcDbEntity
  8
freecads.com
100
AcDbCircle
 10
10303.42506010244
 20
29520.25105747311
 30
0.0
 40
1.360215923772127
100
AcDbArc
 50
194.1588578876804
 51
211.7174355791206
  0
ARC
  5
AE18
330
1F
100
AcDbEntity
  8
freecads.com
100
AcDbCircle
 10
10302.62829748347
 20
29520.05005615255
 30
0.0
 40
0.5384907861178105
100
AcDbArc
 50
159.0949716194399
 51
194.1590608371029
  0
ARC
  5
AE19
330
1F
100
AcDbEntity
  8
freecads.com
100
AcDbCircle
 10
10302.49976071974
 20
29520.09915147142
 30
0.0
 40
0.4008970000492135
100
AcDbArc
 50
116.887045270467
 51
159.0948348673835
  0
ARC
  5
AE1A
330
1F
100
AcDbEntity
  8
freecads.com
100
AcDbCircle
 10
10302.64995611003
 20
29519.80293216323
 30
0.0
 40
0.7330182637585847
100
AcDbArc
 50
89.99994273275749
 51
116.8869729639027
  0
ARC
  5
AE1B
330
1F
100
AcDbEntity
  8
freecads.com
100
AcDbCircle
 10
10302.64995649374
 20
29519.25231063708
 30
0.0
 40
1.283639789911935
100
AcDbArc
 50
70.51266211003367
 51
89.99998442446729
  0
ARC
  5
AE1C
330
1F
100
AcDbEntity
  8
freecads.com
100
AcDbCircle
 10
10302.28019776911
 20
29518.2074321093
 30
0.0
 40
2.392013667364142
100
AcDbArc
 50
58.28252367303882
 51
70.51248865384912
  0
ARC
  5
AE1D
330
1F
100
AcDbEntity
  8
freecads.com
100
AcDbCircle
 10
10302.18871366313
 20
29518.0594077611
 30
0.0
 40
2.566026739601399
100
AcDbArc
 50
46.42669600655664
 51
58.28252327795944
  0
ARC
  5
AE1E
330
1F
100
AcDbEntity
  8
freecads.com
100
AcDbCircle
 10
10302.63086849557
 20
29518.52415197265
 30
0.0
 40
1.924553374583544
100
AcDbArc
 50
31.71750480301509
 51
46.42664482037094
  0
ARC
  5
AE1F
330
1F
100
AcDbEntity
  8
freecads.com
100
AcDbCircle
 10
10090.80617109941
 20
29479.32027210937
 30
0.0
 40
78.04194979181858
100
AcDbArc
 50
18.55232215339805
 51
20.94719856407802
  0
ARC
  5
AE20
330
1F
100
AcDbEntity
  8
freecads.com
100
AcDbCircle
 10
10163.87566238882
 20
29503.84320064984
 30
0.0
 40
0.9671511771335358
100
AcDbArc
 50
323.4348491969362
 51
18.55237071598235
  0
ARC
  5
AE21
330
1F
100
AcDbEntity
  8
freecads.com
100
AcDbCircle
 10
10164.3883306463
 20
29503.46294305488
 30
0.0
 40
0.3288529860388678
100
AcDbArc
 50
210.9520055616276
 51
323.4348681418288
  0
ARC
  5
AE22
330
1F
100
AcDbEntity
  8
freecads.com
100
AcDbCircle
 10
10210.04280601455
 20
29530.84299019685
 30
0.0
 40
53.56416178242398
100
AcDbArc
 50
207.8200416707
 51
210.9520923462262
  0
ARC
  5
AE23
330
1F
100
AcDbEntity
  8
freecads.com
100
AcDbCircle
 10
10175.04590626482
 20
29512.37559125471
 30
0.0
 40
13.99361950942189
100
AcDbArc
 50
199.6259587836336
 51
207.8201163315096
  0
ARC
  5
AE24
330
1F
100
AcDbEntity
  8
freecads.com
100
AcDbCircle
 10
10193.66683962276
 20
29519.01575700251
 30
0.0
 40
33.76306462754556
100
AcDbArc
 50
195.3824977426135
 51
199.6260257087461
  0
ARC
  5
AE25
330
1F
100
AcDbEntity
  8
freecads.com
100
AcDbCircle
 10
10195.19464060059
 20
29519.43612172398
 30
0.0
 40
35.34764101430349
100
AcDbArc
 50
191.1857702442857
 51
195.3825607055147
  0
ARC
  5
AE26
330
1F
100
AcDbEntity
  8
freecads.com
100
AcDbCircle
 10
10181.77887204454
 20
29516.78319247975
 30
0.0
 40
21.67208327340912
100
AcDbArc
 50
185.1314789250036
 51
191.1857757293702
  0
LINE
  5
AE27
330
1F
100
AcDbEntity
  8
freecads.com
100
AcDbLine
 10
10160.19364884269
 20
29514.84480842699
 30
0.0
 11
10159.72747884269
 21
29520.03595042699
 31
0.0
  0
LINE
  5
AE28
330
1F
100
AcDbEntity
  8
freecads.com
100
AcDbLine
 10
10159.72747884269
 20
29520.03595042699
 30
0.0
 11
10161.17009484269
 21
29515.03595042699
 31
0.0
  0
ARC
  5
AE29
330
1F
100
AcDbEntity
  8
freecads.com
100
AcDbCircle
 10
10287.05497736244
 20
29551.35653130419
 30
0.0
 40
131.0198009549316
100
AcDbArc
 50
196.0940239569382
 51
197.0616293321364
  0
ARC
  5
AE2A
330
1F
100
AcDbEntity
  8
freecads.com
100
AcDbCircle
 10
10319.99112296456
 20
29561.46464398249
 30
0.0
 40
165.4721394677698
100
AcDbArc
 50
197.0615535247123
 51
197.8737750946233
  0
ARC
  5
AE2B
330
1F
100
AcDbEntity
  8
freecads.com
100
AcDbCircle
 10
10305.10032922463
 20
29556.66237296711
 30
0.0
 40
149.8261321473747
100
AcDbArc
 50
197.8737018344457
 51
198.693257171136
  0
ARC
  5
AE2C
330
1F
100
AcDbEntity
  8
freecads.com
100
AcDbCircle
 10
10199.57751570114
 20
29520.95871413269
 30
0.0
 40
38.42678103581205
100
AcDbArc
 50
198.69326050158
 51
200.9472037970038
  0
ARC
  5
AE2D
330
1F
100
AcDbEntity
  8
freecads.com
100
AcDbCircle
 10
10310.44397983641
 20
29518.81266982386
 30
0.0
 40
1.308970739862817
100
AcDbArc
 50
341.6666890454384
 51
358.8303672807445
  0
ARC
  5
AE2E
330
1F
100
AcDbEntity
  8
freecads.com
100
AcDbCircle
 10
10304.59313401689
 20
29520.75142197908
 30
0.0
 40
7.47266741662255
100
AcDbArc
 50
336.9377408305936
 51
341.6667215788822
  0
ARC
  5
AE2F
330
1F
100
AcDbEntity
  8
freecads.com
100
AcDbCircle
 10
10303.4514965384
 20
29521.23748596884
 30
0.0
 40
8.713471323141018
100
AcDbArc
 50
332.2705959681394
 51
336.9377232739168
  0
ARC
  5
AE30
330
1F
100
AcDbEntity
  8
freecads.com
100
AcDbCircle
 10
10303.25702107794
 20
29521.3396984594
 30
0.0
 40
8.933171340746266
100
AcDbArc
 50
327.6899306650101
 51
332.2706911024736
  0
ARC
  5
AE31
330
1F
100
AcDbEntity
  8
freecads.com
100
AcDbCircle
 10
10308.62145439273
 20
29517.94712693501
 30
0.0
 40
2.585991940656402
100
AcDbArc
 50
301.7841514050636
 51
327.6898909716804
  0
ARC
  5
AE32
330
1F
100
AcDbEntity
  8
freecads.com
100
AcDbCircle
 10
10309.64211518214
 20
29516.29995264034
 30
0.0
 40
0.6482273512242518
100
AcDbArc
 50
229.8713618459921
 51
301.7841415459449
  0
ARC
  5
AE33
330
1F
100
AcDbEntity
  8
freecads.com
100
AcDbCircle
 10
10309.91560262364
 20
29516.62440142401
 30
0.0
 40
1.072564945461504
100
AcDbArc
 50
178.1498177880261
 51
229.8714060777069
  0
ARC
  5
AE34
330
1F
100
AcDbEntity
  8
freecads.com
100
AcDbCircle
 10
10312.93311982093
 20
29516.52692588076
 30
0.0
 40
4.091656119554259
100
AcDbArc
 50
159.0063275957097
 51
178.1498082070512
  0
ARC
  5
AE35
330
1F
100
AcDbEntity
  8
freecads.com
100
AcDbCircle
 10
10311.61139088276
 20
29517.03412706443
 30
0.0
 40
2.675951197373609
100
AcDbArc
 50
134.5341737759242
 51
159.0064165531105
  0
ARC
  5
AE36
330
1F
100
AcDbEntity
  8
freecads.com
100
AcDbCircle
 10
10311.3170420151
 20
29517.3332938325
 30
0.0
 40
2.256258439550952
100
AcDbArc
 50
106.724063473817
 51
134.5340371763209
  0
ARC
  5
AE37
330
1F
100
AcDbEntity
  8
freecads.com
100
AcDbCircle
 10
10310.93437885482
 20
29518.60683094527
 30
0.0
 40
0.9264735427204197
100
AcDbArc
 50
58.37451741656838
 51
106.7240261243894
  0
ARC
  5
AE38
330
1F
100
AcDbEntity
  8
freecads.com
100
AcDbCircle
 10
10311.05347574574
 20
29518.80022695998
 30
0.0
 40
0.699347833180828
100
AcDbArc
 50
358.8302789084307
 51
58.37453613696602
  0
ARC
  5
AE39
330
1F
100
AcDbEntity
  8
freecads.com
100
AcDbCircle
 10
10306.95272947021
 20
29452.97634988271
 30
0.0
 40
67.46419720951566
100
AcDbArc
 50
71.46220564532399
 51
75.08758014928547
  0
ARC
  5
AE3A
330
1F
100
AcDbEntity
  8
freecads.com
100
AcDbCircle
 10
10321.55286832131
 20
29496.51613105162
 30
0.0
 40
21.54169075889643
100
AcDbArc
 50
62.97299463835611
 51
71.46217799725967
  0
ARC
  5
AE3B
330
1F
100
AcDbEntity
  8
freecads.com
100
AcDbCircle
 10
10326.35503627848
 20
29505.92990986283
 30
0.0
 40
10.97381260882496
100
AcDbArc
 50
51.29759943717053
 51
62.97307738898073
  0
ARC
  5
AE3C
330
1F
100
AcDbEntity
  8
freecads.com
100
AcDbCircle
 10
10332.29677678306
 20
29513.34577791474
 30
0.0
 40
1.471214059630118
100
AcDbArc
 50
0.0000588939147656
 51
51.29759107249873
  0
ARC
  5
AE3D
330
1F
100
AcDbEntity
  8
freecads.com
100
AcDbCircle
 10
10333.32072887016
 20
29513.34577913643
 30
0.0
 40
0.4472619725289439
100
AcDbArc
 50
312.6581692414317
 51
0.0000372219046221
  0
ARC
  5
AE3E
330
1F
100
AcDbEntity
  8
freecads.com
100
AcDbCircle
 10
10333.37183487858
 20
29513.29031418943
 30
0.0
 40
0.3718419192186979
100
AcDbArc
 50
258.3553492863558
 51
312.6582425324384
  0
ARC
  5
AE3F
330
1F
100
AcDbEntity
  8
freecads.com
100
AcDbCircle
 10
10333.60862144162
 20
29514.43928562079
 30
0.0
 40
1.544958804490182
100
AcDbArc
 50
236.237846027674
 51
258.3552284793947
  0
ARC
  5
AE40
330
1F
100
AcDbEntity
  8
freecads.com
100
AcDbCircle
 10
10337.26448914184
 20
29519.9081740185
 30
0.0
 40
8.123264737491529
100
AcDbArc
 50
229.7697536416091
 51
236.2378752094608
  0
ARC
  5
AE41
330
1F
100
AcDbEntity
  8
freecads.com
100
AcDbCircle
 10
10327.20971458703
 20
29508.02268818172
 30
0.0
 40
7.444755847175812
100
AcDbArc
 50
49.76975107787804
 51
67.27865871051815
  0
ARC
  5
AE42
330
1F
100
AcDbEntity
  8
freecads.com
100
AcDbCircle
 10
10327.92482335947
 20
29509.73039888898
 30
0.0
 40
5.593362745753767
100
AcDbArc
 50
67.27875706020782
 51
88.97260611882897
  0
ARC
  5
AE43
330
1F
100
AcDbEntity
  8
freecads.com
100
AcDbCircle
 10
10327.99146283498
 20
29513.44632001195
 30
0.0
 40
1.8768441312684
100
AcDbArc
 50
88.97262574554462
 51
131.1728843863068
  0
ARC
  5
AE44
330
1F
100
AcDbEntity
  8
freecads.com
100
AcDbCircle
 10
10327.38019802574
 20
29514.14522814223
 30
0.0
 40
0.9483414432880678
100
AcDbArc
 50
131.1728386574263
 51
200.9935633556811
  0
ARC
  5
AE45
330
1F
100
AcDbEntity
  8
freecads.com
100
AcDbCircle
 10
10319.85078970585
 20
29511.2559193229
 30
0.0
 40
7.11640251427253
100
AcDbArc
 50
14.91048650953004
 51
20.99364014352156
  0
ARC
  5
AE46
330
1F
100
AcDbEntity
  8
freecads.com
100
AcDbCircle
 10
10326.38545729053
 20
29512.99594088613
 30
0.0
 40
0.3540393561160347
100
AcDbArc
 50
321.0690458259545
 51
14.91045215525611
  0
ARC
  5
AE47
330
1F
100
AcDbEntity
  8
freecads.com
100
AcDbCircle
 10
10326.48480699159
 20
29512.91568719292
 30
0.0
 40
0.2263247587723768
100
AcDbArc
 50
247.6206750363358
 51
321.0690323415744
  0
ARC
  5
AE48
330
1F
100
AcDbEntity
  8
freecads.com
100
AcDbCircle
 10
10327.8704193197
 20
29516.28084627162
 30
0.0
 40
3.865585281009985
100
AcDbArc
 50
238.2825425209706
 51
247.6204799289162
  0
ARC
  5
AE49
330
1F
100
AcDbEntity
  8
freecads.com
100
AcDbCircle
 10
10323.56551033096
 20
29509.3153538585
 30
0.0
 40
4.322841060993551
100
AcDbArc
 50
58.28253379653171
 51
67.14795425668508
  0
ARC
  5
AE4A
330
1F
100
AcDbEntity
  8
freecads.com
100
AcDbCircle
 10
10325.19157517289
 20
29513.17379489502
 30
0.0
 40
0.1357592487483591
100
AcDbArc
 50
67.14787051107652
 51
172.3797733707546
  0
ARC
  5
AE4B
330
1F
100
AcDbEntity
  8
freecads.com
100
AcDbCircle
 10
10325.75223128334
 20
29513.09878674566
 30
0.0
 40
0.7014106402058236
100
AcDbArc
 50
172.379838476715
 51
205.9948316865541
  0
ARC
  5
AE4C
330
1F
100
AcDbEntity
  8
freecads.com
100
AcDbCircle
 10
10353.74781408585
 20
29526.75008915448
 30
0.0
 40
31.84801099897954
100
AcDbArc
 50
205.9949452809621
 51
208.1549322124236
  0
ARC
  5
AE4D
330
1F
100
AcDbEntity
  8
freecads.com
100
AcDbCircle
 10
10309.80281292995
 20
29503.23146378009
 30
0.0
 40
17.99463004353712
100
AcDbArc
 50
21.6053098723437
 51
28.15495483893222
  0
ARC
  5
AE4E
330
1F
100
AcDbEntity
  8
freecads.com
100
AcDbCircle
 10
10324.04995875882
 20
29508.87383633053
 30
0.0
 40
2.670872923719639
100
AcDbArc
 50
354.819304529066
 51
21.60528817815772
  0
ARC
  5
AE4F
330
1F
100
AcDbEntity
  8
freecads.com
100
AcDbCircle
 10
10326.10198292671
 20
29508.68778574703
 30
0.0
 40
0.6104317075713486
100
AcDbArc
 50
285.1933208081884
 51
354.819196399712
  0
ARC
  5
AE50
330
1F
100
AcDbEntity
  8
freecads.com
100
AcDbCircle
 10
10325.87410039746
 20
29509.5269097337
 30
0.0
 40
1.479948534409524
100
AcDbArc
 50
249.0064096094821
 51
285.1934188974194
  0
ARC
  5
AE51
330
1F
100
AcDbEntity
  8
freecads.com
100
AcDbCircle
 10
10325.94343338553
 20
29509.70758869981
 30
0.0
 40
1.673473602627271
100
AcDbArc
 50
221.7740462094756
 51
249.0064089461803
  0
ARC
  5
AE52
330
1F
100
AcDbEntity
  8
freecads.com
100
AcDbCircle
 10
10332.82325800704
 20
29515.85324027785
 30
0.0
 40
10.89849501948353
100
AcDbArc
 50
214.9504684135287
 51
221.7739831002717
  0
ARC
  5
AE53
330
1F
100
AcDbEntity
  8
freecads.com
100
AcDbCircle
 10
10334.86172664462
 20
29517.27794447362
 30
0.0
 40
13.38548847173541
100
AcDbArc
 50
208.3679990641551
 51
214.9503903237131
  0
ARC
  5
AE54
330
1F
100
AcDbEntity
  8
freecads.com
100
AcDbCircle
 10
10336.95125950661
 20
29518.40621688807
 30
0.0
 40
15.76017712966411
100
AcDbArc
 50
202.5442515148322
 51
208.3679158824543
  0
ARC
  5
AE55
330
1F
100
AcDbEntity
  8
freecads.com
100
AcDbCircle
 10
10285.48308580286
 20
29497.04081721618
 30
0.0
 40
39.96641623058965
100
AcDbArc
 50
22.54424938819671
 51
25.03353852149597
  0
ARC
  5
AE56
330
1F
100
AcDbEntity
  8
freecads.com
100
AcDbCircle
 10
10319.38529672488
 20
29512.87384267263
 30
0.0
 40
2.549246368267048
100
AcDbArc
 50
25.03357470769076
 51
43.57950830127895
  0
ARC
  5
AE57
330
1F
100
AcDbEntity
  8
freecads.com
100
AcDbCircle
 10
10321.1060997702
 20
29514.51136871729
 30
0.0
 40
0.173819108232957
100
AcDbArc
 50
43.57936365595843
 51
152.0856143649123
  0
ARC
  5
AE58
330
1F
100
AcDbEntity
  8
freecads.com
100
AcDbCircle
 10
10322.08421664552
 20
29513.99317078986
 30
0.0
 40
1.280725479059023
100
AcDbArc
 50
152.0857238962903
 51
178.0858125166437
  0
ARC
  5
AE59
330
1F
100
AcDbEntity
  8
freecads.com
100
AcDbCircle
 10
10298.44421902425
 20
29514.78322425907
 30
0.0
 40
22.37247033076409
100
AcDbArc
 50
355.2961712871882
 51
358.085879593856
  0
ARC
  5
AE5A
330
1F
100
AcDbEntity
  8
freecads.com
100
AcDbCircle
 10
10320.4328602652
 20
29512.97394970159
 30
0.0
 40
0.3095190765136531
100
AcDbArc
 50
295.7585258504877
 51
355.2961472348517
  0
ARC
  5
AE5B
330
1F
100
AcDbEntity
  8
freecads.com
100
AcDbCircle
 10
10320.47673106522
 20
29512.88303118041
 30
0.0
 40
0.2085694624026894
100
AcDbArc
 50
216.8379955451126
 51
295.7584680869684
  0
ARC
  5
AE5C
330
1F
100
AcDbEntity
  8
freecads.com
100
AcDbCircle
 10
10331.27524621419
 20
29520.97250915111
 30
0.0
 40
13.70107046337378
100
AcDbArc
 50
212.8725475190957
 51
216.8379364421433
  0
ARC
  5
AE5D
330
1F
100
AcDbEntity
  8
freecads.com
100
AcDbCircle
 10
10301.53913902782
 20
29501.75554071825
 30
0.0
 40
21.70412613753865
100
AcDbArc
 50
32.8725968256389
 51
35.39419691675359
  0
ARC
  5
AE5E
330
1F
100
AcDbEntity
  8
freecads.com
100
AcDbCircle
 10
10318.95151166629
 20
29514.12721571258
 30
0.0
 40
0.3441387062167247
100
AcDbArc
 50
35.39420790988176
 51
84.48846843240335
  0
ARC
  5
AE5F
330
1F
100
AcDbEntity
  8
freecads.com
100
AcDbCircle
 10
10318.97041598832
 20
29514.32313043876
 30
0.0
 40
0.1473140295991567
100
AcDbArc
 50
84.48850041617387
 51
174.0565161281662
  0
ARC
  5
AE60
330
1F
100
AcDbEntity
  8
freecads.com
100
AcDbCircle
 10
10326.41830623021
 20
29513.54776169275
 30
0.0
 40
7.635455704779667
100
AcDbArc
 50
174.0565842708819
 51
179.3756567451441
  0
ARC
  5
AE61
330
1F
100
AcDbEntity
  8
freecads.com
100
AcDbCircle
 10
10317.40137814404
 20
29513.64602244239
 30
0.0
 40
1.382007757087177
100
AcDbArc
 50
335.4346155229768
 51
359.3756240540529
  0
ARC
  5
AE62
330
1F
100
AcDbEntity
  8
freecads.com
100
AcDbCircle
 10
10318.40061906736
 20
29513.18926434726
 30
0.0
 40
0.2833220056981576
100
AcDbArc
 50
258.637430287847
 51
335.4346006103635
  0
ARC
  5
AE63
330
1F
100
AcDbEntity
  8
freecads.com
100
AcDbCircle
 10
10318.60424120258
 20
29514.20253653142
 30
0.0
 40
1.31685115049223
100
AcDbArc
 50
231.4116461401043
 51
258.6374559427219
  0
ARC
  5
AE64
330
1F
100
AcDbEntity
  8
freecads.com
100
AcDbCircle
 10
10331.17001063608
 20
29529.95001142938
 30
0.0
 40
21.46335276039057
100
AcDbArc
 50
227.8553113667205
 51
231.4117186866286
  0
ARC
  5
AE65
330
1F
100
AcDbEntity
  8
freecads.com
100
AcDbCircle
 10
10320.99561566414
 20
29518.70743457796
 30
0.0
 40
6.300442508563473
100
AcDbArc
 50
217.5827002936407
 51
227.8553655587487
  0
ARC
  5
AE66
330
1F
100
AcDbEntity
  8
freecads.com
100
AcDbCircle
 10
10322.05230448908
 20
29519.52069290793
 30
0.0
 40
7.633851817063461
100
AcDbArc
 50
208.6873407876653
 51
217.5827391817677
  0
ARC
  5
AE67
330
1F
100
AcDbEntity
  8
freecads.com
100
AcDbCircle
 10
10321.24928043145
 20
29519.08128660024
 30
0.0
 40
6.718469088182058
100
AcDbArc
 50
199.3618032371078
 51
208.6873852633839
  0
ARC
  5
AE68
330
1F
100
AcDbEntity
  8
freecads.com
100
AcDbCircle
 10
10317.29273721486
 20
29517.69093556757
 30
0.0
 40
2.524746372167808
100
AcDbArc
 50
179.9999351092425
 51
199.3618824994861
  0
ARC
  5
AE69
330
1F
100
AcDbEntity
  8
freecads.com
100
AcDbCircle
 10
10316.32156194453
 20
29517.69093831948
 30
0.0
 40
1.553571101843321
100
AcDbArc
 50
127.6172346623832
 51
179.9999960350385
  0
ARC
  5
AE6A
330
1F
100
AcDbEntity
  8
freecads.com
100
AcDbCircle
 10
10317.01771401547
 20
29516.78752856054
 30
0.0
 40
2.69408716854907
100
AcDbArc
 50
92.86325441785463
 51
127.6172327806704
  0
ARC
  5
AE6B
330
1F
100
AcDbEntity
  8
freecads.com
100
AcDbCircle
 10
10317.43618593415
 20
29508.4200790875
 30
0.0
 40
11.07199439115272
100
AcDbArc
 50
78.35370726633259
 51
92.86312582504175
  0
ARC
  5
AE6C
330
1F
100
AcDbEntity
  8
freecads.com
100
AcDbCircle
 10
10302.77554782039
 20
29437.29094358859
 30
0.0
 40
83.69628940820485
100
AcDbArc
 50
75.08759554755862
 51
78.35369222202938
  0
ARC
  5
AE6D
330
1F
100
AcDbEntity
  8
freecads.com
100
AcDbCircle
 10
10284.1975474276
 20
29513.87438160245
 30
0.0
 40
1.258380870202933
100
AcDbArc
 50
12.83158577887024
 51
31.71741286660387
  0
ARC
  5
AE6E
330
1F
100
AcDbEntity
  8
freecads.com
100
AcDbCircle
 10
10284.91928326908
 20
29514.03877346216
 30
0.0
 40
0.5181597489057057
100
AcDbArc
 50
336.203371057246
 51
12.83168988674248
  0
ARC
  5
AE6F
330
1F
100
AcDbEntity
  8
freecads.com
100
AcDbCircle
 10
10285.00201881202
 20
29514.00228839475
 30
0.0
 40
0.4277366865358817
100
AcDbArc
 50
294.8764573835811
 51
336.2033906280017
  0
ARC
  5
AE70
330
1F
100
AcDbEntity
  8
freecads.com
100
AcDbCircle
 10
10284.82700687239
 20
29514.37972560893
 30
0.0
 40
0.843775181945451
100
AcDbArc
 50
270.00006588773
 51
294.8764503506202
  0
ARC
  5
AE71
330
1F
100
AcDbEntity
  8
freecads.com
100
AcDbCircle
 10
10284.8270079705
 20
29514.64742080709
 30
0.0
 40
1.111470380104897
100
AcDbArc
 50
248.6716608234218
 51
269.999993411498
  0
ARC
  5
AE72
330
1F
100
AcDbEntity
  8
freecads.com
100
AcDbCircle
 10
10284.80993724919
 20
29514.60369367696
 30
0.0
 40
1.064529231527693
100
AcDbArc
 50
226.6417898499105
 51
248.6715257187857
  0
ARC
  5
AE73
330
1F
100
AcDbEntity
  8
freecads.com
100
AcDbCircle
 10
10284.7745686613
 20
29514.56623521725
 30
0.0
 40
1.013011533503929
100
AcDbArc
 50
203.9883535375201
 51
226.6416911957523
  0
ARC
  5
AE74
330
1F
100
AcDbEntity
  8
freecads.com
100
AcDbCircle
 10
10284.70650928072
 20
29514.53595086502
 30
0.0
 40
0.9385184380311121
100
AcDbArc
 50
180.0000267414996
 51
203.9884127200426
  0
ARC
  5
AE75
330
1F
100
AcDbEntity
  8
freecads.com
100
AcDbCircle
 10
10286.04996523209
 20
29514.53594864114
 30
0.0
 40
2.281974389398572
100
AcDbArc
 50
170.3417122088121
 51
179.9999551608336
  0
ARC
  5
AE76
330
1F
100
AcDbEntity
  8
freecads.com
100
AcDbCircle
 10
10285.15285185059
 20
29514.68862388439
 30
0.0
 40
1.371962219616418
100
AcDbArc
 50
156.2033026224696
 51
170.3417515763928
  0
ARC
  5
AE77
330
1F
100
AcDbEntity
  8
freecads.com
100
AcDbCircle
 10
10284.64014961898
 20
29514.91471659472
 30
0.0
 40
0.8116217053146389
100
AcDbArc
 50
137.6482218257023
 51
156.2032628147569
  0
ARC
  5
AE78
330
1F
100
AcDbEntity
  8
freecads.com
100
AcDbCircle
 10
10284.2089738573
 20
29515.30776945271
 30
0.0
 40
0.2281809742732767
100
AcDbArc
 50
90.00000366887132
 51
137.6482663977338
  0
ARC
  5
AE79
330
1F
100
AcDbEntity
  8
freecads.com
100
AcDbCircle
 10
10284.20897388961
 20
29515.1644066952
 30
0.0
 40
0.3715437317863491
100
AcDbArc
 50
55.44716576637498
 51
90.00000723571082
  0
ARC
  5
AE7A
330
1F
100
AcDbEntity
  8
freecads.com
100
AcDbCircle
 10
10283.07878512797
 20
29513.52322014528
 30
0.0
 40
2.364235360861314
100
AcDbArc
 50
46.64187432707725
 51
55.4471091646396
  0
ARC
  5
AE7B
330
1F
100
AcDbEntity
  8
freecads.com
100
AcDbCircle
 10
10282.58418438584
 20
29512.99944111045
 30
0.0
 40
3.084634119457181
100
AcDbArc
 50
38.47753738446755
 51
46.64171016657769
  0
ARC
  5
AE7C
330
1F
100
AcDbEntity
  8
freecads.com
100
AcDbCircle
 10
10281.89301953326
 20
29512.45009773362
 30
0.0
 40
3.967519728734752
100
AcDbArc
 50
31.71754459356872
 51
38.47763129351174
  0
ARC
  5
AE7D
330
1F
100
AcDbEntity
  8
freecads.com
100
AcDbCircle
 10
10215.23482330284
 20
29451.52386238401
 30
0.0
 40
104.3321967737182
100
AcDbArc
 50
32.67820635036809
 51
34.7252155246753
  0
ARC
  5
AE7E
330
1F
100
AcDbEntity
  8
freecads.com
100
AcDbCircle
 10
10299.99249520225
 20
29505.89180262219
 30
0.0
 40
3.635941274559252
100
AcDbArc
 50
9.447908446305833
 51
32.67823784474508
  0
ARC
  5
AE7F
330
1F
100
AcDbEntity
  8
freecads.com
100
AcDbCircle
 10
10302.95005637133
 20
29506.383964012
 30
0.0
 40
0.6377099788693146
100
AcDbArc
 50
292.3739672752354
 51
9.447980215308712
  0
ARC
  5
AE80
330
1F
100
AcDbEntity
  8
freecads.com
100
AcDbCircle
 10
10301.88667757631
 20
29508.9672455706
 30
0.0
 40
3.431295143615072
100
AcDbArc
 50
270.0000378439963
 51
292.3739648651721
  0
ARC
  5
AE81
330
1F
100
AcDbEntity
  8
freecads.com
100
AcDbCircle
 10
10301.88667709386
 20
29508.49069118204
 30
0.0
 40
2.954740755048504
100
AcDbArc
 50
227.3554051265569
 51
270.0000533029063
  0
ARC
  5
AE82
330
1F
100
AcDbEntity
  8
freecads.com
100
AcDbCircle
 10
10315.2264892894
 20
29522.9750012254
 30
0.0
 40
22.64600345820269
100
AcDbArc
 50
217.8440677406007
 51
227.3554323326661
  0
ARC
  5
AE83
330
1F
100
AcDbEntity
  8
freecads.com
100
AcDbCircle
 10
10315.30663162963
 20
29523.037284975
 30
0.0
 40
22.74750252178782
100
AcDbArc
 50
208.4649862834579
 51
217.8441079039913
  0
ARC
  5
AE84
330
1F
100
AcDbEntity
  8
freecads.com
100
AcDbCircle
 10
10297.38630122988
 20
29513.32151661266
 30
0.0
 40
2.362841707667031
100
AcDbArc
 50
159.0063354982696
 51
208.465034236237
  0
ARC
  5
AE85
330
1F
100
AcDbEntity
  8
freecads.com
100
AcDbCircle
 10
10296.77974316423
 20
29513.5542755376
 30
0.0
 40
1.713157627404583
100
AcDbArc
 50
114.7354981774748
 51
159.0063370088627
  0
ARC
  5
AE86
330
1F
100
AcDbEntity
  8
freecads.com
100
AcDbCircle
 10
10296.61589424442
 20
29513.90992243629
 30
0.0
 40
1.321582366357936
100
AcDbArc
 50
61.03946153974657
 51
114.7353962833748
  0
ARC
  5
AE87
330
1F
100
AcDbEntity
  8
freecads.com
100
AcDbCircle
 10
10294.49738098169
 20
29510.08182361709
 30
0.0
 40
5.696789677314378
100
AcDbArc
 50
39.84101937379388
 51
61.03938442317878
  0
ARC
  5
AE88
330
1F
100
AcDbEntity
  8
freecads.com
100
AcDbCircle
 10
10268.86035534979
 20
29488.69082764911
 30
0.0
 40
39.08588657663649
100
AcDbArc
 50
34.72526362903683
 51
39.84092696060465
  0
ARC
  5
AE89
330
1F
100
AcDbEntity
  8
freecads.com
100
AcDbCircle
 10
10249.23637485451
 20
29509.37356143485
 30
0.0
 40
8.932408865351792
100
AcDbArc
 50
4.579198264365651
 51
10.82220605345139
  0
ARC
  5
AE8A
330
1F
100
AcDbEntity
  8
freecads.com
100
AcDbCircle
 10
10253.77567781226
 20
29509.73712072615
 30
0.0
 40
4.378570187879519
100
AcDbArc
 50
353.9372467509663
 51
4.579272599240963
  0
ARC
  5
AE8B
330
1F
100
AcDbEntity
  8
freecads.com
100
AcDbCircle
 10
10255.85098275332
 20
29509.51669676891
 30
0.0
 40
2.291592152703137
100
AcDbArc
 50
339.4358738051642
 51
353.9373030444853
  0
ARC
  5
AE8C
330
1F
100
AcDbEntity
  8
freecads.com
100
AcDbCircle
 10
10257.74281847521
 20
29508.80695438592
 30
0.0
 40
0.2710039589291791
100
AcDbArc
 50
269.9998662724917
 51
339.435799631304
  0
ARC
  5
AE8D
330
1F
100
AcDbEntity
  8
freecads.com
100
AcDbCircle
 10
10257.74281781097
 20
29508.90415361739
 30
0.0
 40
0.3682031904000964
100
AcDbArc
 50
210.7518912288755
 51
270.000004935462
  0
ARC
  5
AE8E
330
1F
100
AcDbEntity
  8
freecads.com
100
AcDbCircle
 10
10261.65054876782
 20
29511.22920285025
 30
0.0
 40
4.915313829729337
100
AcDbArc
 50
201.826705271656
 51
210.7520812952309
  0
ARC
  5
AE8F
330
1F
100
AcDbEntity
  8
freecads.com
100
AcDbCircle
 10
10263.64187173637
 20
29512.0267492189
 30
0.0
 40
7.060412283233748
100
AcDbArc
 50
193.7050854928635
 51
201.8266840053016
  0
ARC
  5
AE90
330
1F
100
AcDbEntity
  8
freecads.com
100
AcDbCircle
 10
10268.74411662355
 20
29513.27103300911
 30
0.0
 40
12.31218770106058
100
AcDbArc
 50
188.3496413450159
 51
193.7051341756237
  0
ARC
  5
AE91
330
1F
100
AcDbEntity
  8
freecads.com
100
AcDbCircle
 10
10274.81726253505
 20
29514.16237745208
 30
0.0
 40
18.45039559737313
100
AcDbArc
 50
181.7903595177964
 51
188.3496223043086
  0
ARC
  5
AE92
330
1F
100
AcDbEntity
  8
freecads.com
100
AcDbCircle
 10
10256.73226166387
 20
29513.59707988057
 30
0.0
 40
0.3565619003639564
100
AcDbArc
 50
73.36753620770126
 51
181.7904461130436
  0
ARC
  5
AE93
330
1F
100
AcDbEntity
  8
freecads.com
100
AcDbCircle
 10
10256.56456726099
 20
29513.03572888188
 30
0.0
 40
0.9424256699203853
100
AcDbArc
 50
16.21020360574128
 51
73.36741880453401
  0
ARC
  5
AE94
330
1F
100
AcDbEntity
  8
freecads.com
100
AcDbCircle
 10
10233.85132493402
 20
29506.43253249194
 30
0.0
 40
24.5960422975734
100
AcDbArc
 50
10.82219119351732
 51
16.21021015129862
  0
ARC
  5
AE95
330
1F
100
AcDbEntity
  8
freecads.com
100
AcDbCircle
 10
10111.24605136473
 20
29509.31030442026
 30
0.0
 40
61.5219394779755
100
AcDbArc
 50
357.7480837699229
 51
359.9999646165435
  0
ARC
  5
AE96
330
1F
100
AcDbEntity
  8
freecads.com
100
AcDbCircle
 10
10172.52934817488
 20
29506.90042454728
 30
0.0
 40
0.1912783946018603
100
AcDbArc
 50
232.6028442357583
 51
357.7480317635862
  0
ARC
  5
AE97
330
1F
100
AcDbEntity
  8
freecads.com
100
AcDbCircle
 10
10173.04488834442
 20
29507.57479637947
 30
0.0
 40
1.040135882323343
100
AcDbArc
 50
192.0333150895295
 51
232.602974860611
  0
ARC
  5
AE98
330
1F
100
AcDbEntity
  8
freecads.com
100
AcDbCircle
 10
10308.44086352591
 20
29536.43639096641
 30
0.0
 40
139.4780704864176
100
AcDbArc
 50
190.7854243288412
 51
192.0333140742079
  0
ARC
  5
AE99
330
1F
100
AcDbEntity
  8
freecads.com
100
AcDbCircle
 10
10189.7830670453
 20
29513.83247029929
 30
0.0
 40
18.68647353051832
100
AcDbArc
 50
186.5645232121884
 51
190.7853697858429
  0
ARC
  5
AE9A
330
1F
100
AcDbEntity
  8
freecads.com
100
AcDbCircle
 10
10174.86256559117
 20
29512.11546645059
 30
0.0
 40
3.667503330834609
100
AcDbArc
 50
172.4563698979632
 51
186.5644531055998
  0
ARC
  5
AE9B
330
1F
100
AcDbEntity
  8
freecads.com
100
AcDbCircle
 10
10171.8717900891
 20
29512.5115270051
 30
0.0
 40
0.6506171767654225
100
AcDbArc
 50
131.8867399174608
 51
172.4563996885307
  0
ARC
  5
AE9C
330
1F
100
AcDbEntity
  8
freecads.com
100
AcDbCircle
 10
10171.63077780662
 20
29512.78026456538
 30
0.0
 40
0.2896368495790253
100
AcDbArc
 50
58.28254116177672
 51
131.8867249939495
  0
ARC
  5
AE9D
330
1F
100
AcDbEntity
  8
freecads.com
100
AcDbCircle
 10
10171.27128699089
 20
29512.19859630325
 30
0.0
 40
0.9734289332939104
100
AcDbArc
 50
23.60178514772897
 51
58.28252724062433
  0
ARC
  5
AE9E
330
1F
100
AcDbEntity
  8
freecads.com
100
AcDbCircle
 10
10166.41537862848
 20
29510.07692032093
 30
0.0
 40
6.272613304325852
100
AcDbArc
 50
14.84370621518821
 51
23.60179861343791
  0
ARC
  5
AE9F
330
1F
100
AcDbEntity
  8
freecads.com
100
AcDbCircle
 10
10164.56971046571
 20
29509.58777373264
 30
0.0
 40
8.181999423434731
100
AcDbArc
 50
6.715425951030555
 51
14.84366242427067
  0
ARC
  5
AEA0
330
1F
100
AcDbEntity
  8
freecads.com
100
AcDbCircle
 10
10162.21289298714
 20
29509.31027140613
 30
0.0
 40
10.5550978555555
100
AcDbArc
 50
359.9999729718942
 51
6.715407579320757
  0
ARC
  5
AEA1
330
1F
100
AcDbEntity
  8
freecads.com
100
AcDbCircle
 10
10267.51237206616
 20
29503.03504811597
 30
0.0
 40
12.17585081707743
100
AcDbArc
 50
29.97991325129449
 51
39.53726397050257
  0
ARC
  5
AEA2
330
1F
100
AcDbEntity
  8
freecads.com
100
AcDbCircle
 10
10206.46499274189
 20
29467.81796213445
 30
0.0
 40
82.65297950000695
100
AcDbArc
 50
27.65578405034395
 51
29.97985038369091
  0
ARC
  5
AEA3
330
1F
100
AcDbEntity
  8
freecads.com
100
AcDbCircle
 10
10196.39920528984
 20
29462.54329397157
 30
0.0
 40
94.01705452851464
100
AcDbArc
 50
25.29592387946
 51
27.65573904606689
  0
ARC
  5
AEA4
330
1F
100
AcDbEntity
  8
freecads.com
100
AcDbCircle
 10
10191.93260889042
 20
29460.43236754354
 30
0.0
 40
98.95734741243209
100
AcDbArc
 50
23.02500422426297
 51
25.29590541775529
  0
ARC
  5
AEA5
330
1F
100
AcDbEntity
  8
freecads.com
100
AcDbCircle
 10
10282.47823603297
 20
29498.91334798362
 30
0.0
 40
0.5739318879247986
100
AcDbArc
 50
331.5937969305312
 51
23.02509686773843
  0
ARC
  5
AEA6
330
1F
100
AcDbEntity
  8
freecads.com
100
AcDbCircle
 10
10282.7371204447
 20
29498.77333371605
 30
0.0
 40
0.2796104076366567
100
AcDbArc
 50
245.2730171212263
 51
331.593754445057
  0
ARC
  5
AEA7
330
1F
100
AcDbEntity
  8
freecads.com
100
AcDbCircle
 10
10284.97359015501
 20
29503.62972780636
 30
0.0
 40
5.62623180114573
100
AcDbArc
 50
232.5012142853941
 51
245.2729570916863
  0
ARC
  5
AEA8
330
1F
100
AcDbEntity
  8
freecads.com
100
AcDbCircle
 10
10323.32116302242
 20
29553.60737695658
 30
0.0
 40
68.62068996536243
100
AcDbArc
 50
230.4555425515167
 51
232.5011767368943
  0
ARC
  5
AEA9
330
1F
100
AcDbEntity
  8
freecads.com
100
AcDbCircle
 10
10293.43514855286
 20
29517.41005909644
 30
0.0
 40
21.68009259870175
100
AcDbArc
 50
224.6299103713168
 51
230.4556360550414
  0
ARC
  5
AEAA
330
1F
100
AcDbEntity
  8
freecads.com
100
AcDbCircle
 10
10292.12795534748
 20
29516.11962259914
 30
0.0
 40
19.8432528045275
100
AcDbArc
 50
218.4042619836436
 51
224.6298647410967
  0
ARC
  5
AEAB
330
1F
100
AcDbEntity
  8
freecads.com
100
AcDbCircle
 10
10289.47051227905
 20
29514.01305680563
 30
0.0
 40
16.45214338368949
100
AcDbArc
 50
211.9622997949751
 51
218.4043152085044
  0
ARC
  5
AEAC
330
1F
100
AcDbEntity
  8
freecads.com
100
AcDbCircle
 10
10277.97130446353
 20
29506.83806940291
 30
0.0
 40
2.898095109703446
100
AcDbArc
 50
188.6770550339978
 51
211.962277529957
  0
ARC
  5
AEAD
330
1F
100
AcDbEntity
  8
freecads.com
100
AcDbCircle
 10
10285.14743326316
 20
29507.93323318746
 30
0.0
 40
10.15731051247451
100
AcDbArc
 50
182.8332505127454
 51
188.6770699300058
  0
ARC
  5
AEAE
330
1F
100
AcDbEntity
  8
freecads.com
100
AcDbCircle
 10
10275.90992776748
 20
29507.47606968845
 30
0.0
 40
0.9084994403656477
100
AcDbArc
 50
148.5337900821427
 51
182.8332302792584
  0
ARC
  5
AEAF
330
1F
100
AcDbEntity
  8
freecads.com
100
AcDbCircle
 10
10275.40777517267
 20
29507.78338241068
 30
0.0
 40
0.3197734109470401
100
AcDbArc
 50
79.32180366375424
 51
148.5338545887619
  0
ARC
  5
AEB0
330
1F
100
AcDbEntity
  8
freecads.com
100
AcDbCircle
 10
10275.16783662697
 20
29506.51090733375
 30
0.0
 40
1.614672374998369
100
AcDbArc
 50
58.35534250487537
 51
79.32168610585278
  0
ARC
  5
AEB1
330
1F
100
AcDbEntity
  8
freecads.com
100
AcDbCircle
 10
10276.14680837605
 20
29508.099428687
 30
0.0
 40
0.2512820122308159
100
AcDbArc
 50
238.3554694194771
 51
304.02485261816
  0
ARC
  5
AEB2
330
1F
100
AcDbEntity
  8
freecads.com
100
AcDbCircle
 10
10276.16117456453
 20
29508.07815070564
 30
0.0
 40
0.225608292940437
100
AcDbArc
 50
304.0247313225376
 51
15.01235718323575
  0
ARC
  5
AEB3
330
1F
100
AcDbEntity
  8
freecads.com
100
AcDbCircle
 10
10273.46138299644
 20
29507.35411108693
 30
0.0
 40
3.020802003686801
100
AcDbArc
 50
15.01251351037686
 51
29.19000340770557
  0
ARC
  5
AEB4
330
1F
100
AcDbEntity
  8
freecads.com
100
AcDbCircle
 10
10261.49091232852
 20
29500.66678156457
 30
0.0
 40
16.73256863502414
100
AcDbArc
 50
29.19000401537795
 51
33.18242839589981
  0
ARC
  5
AEB5
330
1F
100
AcDbEntity
  8
freecads.com
100
AcDbCircle
 10
10290.62575963585
 20
29519.71934263338
 30
0.0
 40
18.07891525897937
100
AcDbArc
 50
206.2506341302534
 51
213.1824548341778
  0
ARC
  5
AEB6
330
1F
100
AcDbEntity
  8
freecads.com
100
AcDbCircle
 10
10274.93772936868
 20
29511.98264567346
 30
0.0
 40
0.5868949779177745
100
AcDbArc
 50
124.3315493111395
 51
206.2505698782806
  0
ARC
  5
AEB7
330
1F
100
AcDbEntity
  8
freecads.com
100
AcDbCircle
 10
10274.962814937
 20
29511.94591556595
 30
0.0
 40
0.6313740351904334
100
AcDbArc
 50
46.31723285458067
 51
124.331574804074
  0
ARC
  5
AEB8
330
1F
100
AcDbEntity
  8
freecads.com
100
AcDbCircle
 10
10262.50559911616
 20
29498.90229218784
 30
0.0
 40
18.66795732684741
100
AcDbArc
 50
39.53730851892419
 51
46.31731675643471
  0
ARC
  5
AEB9
330
1F
100
AcDbEntity
  8
freecads.com
100
AcDbCircle
 10
10188.41950668434
 20
29510.16142668814
 30
0.0
 40
2.188223361134131
100
AcDbArc
 50
325.8098361033554
 51
338.1903977755605
  0
ARC
  5
AEBA
330
1F
100
AcDbEntity
  8
freecads.com
100
AcDbCircle
 10
10190.13129927107
 20
29508.99852342109
 30
0.0
 40
0.1187843384754844
100
AcDbArc
 50
224.9998518784309
 51
325.809743565557
  0
ARC
  5
AEBB
330
1F
100
AcDbEntity
  8
freecads.com
100
AcDbCircle
 10
10190.39660272256
 20
29509.26382781579
 30
0.0
 40
0.4939807446769807
100
AcDbArc
 50
186.6883556029597
 51
225.0000417406795
  0
ARC
  5
AEBC
330
1F
100
AcDbEntity
  8
freecads.com
100
AcDbCircle
 10
10199.74806790314
 20
29510.36045679456
 30
0.0
 40
9.909526195718347
100
AcDbArc
 50
182.3587481227213
 51
186.6884187974994
  0
ARC
  5
AEBD
330
1F
100
AcDbEntity
  8
freecads.com
100
AcDbCircle
 10
10195.956687285
 20
29510.20427532345
 30
0.0
 40
6.114930085019136
100
AcDbArc
 50
175.8312224239777
 51
182.3586547177437
  0
ARC
  5
AEBE
330
1F
100
AcDbEntity
  8
freecads.com
100
AcDbCircle
 10
10191.45992756403
 20
29510.53203085395
 30
0.0
 40
1.606241619857639
100
AcDbArc
 50
158.1903144832945
 51
175.8311403328879
  0
ARC
  5
AEBF
330
1F
100
AcDbEntity
  8
freecads.com
100
AcDbCircle
 10
10190.27070012074
 20
29511.0079215016
 30
0.0
 40
0.3253302956875309
100
AcDbArc
 50
111.1533207511625
 51
158.1903795259918
  0
ARC
  5
AEC0
330
1F
100
AcDbEntity
  8
freecads.com
100
AcDbCircle
 10
10190.22725205812
 20
29511.12021107091
 30
0.0
 40
0.2049281299242463
100
AcDbArc
 50
45.00011298646387
 51
111.1535757086375
  0
ARC
  5
AEC1
330
1F
100
AcDbEntity
  8
freecads.com
100
AcDbCircle
 10
10189.83276501224
 20
29510.72572533372
 30
0.0
 40
0.7628161350018959
100
AcDbArc
 50
16.17162320127922
 51
44.9999608471928
  0
ARC
  5
AEC2
330
1F
100
AcDbEntity
  8
freecads.com
100
AcDbCircle
 10
10188.60173092241
 20
29510.36873341522
 30
0.0
 40
2.044568123567847
100
AcDbArc
 50
2.358668642342899
 51
16.17174466379042
  0
ARC
  5
AEC3
330
1F
100
AcDbEntity
  8
freecads.com
100
AcDbCircle
 10
10188.05926412668
 20
29510.34638952937
 30
0.0
 40
2.587494889992062
100
AcDbArc
 50
349.9605066273064
 51
2.35866387897765
  0
ARC
  5
AEC4
330
1F
100
AcDbEntity
  8
freecads.com
100
AcDbCircle
 10
10187.87638419854
 20
29510.37877051671
 30
0.0
 40
2.773219407601901
100
AcDbArc
 50
338.1903068148806
 51
349.9604185480412
  0
ARC
  5
AEC5
330
1F
100
AcDbEntity
  8
freecads.com
100
AcDbCircle
 10
10164.9747503093
 20
29506.36931627439
 30
0.0
 40
77.79324053339258
100
AcDbArc
 50
358.2210921697351
 51
359.9999758075233
  0
ARC
  5
AEC6
330
1F
100
AcDbEntity
  8
freecads.com
100
AcDbCircle
 10
10242.4990114266
 20
29503.96158501344
 30
0.0
 40
0.2315990370495461
100
AcDbArc
 50
253.1805920391424
 51
358.2210670799156
  0
ARC
  5
AEC7
330
1F
100
AcDbEntity
  8
freecads.com
100
AcDbCircle
 10
10242.59133700973
 20
29504.26700842474
 30
0.0
 40
0.5506718711612675
100
AcDbArc
 50
194.7609603669917
 51
253.1806000485634
  0
ARC
  5
AEC8
330
1F
100
AcDbEntity
  8
freecads.com
100
AcDbCircle
 10
10361.63603535573
 20
29535.63324981038
 30
0.0
 40
123.6582723796255
100
AcDbArc
 50
193.4903981273708
 51
194.7609763165404
  0
ARC
  5
AEC9
330
1F
100
AcDbEntity
  8
freecads.com
100
AcDbCircle
 10
10250.79411190537
 20
29509.04209906023
 30
0.0
 40
9.671337635365706
100
AcDbArc
 50
186.7861577583317
 51
193.4903720159367
  0
ARC
  5
AECA
330
1F
100
AcDbEntity
  8
freecads.com
100
AcDbCircle
 10
10244.69333027227
 20
29508.31612352818
 30
0.0
 40
3.527513337110117
100
AcDbArc
 50
172.5557628929319
 51
186.7862193020649
  0
ARC
  5
AECB
330
1F
100
AcDbEntity
  8
freecads.com
100
AcDbCircle
 10
10242.64082827011
 20
29508.58430695311
 30
0.0
 40
1.457564830919887
100
AcDbArc
 50
149.1278124514288
 51
172.5556990803584
  0
ARC
  5
AECC
330
1F
100
AcDbEntity
  8
freecads.com
100
AcDbCircle
 10
10241.74893872035
 20
29509.11750301406
 30
0.0
 40
0.4184474129244277
100
AcDbArc
 50
89.99998324896521
 51
149.1276972779428
  0
ARC
  5
AECD
330
1F
100
AcDbEntity
  8
freecads.com
100
AcDbCircle
 10
10241.74893832866
 20
29509.0756228287
 30
0.0
 40
0.4603275982837573
100
AcDbArc
 50
31.64318199563806
 51
89.99993601971207
  0
ARC
  5
AECE
330
1F
100
AcDbEntity
  8
freecads.com
100
AcDbCircle
 10
10239.3665127751
 20
29507.60745948028
 30
0.0
 40
3.25880131370767
100
AcDbArc
 50
17.83846265558192
 51
31.64331800170632
  0
ARC
  5
AECF
330
1F
100
AcDbEntity
  8
freecads.com
100
AcDbCircle
 10
10237.19299574136
 20
29506.90800075178
 30
0.0
 40
5.542092536649736
100
AcDbArc
 50
6.990026816815495
 51
17.83855041446093
  0
ARC
  5
AED0
330
1F
100
AcDbEntity
  8
freecads.com
100
AcDbCircle
 10
10232.79910534777
 20
29506.36927716356
 30
0.0
 40
9.968885494922611
100
AcDbArc
 50
0.0000359987738222
 51
6.990015530068723
  0
ARC
  5
AED1
330
1F
100
AcDbEntity
  8
freecads.com
100
AcDbCircle
 10
10280.23153781522
 20
29506.56737950577
 30
0.0
 40
3.617900696010735
100
AcDbArc
 50
14.12193050480598
 51
31.71741790389033
  0
ARC
  5
AED2
330
1F
100
AcDbEntity
  8
freecads.com
100
AcDbCircle
 10
10283.35087391911
 20
29507.35217163122
 30
0.0
 40
0.4013565241975147
100
AcDbArc
 50
286.7447034059004
 51
14.12197965370227
  0
ARC
  5
AED3
330
1F
100
AcDbEntity
  8
freecads.com
100
AcDbCircle
 10
10283.2301561967
 20
29507.75340813858
 30
0.0
 40
0.8203595114631387
100
AcDbArc
 50
232.3629697962009
 51
286.7446827016587
  0
ARC
  5
AED4
330
1F
100
AcDbEntity
  8
freecads.com
100
AcDbCircle
 10
10286.3471511392
 20
29511.79550754307
 30
0.0
 40
5.924693460900809
100
AcDbArc
 50
219.6901918149427
 51
232.3630038168758
  0
ARC
  5
AED5
330
1F
100
AcDbEntity
  8
freecads.com
100
AcDbCircle
 10
10286.83092000946
 20
29512.19698624548
 30
0.0
 40
6.553356700015627
100
AcDbArc
 50
212.7060707987308
 51
219.6900971054269
  0
ARC
  5
AED6
330
1F
100
AcDbEntity
  8
freecads.com
100
AcDbCircle
 10
10282.29165439882
 20
29509.28215320831
 30
0.0
 40
1.158805382389683
100
AcDbArc
 50
187.5317849783976
 51
212.7061925225425
  0
ARC
  5
AED7
330
1F
100
AcDbEntity
  8
freecads.com
100
AcDbCircle
 10
10281.45723118659
 20
29509.17182683302
 30
0.0
 40
0.317120164398667
100
AcDbArc
 50
129.9545968624033
 51
187.531512830075
  0
ARC
  5
AED8
330
1F
100
AcDbEntity
  8
freecads.com
100
AcDbCircle
 10
10281.58652985332
 20
29509.017488916
 30
0.0
 40
0.5184615109913683
100
AcDbArc
 50
90.00011168593262
 51
129.9547708229766
  0
ARC
  5
AED9
330
1F
100
AcDbEntity
  8
freecads.com
100
AcDbCircle
 10
10281.58652726245
 20
29508.17365480569
 30
0.0
 40
1.362295621301718
100
AcDbArc
 50
70.46528579395371
 51
89.99993353770285
  0
ARC
  5
AEDA
330
1F
100
AcDbEntity
  8
freecads.com
100
AcDbCircle
 10
10281.19032551742
 20
29507.05697564993
 30
0.0
 40
2.547178805279915
100
AcDbArc
 50
58.23639265163736
 51
70.46521497667106
  0
ARC
  5
AEDB
330
1F
100
AcDbEntity
  8
freecads.com
100
AcDbCircle
 10
10281.09099887889
 20
29506.89654670861
 30
0.0
 40
2.735866977486037
100
AcDbArc
 50
46.38815275367242
 51
58.23643719056384
  0
ARC
  5
AEDC
330
1F
100
AcDbEntity
  8
freecads.com
100
AcDbCircle
 10
10281.55898449542
 20
29507.38778286871
 30
0.0
 40
2.057395532066783
100
AcDbArc
 50
31.71746515111868
 51
46.38803212892213
  0
ARC
  5
AEDD
330
1F
100
AcDbEntity
  8
freecads.com
100
AcDbCircle
 10
10248.1339780453
 20
29503.53594966344
 30
0.0
 40
10.6340127973888
100
AcDbArc
 50
355.8657599769873
 51
0.0000041139966934
  0
ARC
  5
AEDE
330
1F
100
AcDbEntity
  8
freecads.com
100
AcDbCircle
 10
10253.19487222048
 20
29503.17013846212
 30
0.0
 40
5.559915075883997
100
AcDbArc
 50
349.1489692289869
 51
355.8657777544713
  0
ARC
  5
AEDF
330
1F
100
AcDbEntity
  8
freecads.com
100
AcDbCircle
 10
10254.5336255753
 20
29502.9135154822
 30
0.0
 40
4.19678782620765
100
AcDbArc
 50
342.4139243275426
 51
349.1490517158386
  0
ARC
  5
AEE0
330
1F
100
AcDbEntity
  8
freecads.com
100
AcDbCircle
 10
10258.38462228043
 20
29501.69293819026
 30
0.0
 40
0.1569877632676558
100
AcDbArc
 50
269.9998402380233
 51
342.4136341255351
  0
ARC
  5
AEE1
330
1F
100
AcDbEntity
  8
freecads.com
100
AcDbCircle
 10
10258.38462184335
 20
29501.73978305723
 30
0.0
 40
0.2038326302406972
100
AcDbArc
 50
209.6928766625731
 51
269.999999814175
  0
ARC
  5
AEE2
330
1F
100
AcDbEntity
  8
freecads.com
100
AcDbCircle
 10
10263.30615772158
 20
29504.5461641261
 30
0.0
 40
5.869279665063328
100
AcDbArc
 50
204.3795090678877
 51
209.6928550464517
  0
ARC
  5
AEE3
330
1F
100
AcDbEntity
  8
freecads.com
100
AcDbCircle
 10
10264.13372841188
 20
29504.92121914042
 30
0.0
 40
6.777871713866869
100
AcDbArc
 50
198.5089628896
 51
204.3795792213743
  0
ARC
  5
AEE4
330
1F
100
AcDbEntity
  8
freecads.com
100
AcDbCircle
 10
10268.98216304132
 20
29506.54430209614
 30
0.0
 40
11.89076880229061
100
AcDbArc
 50
194.6550440776825
 51
198.5088533007844
  0
ARC
  5
AEE5
330
1F
100
AcDbEntity
  8
freecads.com
100
AcDbCircle
 10
10262.0796588118
 20
29504.73924327814
 30
0.0
 40
4.75614884220771
100
AcDbArc
 50
185.2714797529542
 51
194.6549485606819
  0
ARC
  5
AEE6
330
1F
100
AcDbEntity
  8
freecads.com
100
AcDbCircle
 10
10259.64056879874
 20
29504.51419949834
 30
0.0
 40
2.306698945883508
100
AcDbArc
 50
169.1489505898075
 51
185.2714613615557
  0
ARC
  5
AEE7
330
1F
100
AcDbEntity
  8
freecads.com
100
AcDbCircle
 10
10258.46353377057
 20
29504.73981864379
 30
0.0
 40
1.108235155721248
100
AcDbArc
 50
144.814283291567
 51
169.1489832501252
  0
ARC
  5
AEE8
330
1F
100
AcDbEntity
  8
freecads.com
100
AcDbCircle
 10
10257.86160973186
 20
29505.16420372989
 30
0.0
 40
0.3717466970961567
100
AcDbArc
 50
89.99982879222461
 51
144.8141661235548
  0
ARC
  5
AEE9
330
1F
100
AcDbEntity
  8
freecads.com
100
AcDbCircle
 10
10257.86161057702
 20
29505.05982006642
 30
0.0
 40
0.4761303605662479
100
AcDbArc
 50
43.30569172051802
 51
89.99996803070011
  0
ARC
  5
AEEA
330
1F
100
AcDbEntity
  8
freecads.com
100
AcDbCircle
 10
10257.04119245576
 20
29504.28654473675
 30
0.0
 40
1.603534737520757
100
AcDbArc
 50
24.37953601874633
 51
43.30565309328848
  0
ARC
  5
AEEB
330
1F
100
AcDbEntity
  8
freecads.com
100
AcDbCircle
 10
10256.04945497125
 20
29503.83709806718
 30
0.0
 40
2.692362339558644
100
AcDbArc
 50
9.934521049172698
 51
24.37956751788061
  0
ARC
  5
AEEC
330
1F
100
AcDbEntity
  8
freecads.com
100
AcDbCircle
 10
10254.33010483577
 20
29503.53595360859
 30
0.0
 40
4.437886006920512
100
AcDbArc
 50
359.9999589236075
 51
9.93454950996865
  0
ARC
  5
AEED
330
1F
100
AcDbEntity
  8
freecads.com
100
AcDbCircle
 10
10238.16943312515
 20
29439.92177083607
 30
0.0
 40
88.19146848021352
100
AcDbArc
 50
42.94047305087516
 51
44.31807618176279
  0
ARC
  5
AEEE
330
1F
100
AcDbEntity
  8
freecads.com
100
AcDbCircle
 10
10274.05500594455
 20
29473.31598486471
 30
0.0
 40
39.17159631424922
100
AcDbArc
 50
40.41358924042312
 51
42.94045990397143
  0
ARC
  5
AEEF
330
1F
100
AcDbEntity
  8
freecads.com
100
AcDbCircle
 10
10266.10444936053
 20
29466.54639715398
 30
0.0
 40
49.61375450892433
100
AcDbArc
 50
38.85689725068377
 51
40.41348505304931
  0
ARC
  5
AEF0
330
1F
100
AcDbEntity
  8
freecads.com
100
AcDbCircle
 10
10304.67388686297
 20
29497.62013255009
 30
0.0
 40
0.084182123102171
100
AcDbArc
 50
269.999986196527
 51
38.85682185907827
  0
ARC
  5
AEF1
330
1F
100
AcDbEntity
  8
freecads.com
100
AcDbCircle
 10
10304.67388600773
 20
29498.01616795674
 30
0.0
 40
0.4802175297509603
100
AcDbArc
 50
228.7787574417202
 51
270.000099620752
  0
ARC
  5
AEF2
330
1F
100
AcDbEntity
  8
freecads.com
100
AcDbCircle
 10
10363.41111235876
 20
29565.06105207846
 30
0.0
 40
89.61538593317742
100
AcDbArc
 50
227.764425673789
 51
228.7787835307472
  0
ARC
  5
AEF3
330
1F
100
AcDbEntity
  8
freecads.com
100
AcDbCircle
 10
10338.11783726091
 20
29537.20136668629
 30
0.0
 40
51.9867819820218
100
AcDbArc
 50
225.6870334623574
 51
227.764521523494
  0
ARC
  5
AEF4
330
1F
100
AcDbEntity
  8
freecads.com
100
AcDbCircle
 10
10365.18221667552
 20
29564.9228713858
 30
0.0
 40
90.72903870378743
100
AcDbArc
 50
224.3179796724783
 51
225.6871033323429
  0
ARC
  5
AEF5
330
1F
100
AcDbEntity
  8
freecads.com
100
AcDbCircle
 10
10363.36654856023
 20
29563.15013001791
 30
0.0
 40
88.19146848021373
100
AcDbArc
 50
222.9404730508751
 51
224.3180761817628
  0
ARC
  5
AEF6
330
1F
100
AcDbEntity
  8
freecads.com
100
AcDbCircle
 10
10327.48097574082
 20
29529.75591598927
 30
0.0
 40
39.17159631424939
100
AcDbArc
 50
220.4135892404231
 51
222.9404599039714
  0
ARC
  5
AEF7
330
1F
100
AcDbEntity
  8
freecads.com
100
AcDbCircle
 10
10335.43153232485
 20
29536.5255037
 30
0.0
 40
49.61375450892433
100
AcDbArc
 50
218.8568972506837
 51
220.4134850530493
  0
ARC
  5
AEF8
330
1F
100
AcDbEntity
  8
freecads.com
100
AcDbCircle
 10
10296.86209482241
 20
29505.45176830389
 30
0.0
 40
0.084182123102171
100
AcDbArc
 50
89.99998619652703
 51
218.8568218590782
  0
ARC
  5
AEF9
330
1F
100
AcDbEntity
  8
freecads.com
100
AcDbCircle
 10
10296.86209567765
 20
29505.05573289724
 30
0.0
 40
0.4802175297509603
100
AcDbArc
 50
48.77875744172018
 51
90.00009962075196
  0
ARC
  5
AEFA
330
1F
100
AcDbEntity
  8
freecads.com
100
AcDbCircle
 10
10238.12486932662
 20
29438.01084877551
 30
0.0
 40
89.61538593317746
100
AcDbArc
 50
47.76442567378903
 51
48.77878353074724
  0
ARC
  5
AEFB
330
1F
100
AcDbEntity
  8
freecads.com
100
AcDbCircle
 10
10263.41814442447
 20
29465.87053416768
 30
0.0
 40
51.9867819820218
100
AcDbArc
 50
45.68703346235746
 51
47.76452152349395
  0
ARC
  5
AEFC
330
1F
100
AcDbEntity
  8
freecads.com
100
AcDbCircle
 10
10236.35376500986
 20
29438.14902946818
 30
0.0
 40
90.72903870378729
100
AcDbArc
 50
44.31797967247825
 51
45.68710333234291
  0
ARC
  5
AEFD
330
1F
100
AcDbEntity
  8
freecads.com
100
AcDbCircle
 10
10248.39746977209
 20
29499.03595032204
 30
0.0
 40
0.3398950705939276
100
AcDbArc
 50
316.8927255808108
 51
0.0000176905818191
  0
ARC
  5
AEFE
330
1F
100
AcDbEntity
  8
freecads.com
100
AcDbCircle
 10
10248.5270565736
 20
29498.91465484644
 30
0.0
 40
0.1623976578608936
100
AcDbArc
 50
242.7154366231444
 51
316.8925781767255
  0
ARC
  5
AEFF
330
1F
100
AcDbEntity
  8
freecads.com
100
AcDbCircle
 10
10248.9025852068
 20
29499.64271067978
 30
0.0
 40
0.9815966879026872
100
AcDbArc
 50
219.2413171561762
 51
242.715469326262
  0
ARC
  5
AF00
330
1F
100
AcDbEntity
  8
freecads.com
100
AcDbCircle
 10
10252.57623750018
 20
29502.64327823971
 30
0.0
 40
5.724921139631573
100
AcDbArc
 50
212.8725519277552
 51
219.2412860161749
  0
ARC
  5
AF01
330
1F
100
AcDbEntity
  8
freecads.com
100
AcDbCircle
 10
10253.62785563703
 20
29503.32289312053
 30
0.0
 40
6.977030197160525
100
AcDbArc
 50
206.739749205609
 51
212.8726002599664
  0
ARC
  5
AF02
330
1F
100
AcDbEntity
  8
freecads.com
100
AcDbCircle
 10
10254.52206456552
 20
29503.77342737288
 30
0.0
 40
7.978324719346165
100
AcDbArc
 50
201.193789421338
 51
206.7398547559854
  0
ARC
  5
AF03
330
1F
100
AcDbEntity
  8
freecads.com
100
AcDbCircle
 10
10253.57407707996
 20
29503.40583894465
 30
0.0
 40
6.961564410657693
100
AcDbArc
 50
195.4729129238287
 51
201.1937393352249
  0
ARC
  5
AF04
330
1F
100
AcDbEntity
  8
freecads.com
100
AcDbCircle
 10
10248.62533722814
 20
29502.03594951763
 30
0.0
 40
1.826720385451393
100
AcDbArc
 50
179.9999714775819
 51
195.4728655720474
  0
ARC
  5
AF05
330
1F
100
AcDbEntity
  8
freecads.com
100
AcDbCircle
 10
10247.13851191328
 20
29502.03595053194
 30
0.0
 40
0.3398950705939276
100
AcDbArc
 50
136.8927255808108
 51
180.0000176905818
  0
ARC
  5
AF06
330
1F
100
AcDbEntity
  8
freecads.com
100
AcDbCircle
 10
10247.00892511178
 20
29502.15724600754
 30
0.0
 40
0.1623976578608936
100
AcDbArc
 50
62.71543662314442
 51
136.8925781767255
  0
ARC
  5
AF07
330
1F
100
AcDbEntity
  8
freecads.com
100
AcDbCircle
 10
10246.63339647858
 20
29501.42919017419
 30
0.0
 40
0.9815966879026872
100
AcDbArc
 50
39.24131715617623
 51
62.71546932626205
  0
ARC
  5
AF08
330
1F
100
AcDbEntity
  8
freecads.com
100
AcDbCircle
 10
10242.9597441852
 20
29498.42862261427
 30
0.0
 40
5.724921139631573
100
AcDbArc
 50
32.87255192775524
 51
39.24128601617491
  0
ARC
  5
AF09
330
1F
100
AcDbEntity
  8
freecads.com
100
AcDbCircle
 10
10241.90812604835
 20
29497.74900773345
 30
0.0
 40
6.977030197160525
100
AcDbArc
 50
26.73974920560903
 51
32.87260025996645
  0
ARC
  5
AF0A
330
1F
100
AcDbEntity
  8
freecads.com
100
AcDbCircle
 10
10241.01391711985
 20
29497.2984734811
 30
0.0
 40
7.978324719346165
100
AcDbArc
 50
21.193789421338
 51
26.73985475598542
  0
ARC
  5
AF0B
330
1F
100
AcDbEntity
  8
freecads.com
100
AcDbCircle
 10
10241.96190460542
 20
29497.66606190933
 30
0.0
 40
6.961564410657693
100
AcDbArc
 50
15.47291292382874
 51
21.19373933522495
  0
ARC
  5
AF0C
330
1F
100
AcDbEntity
  8
freecads.com
100
AcDbCircle
 10
10246.91064445724
 20
29499.03595133634
 30
0.0
 40
1.826720385451393
100
AcDbArc
 50
359.9999714775819
 51
15.47286557204748
  0
ARC
  5
AF0D
330
1F
100
AcDbEntity
  8
freecads.com
100
AcDbCircle
 10
10273.41950668434
 20
29500.16142668814
 30
0.0
 40
2.188223361134131
100
AcDbArc
 50
325.8098361033554
 51
338.1903977755605
  0
ARC
  5
AF0E
330
1F
100
AcDbEntity
  8
freecads.com
100
AcDbCircle
 10
10275.13129927106
 20
29498.99852342108
 30
0.0
 40
0.1187843384754844
100
AcDbArc
 50
224.9998518784309
 51
325.809743565557
  0
ARC
  5
AF0F
330
1F
100
AcDbEntity
  8
freecads.com
100
AcDbCircle
 10
10275.39660272256
 20
29499.26382781579
 30
0.0
 40
0.4939807446769807
100
AcDbArc
 50
186.6883556029597
 51
225.0000417406795
  0
ARC
  5
AF10
330
1F
100
AcDbEntity
  8
freecads.com
100
AcDbCircle
 10
10284.74806790314
 20
29500.36045679457
 30
0.0
 40
9.909526195718347
100
AcDbArc
 50
182.3587481227213
 51
186.6884187974994
  0
ARC
  5
AF11
330
1F
100
AcDbEntity
  8
freecads.com
100
AcDbCircle
 10
10280.956687285
 20
29500.20427532345
 30
0.0
 40
6.114930085019136
100
AcDbArc
 50
175.8312224239777
 51
182.3586547177437
  0
ARC
  5
AF12
330
1F
100
AcDbEntity
  8
freecads.com
100
AcDbCircle
 10
10276.45992756403
 20
29500.53203085396
 30
0.0
 40
1.606241619857639
100
AcDbArc
 50
158.1903144832945
 51
175.8311403328879
  0
ARC
  5
AF13
330
1F
100
AcDbEntity
  8
freecads.com
100
AcDbCircle
 10
10275.27070012074
 20
29501.0079215016
 30
0.0
 40
0.3253302956875309
100
AcDbArc
 50
111.1533207511625
 51
158.1903795259918
  0
ARC
  5
AF14
330
1F
100
AcDbEntity
  8
freecads.com
100
AcDbCircle
 10
10275.22725205812
 20
29501.12021107091
 30
0.0
 40
0.2049281299242463
100
AcDbArc
 50
45.00011298646387
 51
111.1535757086375
  0
ARC
  5
AF15
330
1F
100
AcDbEntity
  8
freecads.com
100
AcDbCircle
 10
10274.83276501224
 20
29500.72572533372
 30
0.0
 40
0.7628161350018959
100
AcDbArc
 50
16.17162320127922
 51
44.9999608471928
  0
ARC
  5
AF16
330
1F
100
AcDbEntity
  8
freecads.com
100
AcDbCircle
 10
10273.60173092241
 20
29500.36873341522
 30
0.0
 40
2.044568123567847
100
AcDbArc
 50
2.358668642342899
 51
16.17174466379042
  0
ARC
  5
AF17
330
1F
100
AcDbEntity
  8
freecads.com
100
AcDbCircle
 10
10273.05926412668
 20
29500.34638952937
 30
0.0
 40
2.587494889992062
100
AcDbArc
 50
349.9605066273064
 51
2.35866387897765
  0
ARC
  5
AF18
330
1F
100
AcDbEntity
  8
freecads.com
100
AcDbCircle
 10
10272.87638419854
 20
29500.37877051671
 30
0.0
 40
2.773219407601901
100
AcDbArc
 50
338.1903068148806
 51
349.9604185480412
  0
ARC
  5
AF19
330
1F
100
AcDbEntity
  8
freecads.com
100
AcDbCircle
 10
10198.41950668434
 20
29498.16142668814
 30
0.0
 40
2.188223361134131
100
AcDbArc
 50
325.8098361033554
 51
338.1903977755605
  0
ARC
  5
AF1A
330
1F
100
AcDbEntity
  8
freecads.com
100
AcDbCircle
 10
10200.13129927106
 20
29496.99852342108
 30
0.0
 40
0.1187843384754844
100
AcDbArc
 50
224.9998518784309
 51
325.809743565557
  0
ARC
  5
AF1B
330
1F
100
AcDbEntity
  8
freecads.com
100
AcDbCircle
 10
10200.39660272256
 20
29497.26382781579
 30
0.0
 40
0.4939807446769807
100
AcDbArc
 50
186.6883556029597
 51
225.0000417406795
  0
ARC
  5
AF1C
330
1F
100
AcDbEntity
  8
freecads.com
100
AcDbCircle
 10
10209.74806790314
 20
29498.36045679457
 30
0.0
 40
9.909526195718347
100
AcDbArc
 50
182.3587481227213
 51
186.6884187974994
  0
ARC
  5
AF1D
330
1F
100
AcDbEntity
  8
freecads.com
100
AcDbCircle
 10
10205.956687285
 20
29498.20427532345
 30
0.0
 40
6.114930085019136
100
AcDbArc
 50
175.8312224239777
 51
182.3586547177437
  0
ARC
  5
AF1E
330
1F
100
AcDbEntity
  8
freecads.com
100
AcDbCircle
 10
10201.45992756403
 20
29498.53203085396
 30
0.0
 40
1.606241619857639
100
AcDbArc
 50
158.1903144832945
 51
175.8311403328879
  0
ARC
  5
AF1F
330
1F
100
AcDbEntity
  8
freecads.com
100
AcDbCircle
 10
10200.27070012074
 20
29499.0079215016
 30
0.0
 40
0.3253302956875309
100
AcDbArc
 50
111.1533207511625
 51
158.1903795259918
  0
ARC
  5
AF20
330
1F
100
AcDbEntity
  8
freecads.com
100
AcDbCircle
 10
10200.22725205812
 20
29499.12021107091
 30
0.0
 40
0.2049281299242463
100
AcDbArc
 50
45.00011298646387
 51
111.1535757086375
  0
ARC
  5
AF21
330
1F
100
AcDbEntity
  8
freecads.com
100
AcDbCircle
 10
10199.83276501224
 20
29498.72572533372
 30
0.0
 40
0.7628161350018959
100
AcDbArc
 50
16.17162320127922
 51
44.9999608471928
  0
ARC
  5
AF22
330
1F
100
AcDbEntity
  8
freecads.com
100
AcDbCircle
 10
10198.60173092241
 20
29498.36873341523
 30
0.0
 40
2.044568123567847
100
AcDbArc
 50
2.358668642342899
 51
16.17174466379042
  0
ARC
  5
AF23
330
1F
100
AcDbEntity
  8
freecads.com
100
AcDbCircle
 10
10198.05926412668
 20
29498.34638952937
 30
0.0
 40
2.587494889992062
100
AcDbArc
 50
349.9605066273064
 51
2.35866387897765
  0
ARC
  5
AF24
330
1F
100
AcDbEntity
  8
freecads.com
100
AcDbCircle
 10
10197.87638419854
 20
29498.37877051671
 30
0.0
 40
2.773219407601901
100
AcDbArc
 50
338.1903068148806
 51
349.9604185480412
  0
ARC
  5
AF25
330
1F
100
AcDbEntity
  8
freecads.com
100
AcDbCircle
 10
10239.70704900985
 20
29494.47189160574
 30
0.0
 40
0.9406054693414752
100
AcDbArc
 50
270.1264468056929
 51
315.0000281731421
  0
ARC
  5
AF26
330
1F
100
AcDbEntity
  8
freecads.com
100
AcDbCircle
 10
10239.70776448003
 20
29494.14725958232
 30
0.0
 40
0.6159726574996741
100
AcDbArc
 50
208.7246701314675
 51
270.1265366264015
  0
ARC
  5
AF27
330
1F
100
AcDbEntity
  8
freecads.com
100
AcDbCircle
 10
10240.39625776949
 20
29494.5245856346
 30
0.0
 40
1.401082814966818
100
AcDbArc
 50
172.2985948670892
 51
208.7247271781241
  0
ARC
  5
AF28
330
1F
100
AcDbEntity
  8
freecads.com
100
AcDbCircle
 10
10241.43092092382
 20
29494.38466782442
 30
0.0
 40
2.445163672244814
100
AcDbArc
 50
148.2825535248367
 51
172.2985942871962
  0
ARC
  5
AF29
330
1F
100
AcDbEntity
  8
freecads.com
100
AcDbCircle
 10
10245.97954519414
 20
29491.57345287582
 30
0.0
 40
7.792397746024745
100
AcDbArc
 50
142.7002134562785
 51
148.2824683838085
  0
ARC
  5
AF2A
330
1F
100
AcDbEntity
  8
freecads.com
100
AcDbCircle
 10
10240.06352247968
 20
29496.08022116079
 30
0.0
 40
0.3553092611089021
100
AcDbArc
 50
90.19199781587246
 51
142.7004104079325
  0
ARC
  5
AF2B
330
1F
100
AcDbEntity
  8
freecads.com
100
AcDbCircle
 10
10240.06323150796
 20
29496.16694154853
 30
0.0
 40
0.2685883852227941
100
AcDbArc
 50
26.21296619418862
 51
90.19191864699443
  0
ARC
  5
AF2C
330
1F
100
AcDbEntity
  8
freecads.com
100
AcDbCircle
 10
10235.93295776711
 20
29494.13344283692
 30
0.0
 40
4.872312767125079
100
AcDbArc
 50
18.43486215790755
 51
26.21287062367628
  0
ARC
  5
AF2D
330
1F
100
AcDbEntity
  8
freecads.com
100
AcDbCircle
 10
10238.11163523355
 20
29494.85966281618
 30
0.0
 40
2.575786921184339
100
AcDbArc
 50
6.386175991668627
 51
18.43490818840553
  0
ARC
  5
AF2E
330
1F
100
AcDbEntity
  8
freecads.com
100
AcDbCircle
 10
10238.09364896649
 20
29494.85764663086
 30
0.0
 40
2.593885838186314
100
AcDbArc
 50
354.4005925510742
 51
6.386243961400803
  0
ARC
  5
AF2F
330
1F
100
AcDbEntity
  8
freecads.com
100
AcDbCircle
 10
10238.55812505532
 20
29494.81211249487
 30
0.0
 40
2.127183154859986
100
AcDbArc
 50
341.2993313195698
 51
354.4005042789397
  0
ARC
  5
AF30
330
1F
100
AcDbEntity
  8
freecads.com
100
AcDbCircle
 10
10239.78064497342
 20
29494.39829462108
 30
0.0
 40
0.8365243375117829
100
AcDbArc
 50
315.000081131374
 51
341.2994486690103
  0
ARC
  5
AF31
330
1F
100
AcDbEntity
  8
freecads.com
100
AcDbCircle
 10
10387.16639462281
 20
29567.23848865127
 30
0.0
 40
40.14673168090963
100
AcDbArc
 50
180.289055526567
 51
182.3289605892361
  0
ARC
  5
AF32
330
1F
100
AcDbEntity
  8
freecads.com
100
AcDbCircle
 10
10350.49154831191
 20
29565.74690261207
 30
0.0
 40
3.4415660929357
100
AcDbArc
 50
182.3288909741926
 51
194.6701477081258
  0
ARC
  5
AF33
330
1F
100
AcDbEntity
  8
freecads.com
100
AcDbCircle
 10
10347.24083522205
 20
29564.89590425811
 30
0.0
 40
0.0813080982264555
100
AcDbArc
 50
194.670318597598
 51
330.2131353908101
  0
ARC
  5
AF34
330
1F
100
AcDbEntity
  8
freecads.com
100
AcDbCircle
 10
10346.06544897873
 20
29565.56870186883
 30
0.0
 40
1.435630602643964
100
AcDbArc
 50
330.2129496937815
 51
349.1153936975139
  0
ARC
  5
AF35
330
1F
100
AcDbEntity
  8
freecads.com
100
AcDbCircle
 10
10338.76186606673
 20
29566.97311125383
 30
0.0
 40
8.873015161293956
100
AcDbArc
 50
349.1154195721592
 51
355.5890371511393
  0
ARC
  5
AF36
330
1F
100
AcDbEntity
  8
freecads.com
100
AcDbCircle
 10
10334.04587474842
 20
29567.33690491748
 30
0.0
 40
13.60301726952965
100
AcDbArc
 50
355.5889942952882
 51
0.2891101887863785
  0
ARC
  5
AF37
330
1F
100
AcDbEntity
  8
freecads.com
100
AcDbCircle
 10
10334.84940275228
 20
29567.34096522746
 30
0.0
 40
12.79947900718109
100
AcDbArc
 50
0.289084522515054
 51
5.061362271115646
  0
ARC
  5
AF38
330
1F
100
AcDbEntity
  8
freecads.com
100
AcDbCircle
 10
10342.60470345973
 20
29568.02783217586
 30
0.0
 40
5.013820700542845
100
AcDbArc
 50
5.061408147321371
 51
14.67023496113589
  0
ARC
  5
AF39
330
1F
100
AcDbEntity
  8
freecads.com
100
AcDbCircle
 10
10347.24928563122
 20
29569.24373708711
 30
0.0
 40
0.2127199620717295
100
AcDbArc
 50
14.67019520932584
 51
78.47947442021683
  0
ARC
  5
AF3A
330
1F
100
AcDbEntity
  8
freecads.com
100
AcDbCircle
 10
10347.26605271291
 20
29569.32599720282
 30
0.0
 40
0.1287684185252951
100
AcDbArc
 50
78.4796406150664
 51
169.1155404817277
  0
ARC
  5
AF3B
330
1F
100
AcDbEntity
  8
freecads.com
100
AcDbCircle
 10
10352.69792450528
 20
29568.28150182719
 30
0.0
 40
5.660151767966435
100
AcDbArc
 50
169.115445096363
 51
178.0472285127749
  0
ARC
  5
AF3C
330
1F
100
AcDbEntity
  8
freecads.com
100
AcDbCircle
 10
10383.78913659001
 20
29567.22142745697
 30
0.0
 40
36.76943055369313
100
AcDbArc
 50
178.0472221126363
 51
180.2890198712668
  0
ARC
  5
AF3D
330
1F
100
AcDbEntity
  8
freecads.com
100
AcDbCircle
 10
10276.0095384988
 20
29505.14293985929
 30
0.0
 40
0.2415476561074459
100
AcDbArc
 50
180.0001025424671
 51
230.7652625988852
  0
ARC
  5
AF3E
330
1F
100
AcDbEntity
  8
freecads.com
100
AcDbCircle
 10
10278.29433173522
 20
29507.94087758161
 30
0.0
 40
3.853851025319229
100
AcDbArc
 50
230.764976786875
 51
237.5037679372155
  0
ARC
  5
AF3F
330
1F
100
AcDbEntity
  8
freecads.com
100
AcDbCircle
 10
10278.83509286504
 20
29508.78985109896
 30
0.0
 40
4.860418773926139
100
AcDbArc
 50
237.5039286395149
 51
244.2754645115668
  0
ARC
  5
AF40
330
1F
100
AcDbEntity
  8
freecads.com
100
AcDbCircle
 10
10280.13030925377
 20
29511.47813991497
 30
0.0
 40
7.844456684513398
100
AcDbArc
 50
244.2753840312503
 51
249.0064265490303
  0
ARC
  5
AF41
330
1F
100
AcDbEntity
  8
freecads.com
100
AcDbCircle
 10
10278.81197701256
 20
29508.04260114772
 30
0.0
 40
4.164656891118068
100
AcDbArc
 50
249.006356868021
 51
257.3467719403399
  0
ARC
  5
AF42
330
1F
100
AcDbEntity
  8
freecads.com
100
AcDbCircle
 10
10278.02865331836
 20
29504.55344695319
 30
0.0
 40
0.5886545137322045
100
AcDbArc
 50
257.3468881788876
 51
292.6683719137053
  0
ARC
  5
AF43
330
1F
100
AcDbEntity
  8
freecads.com
100
AcDbCircle
 10
10278.18008410516
 20
29504.19087937417
 30
0.0
 40
0.1957339969078631
100
AcDbArc
 50
292.6682118058359
 51
5.612283381319532
  0
ARC
  5
AF44
330
1F
100
AcDbEntity
  8
freecads.com
100
AcDbCircle
 10
10277.59025697202
 20
29504.13291646773
 30
0.0
 40
0.7884023236453541
100
AcDbArc
 50
5.61244116993687
 51
31.71750250580174
  0
ARC
  5
AF45
330
1F
100
AcDbEntity
  8
freecads.com
100
AcDbCircle
 10
10276.70361032388
 20
29503.58493805539
 30
0.0
 40
1.830718311744494
100
AcDbArc
 50
31.71750375618912
 51
58.14239238019833
  0
ARC
  5
AF46
330
1F
100
AcDbEntity
  8
freecads.com
100
AcDbCircle
 10
10276.10559605464
 20
29502.62258957748
 30
0.0
 40
2.96373890252444
100
AcDbArc
 50
58.14251488904456
 51
76.5643543835599
  0
ARC
  5
AF47
330
1F
100
AcDbEntity
  8
freecads.com
100
AcDbCircle
 10
10276.41970595259
 20
29503.93745741688
 30
0.0
 40
1.611872613617244
100
AcDbArc
 50
76.56434107526145
 51
102.9259057312221
  0
ARC
  5
AF48
330
1F
100
AcDbEntity
  8
freecads.com
100
AcDbCircle
 10
10276.14304061571
 20
29505.14293949073
 30
0.0
 40
0.375049773022411
100
AcDbArc
 50
102.925996797977
 51
180.0000097381472
  0
ENDSEC
  0
SECTION
  2
OBJECTS
  0
DICTIONARY
  5
C
330
0
100
AcDbDictionary
281
     1
  3
ACAD_CIP_PREVIOUS_PRODUCT_INFO
350
1A5
  3
ACAD_COLOR
350
73
  3
ACAD_DETAILVIEWSTYLE
350
1AB
  3
ACAD_GROUP
350
D
  3
ACAD_LAYOUT
350
1A
  3
ACAD_MATERIAL
350
72
  3
ACAD_MLEADERSTYLE
350
D7
  3
ACAD_MLINESTYLE
350
17
  3
ACAD_PLOTSETTINGS
350
19
  3
ACAD_PLOTSTYLENAME
350
E
  3
ACAD_SCALELIST
350
B6
  3
ACAD_SECTIONVIEWSTYLE
350
1A8
  3
ACAD_TABLESTYLE
350
86
  3
ACAD_VISUALSTYLE
350
99
  3
ACDB_RECOMPOSE_DATA
350
AFA0
  3
AcDbVariableDictionary
350
66
  3
AEC_PROPERTY_SET_DEFS
350
268B
  0
DICTIONARY
  5
18E
330
2
100
AcDbDictionary
280
     1
281
     1
  3
ACAD_LAYERSTATES
360
18F
  0
DICTIONARY
  5
E6
330
10
100
AcDbDictionary
280
     1
281
     1
  0
DICTIONARY
  5
15D
330
1F
100
AcDbDictionary
280
     1
281
     1
  3
ACAD_SORTENTS
360
28E
  0
XRECORD
  5
1A5
102
{ACAD_REACTORS
330
C
102
}
330
C
100
AcDbXrecord
280
     1
300
ACD
300
2022
300

  0
DICTIONARY
  5
73
102
{ACAD_REACTORS
330
C
102
}
330
C
100
AcDbDictionary
281
     1
  0
DICTIONARY
  5
1AB
102
{ACAD_REACTORS
330
C
102
}
330
C
100
AcDbDictionary
281
     1
  3
Imperial24
350
1AC
  3
Metric50
350
224
  0
DICTIONARY
  5
D
102
{ACAD_REACTORS
330
C
102
}
330
C
100
AcDbDictionary
281
     1
  0
DICTIONARY
  5
1A
102
{ACAD_REACTORS
330
C
102
}
330
C
100
AcDbDictionary
281
     1
  3
Layout1
350
59
  3
Layout2
350
5E
  3
Model
350
22
  0
DICTIONARY
  5
72
102
{ACAD_REACTORS
330
C
102
}
330
C
100
AcDbDictionary
281
     1
  3
ByBlock
350
97
  3
ByLayer
350
96
  3
Global
350
98
  0
DICTIONARY
  5
D7
102
{ACAD_REACTORS
330
C
102
}
330
C
100
AcDbDictionary
281
     1
  3
Standard
350
D8
  0
DICTIONARY
  5
17
102
{ACAD_REACTORS
330
C
102
}
330
C
100
AcDbDictionary
281
     1
  3
Standard
350
18
  0
DICTIONARY
  5
19
102
{ACAD_REACTORS
330
C
102
}
330
C
100
AcDbDictionary
281
     1
  0
ACDBDICTIONARYWDFLT
  5
E
102
{ACAD_REACTORS
330
C
102
}
330
C
100
AcDbDictionary
281
     1
  3
Normal
350
F
100
AcDbDictionaryWithDefault
340
F
  0
DICTIONARY
  5
B6
102
{ACAD_REACTORS
330
C
102
}
330
C
100
AcDbDictionary
281
     1
  3
*A1
350
47D1
  3
*A2
350
8BD6
  3
A0
350
B7
  3
A1
350
124
  3
A2
350
125
  3
A3
350
126
  3
A4
350
127
  3
A5
350
128
  3
A6
350
129
  3
A7
350
12A
  3
A8
350
12B
  3
A9
350
12C
  3
B0
350
12D
  3
B1
350
12E
  3
B2
350
12F
  3
B3
350
130
  3
B4
350
131
  3
B5
350
132
  3
B6
350
133
  3
B7
350
134
  3
B8
350
135
  3
B9
350
136
  3
C0
350
137
  3
C1
350
138
  3
C2
350
139
  3
C3
350
13A
  3
C4
350
13B
  3
C5
350
13C
  3
C6
350
13D
  3
C7
350
13E
  3
C8
350
13F
  3
C9
350
140
  3
D0
350
141
  3
D1
350
142
  3
D2
350
143
  0
DICTIONARY
  5
1A8
102
{ACAD_REACTORS
330
C
102
}
330
C
100
AcDbDictionary
281
     1
  3
Imperial24
350
1AA
  3
Metric50
350
223
  0
DICTIONARY
  5
86
102
{ACAD_REACTORS
330
C
102
}
330
C
100
AcDbDictionary
281
     1
  3
Standard
350
87
  0
DICTIONARY
  5
99
102
{ACAD_REACTORS
330
C
102
}
330
C
100
AcDbDictionary
281
     1
  3
2dWireframe
350
9F
  3
3dWireframe
350
2684
  3
Basic
350
9E
  3
Brighten
350
A5
  3
ColorChange
350
A9
  3
Conceptual
350
A2
  3
Dim
350
A4
  3
EdgeColorOff
350
175
  3
Facepattern
350
A8
  3
Flat
350
9A
  3
FlatWithEdges
350
9B
  3
Gouraud
350
9C
  3
GouraudWithEdges
350
9D
  3
Hidden
350
A1
  3
JitterOff
350
173
  3
Linepattern
350
A7
  3
OverhangOff
350
174
  3
Realistic
350
A3
  3
Shaded
350
182
  3
Shaded with edges
350
181
  3
Shades of Gray
350
17E
  3
Sketchy
350
17F
  3
Thicken
350
A6
  3
Wireframe
350
A0
  3
X-Ray
350
180
  0
XRECORD
  5
AFA0
102
{ACAD_REACTORS
330
C
102
}
330
C
100
AcDbXrecord
280
     1
 90
        1
330
87
  0
DICTIONARY
  5
66
102
{ACAD_REACTORS
330
C
102
}
330
C
100
AcDbDictionary
281
     1
  3
CANNOSCALE
350
F0
  3
CMLEADERSTYLE
350
EF
  3
CTABLESTYLE
350
89
  3
CVIEWDETAILSTYLE
350
1B7
  3
CVIEWSECTIONSTYLE
350
1B8
  3
DIMASSOC
350
67
  3
HIDETEXT
350
6B
  3
LAYEREVAL
350
14D
  3
LAYERNOTIFY
350
14E
  0
DICTIONARY
  5
268B
102
{ACAD_REACTORS
330
C
102
}
330
C
100
AcDbDictionary
281
     1
  0
DICTIONARY
  5
18F
102
{ACAD_REACTORS
330
18E
102
}
330
18E
100
AcDbDictionary
281
     1
  0
SORTENTSTABLE
  5
28E
102
{ACAD_REACTORS
330
15D
102
}
330
15D
100
AcDbSortentsTable
330
1F
  0
ACDBDETAILVIEWSTYLE
  5
1AC
102
{ACAD_REACTORS
330
1AB
102
}
330
1AB
100
AcDbModelDocViewStyle
 70
     0
  3
Imperial24
290
     0
300
Imperial24
 90
        0
100
AcDbDetailViewStyle
 70
     0
 71
     0
 90
        3
 71
     1
340
11
 62
   256
 40
0.24
340
0
 62
   256
 40
0.24
300

 40
0.36
280
     3
 71
     2
340
16
 90
       25
 62
   256
 71
     3
340
11
 62
   256
 40
0.24
 90
        1
 40
0.75
 90
        1
300
%<\AcVar ViewType \f "%tc1">% %<\AcVar ViewDetailId>%\PSCALE %<\AcVar ViewScale \f "%sn">%
 71
     4
340
16
 90
       25
 62
   256
340
16
 90
       25
 62
   256
280
     0
  0
ACDBDETAILVIEWSTYLE
  5
224
102
{ACAD_REACTORS
330
1AB
102
}
330
1AB
100
AcDbModelDocViewStyle
 70
     0
  3
Metric50
290
     0
300
Metric50
 90
        0
100
AcDbDetailViewStyle
 70
     0
 71
     0
 90
        3
 71
     1
340
11
 62
   256
 40
5.0
340
0
 62
   256
 40
5.0
300

 40
0.0
280
     1
 71
     2
340
16
 90
       25
 62
   256
 71
     3
340
11
 62
   256
 40
5.0
 90
        0
 40
15.0
 90
        1
300
%<\AcVar ViewDetailId>% (%<\AcVar ViewScale \f "%sn">%)
 71
     4
340
16
 90
       25
 62
   256
340
16
 90
       25
 62
   256
280
     0
  0
LAYOUT
  5
59
102
{ACAD_REACTORS
330
1A
102
}
330
1A
100
AcDbPlotSettings
  1

  2
None
  4

  6

 40
0.0
 41
0.0
 42
0.0
 43
0.0
 44
0.0
 45
0.0
 46
0.0
 47
0.0
 48
0.0
 49
0.0
140
0.0
141
0.0
142
1.0
143
1.0
 70
   688
 72
     0
 73
     0
 74
     5
  7

 75
    16
147
1.0
 76
     0
 77
     2
 78
   300
148
0.0
149
0.0
100
AcDbLayout
  1
Layout1
 70
     1
 71
     1
 10
0.0
 20
0.0
 11
12.0
 21
9.0
 12
0.0
 22
0.0
 32
0.0
 14
0.0
 24
0.0
 34
0.0
 15
0.0
 25
0.0
 35
0.0
146
0.0
 13
0.0
 23
0.0
 33
0.0
 16
1.0
 26
0.0
 36
0.0
 17
0.0
 27
1.0
 37
0.0
 76
     0
330
58
  0
LAYOUT
  5
5E
102
{ACAD_REACTORS
330
1A
102
}
330
1A
100
AcDbPlotSettings
  1

  2
None
  4

  6

 40
0.0
 41
0.0
 42
0.0
 43
0.0
 44
0.0
 45
0.0
 46
0.0
 47
0.0
 48
0.0
 49
0.0
140
0.0
141
0.0
142
1.0
143
1.0
 70
   688
 72
     0
 73
     0
 74
     5
  7

 75
    16
147
1.0
 76
     0
 77
     2
 78
   300
148
0.0
149
0.0
100
AcDbLayout
  1
Layout2
 70
     1
 71
     2
 10
0.0
 20
0.0
 11
12.0
 21
9.0
 12
0.0
 22
0.0
 32
0.0
 14
0.0
 24
0.0
 34
0.0
 15
0.0
 25
0.0
 35
0.0
146
0.0
 13
0.0
 23
0.0
 33
0.0
 16
1.0
 26
0.0
 36
0.0
 17
0.0
 27
1.0
 37
0.0
 76
     0
330
5D
  0
LAYOUT
  5
22
102
{ACAD_XDICTIONARY
360
194
102
}
102
{ACAD_REACTORS
330
1A
102
}
330
1A
100
AcDbPlotSettings
  1

  2
none_device
  4
ANSI_A_(8.50_x_11.00_Inches)
  6

 40
6.349999904632568
 41
19.04999923706055
 42
6.350006103515625
 43
19.04998779296875
 44
215.8999938964844
 45
279.3999938964844
 46
0.0
 47
0.0
 48
0.0
 49
0.0
140
0.0
141
0.0
142
1.0
143
2.584895464708373
 70
 11952
 72
     0
 73
     1
 74
     0
  7

 75
     0
147
0.3868628397755418
 76
     0
 77
     2
 78
   300
148
0.0
149
0.0
100
AcDbLayout
  1
Model
 70
     1
 71
     0
 10
0.0
 20
0.0
 11
12.0
 21
9.0
 12
0.0
 22
0.0
 32
0.0
 14
0.0
 24
0.0
 34
0.0
 15
0.0
 25
0.0
 35
0.0
146
0.0
 13
0.0
 23
0.0
 33
0.0
 16
1.0
 26
0.0
 36
0.0
 17
0.0
 27
1.0
 37
0.0
 76
     0
330
1F
331
94
  0
MATERIAL
  5
97
102
{ACAD_XDICTIONARY
360
188
102
}
102
{ACAD_REACTORS
330
72
102
}
330
72
100
AcDbMaterial
  1
ByBlock
 94
       63
  0
MATERIAL
  5
96
102
{ACAD_XDICTIONARY
360
186
102
}
102
{ACAD_REACTORS
330
72
102
}
330
72
100
AcDbMaterial
  1
ByLayer
 94
       63
  0
MATERIAL
  5
98
102
{ACAD_XDICTIONARY
360
110
102
}
102
{ACAD_REACTORS
330
72
102
}
330
72
100
AcDbMaterial
  1
Global
 43
0.0208000000566244
 43
0.0
 43
0.0
 43
0.0
 43
0.0
 43
0.0208000000566244
 43
0.0
 43
0.0
 43
0.0
 43
0.0
 43
1.0
 43
0.0
 43
0.0
 43
0.0
 43
0.0
 43
1.0
 49
0.0208000000566244
 49
0.0
 49
0.0
 49
0.0
 49
0.0
 49
0.0208000000566244
 49
0.0
 49
0.0
 49
0.0
 49
0.0
 49
1.0
 49
0.0
 49
0.0
 49
0.0
 49
0.0
 49
1.0
142
0.0208000000566244
142
0.0
142
0.0
142
0.0
142
0.0
142
0.0208000000566244
142
0.0
142
0.0
142
0.0
142
0.0
142
1.0
142
0.0
142
0.0
142
0.0
142
0.0
142
1.0
144
0.0208000000566244
144
0.0
144
0.0
144
0.0
144
0.0
144
0.0208000000566244
144
0.0
144
0.0
144
0.0
144
0.0
144
1.0
144
0.0
144
0.0
144
0.0
144
0.0
144
1.0
 94
       63
1001
ACAD
1070
    -1
1070
     3
1070
     0
1000

1071
        0
1070
     0
  0
MLEADERSTYLE
  5
D8
102
{ACAD_REACTORS
330
D7
102
}
330
D7
100
AcDbMLeaderStyle
179
     2
170
     2
171
     1
172
     0
 90
        2
 40
0.0
 41
0.0
173
     1
 91
-1056964608
340
14
 92
       -2
290
     1
 42
0.09
291
     1
 43
0.36
  3
Standard
 44
0.18
300

342
11
174
     1
178
     1
175
     1
176
     0
 93
-1056964608
 45
0.18
292
     0
297
     0
 46
0.18
 94
-1056964608
 47
1.0
 49
1.0
140
1.0
293
     1
141
0.0
294
     1
177
     0
142
1.0
295
     0
296
     0
143
0.125
271
     0
272
     9
273
     9
298
     0
  0
MLINESTYLE
  5
18
102
{ACAD_REACTORS
330
17
102
}
330
17
100
AcDbMlineStyle
  2
STANDARD
 70
     0
  3

 62
   256
 51
90.0
 52
90.0
 71
     2
 49
0.5
 62
   256
  6
BYLAYER
 49
-0.5
 62
   256
  6
BYLAYER
  0
ACDBPLACEHOLDER
  5
F
102
{ACAD_REACTORS
330
E
102
}
330
E
  0
SCALE
  5
47D1
102
{ACAD_REACTORS
330
B6
102
}
330
B6
100
AcDbScale
 70
     0
300
1:100_1_XREF_XREF_XREF_XREF
140
1.0
141
0.1
290
     0
  0
SCALE
  5
8BD6
102
{ACAD_REACTORS
330
B6
102
}
330
B6
100
AcDbScale
 70
     0
300
1:100_1_XREF_XREF_XREF_XREF_XREF_XREF_XREF_XREF_XREF
140
1.0
141
0.1
290
     0
1001
ACAD
1000
AcRTDxfName
1000
SCALE
1000
AcRTDxfName
1000
SCALE
1000
AcRTDxfName
1000
SCALE
1000
AcRTDxfName
1000
SCALE
  0
SCALE
  5
B7
102
{ACAD_REACTORS
330
B6
102
}
330
B6
100
AcDbScale
 70
     0
300
1:1
140
1.0
141
1.0
290
     1
  0
SCALE
  5
124
102
{ACAD_REACTORS
330
B6
102
}
330
B6
100
AcDbScale
 70
     0
300
1:2
140
1.0
141
2.0
290
     0
  0
SCALE
  5
125
102
{ACAD_REACTORS
330
B6
102
}
330
B6
100
AcDbScale
 70
     0
300
1:4
140
1.0
141
4.0
290
     0
  0
SCALE
  5
126
102
{ACAD_REACTORS
330
B6
102
}
330
B6
100
AcDbScale
 70
     0
300
1:5
140
1.0
141
5.0
290
     0
  0
SCALE
  5
127
102
{ACAD_REACTORS
330
B6
102
}
330
B6
100
AcDbScale
 70
     0
300
1:8
140
1.0
141
8.0
290
     0
  0
SCALE
  5
128
102
{ACAD_REACTORS
330
B6
102
}
330
B6
100
AcDbScale
 70
     0
300
1:10
140
1.0
141
10.0
290
     0
  0
SCALE
  5
129
102
{ACAD_REACTORS
330
B6
102
}
330
B6
100
AcDbScale
 70
     0
300
1:16
140
1.0
141
16.0
290
     0
  0
SCALE
  5
12A
102
{ACAD_REACTORS
330
B6
102
}
330
B6
100
AcDbScale
 70
     0
300
1:20
140
1.0
141
20.0
290
     0
  0
SCALE
  5
12B
102
{ACAD_REACTORS
330
B6
102
}
330
B6
100
AcDbScale
 70
     0
300
1:30
140
1.0
141
30.0
290
     0
  0
SCALE
  5
12C
102
{ACAD_REACTORS
330
B6
102
}
330
B6
100
AcDbScale
 70
     0
300
1:40
140
1.0
141
40.0
290
     0
  0
SCALE
  5
12D
102
{ACAD_REACTORS
330
B6
102
}
330
B6
100
AcDbScale
 70
     0
300
1:50
140
1.0
141
50.0
290
     0
  0
SCALE
  5
12E
102
{ACAD_REACTORS
330
B6
102
}
330
B6
100
AcDbScale
 70
     0
300
1:100
140
1.0
141
100.0
290
     0
  0
SCALE
  5
12F
102
{ACAD_REACTORS
330
B6
102
}
330
B6
100
AcDbScale
 70
     0
300
2:1
140
2.0
141
1.0
290
     0
  0
SCALE
  5
130
102
{ACAD_REACTORS
330
B6
102
}
330
B6
100
AcDbScale
 70
     0
300
4:1
140
4.0
141
1.0
290
     0
  0
SCALE
  5
131
102
{ACAD_REACTORS
330
B6
102
}
330
B6
100
AcDbScale
 70
     0
300
8:1
140
8.0
141
1.0
290
     0
  0
SCALE
  5
132
102
{ACAD_REACTORS
330
B6
102
}
330
B6
100
AcDbScale
 70
     0
300
10:1
140
10.0
141
1.0
290
     0
  0
SCALE
  5
133
102
{ACAD_REACTORS
330
B6
102
}
330
B6
100
AcDbScale
 70
     0
300
100:1
140
100.0
141
1.0
290
     0
  0
SCALE
  5
134
102
{ACAD_REACTORS
330
B6
102
}
330
B6
100
AcDbScale
 70
     0
300
1/128" = 1'-0"
140
0.0078125
141
12.0
290
     0
  0
SCALE
  5
135
102
{ACAD_REACTORS
330
B6
102
}
330
B6
100
AcDbScale
 70
     0
300
1/64" = 1'-0"
140
0.015625
141
12.0
290
     0
  0
SCALE
  5
136
102
{ACAD_REACTORS
330
B6
102
}
330
B6
100
AcDbScale
 70
     0
300
1/32" = 1'-0"
140
0.03125
141
12.0
290
     0
  0
SCALE
  5
137
102
{ACAD_REACTORS
330
B6
102
}
330
B6
100
AcDbScale
 70
     0
300
1/16" = 1'-0"
140
0.0625
141
12.0
290
     0
  0
SCALE
  5
138
102
{ACAD_REACTORS
330
B6
102
}
330
B6
100
AcDbScale
 70
     0
300
3/32" = 1'-0"
140
0.09375
141
12.0
290
     0
  0
SCALE
  5
139
102
{ACAD_REACTORS
330
B6
102
}
330
B6
100
AcDbScale
 70
     0
300
1/8" = 1'-0"
140
0.125
141
12.0
290
     0
  0
SCALE
  5
13A
102
{ACAD_REACTORS
330
B6
102
}
330
B6
100
AcDbScale
 70
     0
300
3/16" = 1'-0"
140
0.1875
141
12.0
290
     0
  0
SCALE
  5
13B
102
{ACAD_REACTORS
330
B6
102
}
330
B6
100
AcDbScale
 70
     0
300
1/4" = 1'-0"
140
0.25
141
12.0
290
     0
  0
SCALE
  5
13C
102
{ACAD_REACTORS
330
B6
102
}
330
B6
100
AcDbScale
 70
     0
300
3/8" = 1'-0"
140
0.375
141
12.0
290
     0
  0
SCALE
  5
13D
102
{ACAD_REACTORS
330
B6
102
}
330
B6
100
AcDbScale
 70
     0
300
1/2" = 1'-0"
140
0.5
141
12.0
290
     0
  0
SCALE
  5
13E
102
{ACAD_REACTORS
330
B6
102
}
330
B6
100
AcDbScale
 70
     0
300
3/4" = 1'-0"
140
0.75
141
12.0
290
     0
  0
SCALE
  5
13F
102
{ACAD_REACTORS
330
B6
102
}
330
B6
100
AcDbScale
 70
     0
300
1" = 1'-0"
140
1.0
141
12.0
290
     0
  0
SCALE
  5
140
102
{ACAD_REACTORS
330
B6
102
}
330
B6
100
AcDbScale
 70
     0
300
1-1/2" = 1'-0"
140
1.5
141
12.0
290
     0
  0
SCALE
  5
141
102
{ACAD_REACTORS
330
B6
102
}
330
B6
100
AcDbScale
 70
     0
300
3" = 1'-0"
140
3.0
141
12.0
290
     0
  0
SCALE
  5
142
102
{ACAD_REACTORS
330
B6
102
}
330
B6
100
AcDbScale
 70
     0
300
6" = 1'-0"
140
6.0
141
12.0
290
     0
  0
SCALE
  5
143
102
{ACAD_REACTORS
330
B6
102
}
330
B6
100
AcDbScale
 70
     0
300
1'-0" = 1'-0"
140
12.0
141
12.0
290
     0
  0
ACDBSECTIONVIEWSTYLE
  5
1AA
102
{ACAD_REACTORS
330
1A8
102
}
330
1A8
100
AcDbModelDocViewStyle
 70
     0
  3
Imperial24
290
     0
300
Imperial24
 90
        0
100
AcDbSectionViewStyle
 70
     0
 71
     0
 90
       78
 71
     1
340
11
 62
   256
 40
0.24
340
0
340
0
 62
   256
 40
0.24
300
I, O, Q, S, X, Z
 40
0.48
 90
        3
 40
0.18
 90
        1
 71
     2
340
16
 90
       25
 62
   256
340
16
 90
       50
 62
   256
 40
0.24
 40
0.0
 40
0.24
 71
     3
340
11
 62
   256
 40
0.24
 90
        1
 40
0.75
 90
        1
300
%<\AcVar ViewType \f "%tc1">% %<\AcVar ViewSectionStartId>%-%<\AcVar ViewSectionEndId>%\PSCALE %<\AcVar ViewScale \f "%sn">%
 71
     4
 62
   256
 62
   257
300
ANSI31
 40
1.0
 90
        0
290
     0
290
     0
 90
        6
 40
0.0
 40
1.570796326794896
 40
0.2617993877991494
 40
1.308996938995747
 40
-0.2617993877991494
 40
1.832595714594046
  0
ACDBSECTIONVIEWSTYLE
  5
223
102
{ACAD_REACTORS
330
1A8
102
}
330
1A8
100
AcDbModelDocViewStyle
 70
     0
  3
Metric50
290
     0
300
Metric50
 90
        0
100
AcDbSectionViewStyle
 70
     0
 71
     0
 90
      102
 71
     1
340
11
 62
   256
 40
5.0
340
0
340
0
 62
   256
 40
5.0
300
I, O, Q, S, X, Z
 40
10.0
 90
        0
 40
2.5
 90
        0
 71
     2
340
16
 90
       25
 62
   256
340
16
 90
       50
 62
   256
 40
5.0
 40
2.5
 40
5.0
 71
     3
340
11
 62
   256
 40
5.0
 90
        0
 40
15.0
 90
        1
300
%<\AcVar ViewSectionStartId>%-%<\AcVar ViewSectionEndId>% (%<\AcVar ViewScale \f "%sn">%)
 71
     4
 62
   256
 62
   257
300
ANSI31
 40
1.0
 90
        0
290
     0
290
     0
 90
        6
 40
0.0
 40
1.570796326794896
 40
0.2617993877991494
 40
1.308996938995747
 40
-0.2617993877991494
 40
1.832595714594046
  0
TABLESTYLE
  5
87
102
{ACAD_XDICTIONARY
360
104
102
}
102
{ACAD_REACTORS
330
86
102
}
330
86
100
AcDbTableStyle
280
     0
  3
Standard
 70
     0
 71
     0
 40
0.06
 41
0.06
280
     0
281
     0
  7
Standard
140
0.18
170
     2
 62
     0
 63
     7
283
     0
 90
      512
 91
        0
  1

274
    -2
284
     1
 64
     0
275
    -2
285
     1
 65
     0
276
    -2
286
     1
 66
     0
277
    -2
287
     1
 67
     0
278
    -2
288
     1
 68
     0
279
    -2
289
     1
 69
     0
  7
Standard
140
0.25
170
     5
 62
     0
 63
     7
283
     0
 90
      512
 91
        0
  1

274
    -2
284
     1
 64
     0
275
    -2
285
     1
 65
     0
276
    -2
286
     1
 66
     0
277
    -2
287
     1
 67
     0
278
    -2
288
     1
 68
     0
279
    -2
289
     1
 69
     0
  7
Standard
140
0.18
170
     5
 62
     0
 63
     7
283
     0
 90
      512
 91
        0
  1

274
    -2
284
     1
 64
     0
275
    -2
285
     1
 65
     0
276
    -2
286
     1
 66
     0
277
    -2
287
     1
 67
     0
278
    -2
288
     1
 68
     0
279
    -2
289
     1
 69
     0
  0
VISUALSTYLE
  5
9F
102
{ACAD_REACTORS
330
99
102
}
330
99
100
AcDbVisualStyle
  2
2dWireframe
 70
     4
177
     3
291
     0
 70
    58
 90
        0
176
     1
 90
        2
176
     1
 90
        1
176
     1
 90
        0
176
     1
 40
0.6
176
     1
 40
30.0
176
     1
 62
     7
420
 16777215
176
     1
 90
        1
176
     1
 90
        4
176
     1
 62
     7
176
     1
 62
   257
176
     1
 90
        1
176
     1
 90
        1
176
     1
 40
1.0
176
     1
 90
        0
176
     1
 62
   257
176
     1
 40
1.0
176
     1
 90
        1
176
     1
 90
        6
176
     1
 90
        2
176
     1
 62
     7
176
     1
 90
        5
176
     1
 90
        0
176
     1
 90
        0
176
     1
290
     0
176
     1
 90
        1
176
     1
 40
0.0
176
     1
 90
        0
176
     1
290
     1
176
     1
290
     1
176
     1
290
     0
176
     1
290
     0
176
     1
290
     0
176
     1
290
     0
176
     1
290
     0
176
     1
290
     0
176
     1
290
     0
176
     1
 90
       50
176
     1
 40
0.0
176
     1
 40
1.0
176
     1
 90
        0
176
     1
 62
    18
420
        0
176
     1
 90
       50
176
     1
 90
        3
176
     1
 62
     5
420
      255
176
     1
290
     0
176
     1
 90
       50
176
     1
 90
       50
176
     1
 90
       50
176
     1
290
     0
176
     1
 90
       50
176
     1
 62
   256
176
     0
 40
1.0
176
     0
 90
        2
176
     1
  1
strokes_ogs.tif
176
     1
290
     0
176
     1
 40
1.0
176
     1
 40
1.0
176
     1
  0
VISUALSTYLE
  5
2684
102
{ACAD_REACTORS
330
99
102
}
330
99
100
AcDbVisualStyle
  2
3dWireframe
 70
     5
177
     3
291
     0
 70
    58
 90
        0
176
     1
 90
        2
176
     1
 90
        0
176
     1
 90
        0
176
     1
 40
0.6
176
     1
 40
30.0
176
     1
 62
     7
176
     1
 90
        1
176
     1
 90
        4
176
     1
 62
     7
176
     1
 62
   257
176
     1
 90
        1
176
     1
 90
        1
176
     1
 40
1.0
176
     1
 90
        0
176
     1
 62
   257
176
     1
 40
1.0
176
     1
 90
        1
176
     1
 90
        6
176
     1
 90
        2
176
     1
 62
     7
176
     1
 90
        5
176
     1
 90
        0
176
     1
 90
        0
176
     1
290
     0
176
     1
 90
        1
176
     1
 40
0.0
176
     1
 90
        0
176
     1
290
     0
176
     1
290
     1
176
     1
290
     1
176
     1
290
     0
176
     1
290
     0
176
     1
290
     0
176
     1
290
     0
176
     1
290
     0
176
     1
290
     0
176
     1
 90
       50
176
     1
 40
0.0
176
     1
 40
1.0
176
     1
 90
        0
176
     1
 62
    18
420
        0
176
     1
 90
       50
176
     1
 90
        3
176
     1
 62
     5
420
      255
176
     1
290
     0
176
     1
 90
       50
176
     1
 90
       50
176
     1
 90
       50
176
     1
290
     0
176
     1
 90
       50
176
     1
 62
   256
176
     0
 40
1.0
176
     0
 90
        2
176
     1
  1
strokes_ogs.tif
176
     1
290
     0
176
     1
 40
1.0
176
     1
 40
1.0
176
     1
1001
ACAD
1000
AcRTDxfName
1000
VISUALSTYLE
  0
VISUALSTYLE
  5
9E
102
{ACAD_REACTORS
330
99
102
}
330
99
100
AcDbVisualStyle
  2
Basic
 70
     7
177
     3
291
     1
 70
    58
 90
        1
176
     1
 90
        0
176
     1
 90
        1
176
     1
 90
        0
176
     1
 40
0.6
176
     1
 40
30.0
176
     1
 62
     7
420
 16777215
176
     1
 90
        0
176
     1
 90
        4
176
     1
 62
     7
176
     1
 62
   257
176
     1
 90
        1
176
     1
 90
        1
176
     1
 40
1.0
176
     1
 90
        8
176
     1
 62
     7
176
     1
 40
1.0
176
     1
 90
        1
176
     1
 90
        6
176
     1
 90
        2
176
     1
 62
     7
176
     1
 90
        5
176
     1
 90
        0
176
     1
 90
        0
176
     1
290
     0
176
     1
 90
        1
176
     1
 40
0.0
176
     1
 90
        0
176
     1
290
     0
176
     1
290
     1
176
     1
290
     1
176
     1
290
     0
176
     1
290
     0
176
     1
290
     0
176
     1
290
     0
176
     1
290
     0
176
     1
290
     0
176
     1
 90
       50
176
     1
 40
0.0
176
     1
 40
1.0
176
     1
 90
        0
176
     1
 62
    18
420
        0
176
     1
 90
       50
176
     1
 90
        3
176
     1
 62
     5
420
      255
176
     1
290
     0
176
     1
 90
       50
176
     1
 90
       50
176
     1
 90
       50
176
     1
290
     0
176
     1
 90
       50
176
     1
 62
   256
176
     0
 40
1.0
176
     0
 90
        2
176
     1
  1
strokes_ogs.tif
176
     1
290
     0
176
     1
 40
1.0
176
     1
 40
1.0
176
     1
  0
VISUALSTYLE
  5
A5
102
{ACAD_REACTORS
330
99
102
}
330
99
100
AcDbVisualStyle
  2
Brighten
 70
    12
177
     3
291
     1
 70
    58
 90
        2
176
     1
 90
        2
176
     1
 90
        1
176
     1
 90
        0
176
     1
 40
0.6
176
     1
 40
30.0
176
     1
 62
     7
420
 16777215
176
     1
 90
        1
176
     1
 90
        4
176
     1
 62
     7
176
     1
 62
   257
176
     1
 90
        1
176
     1
 90
        1
176
     1
 40
1.0
176
     1
 90
        8
176
     1
 62
     7
176
     1
 40
1.0
176
     1
 90
        1
176
     1
 90
        6
176
     1
 90
        2
176
     1
 62
     7
176
     1
 90
        5
176
     1
 90
        0
176
     1
 90
        0
176
     1
290
     0
176
     1
 90
        1
176
     1
 40
50.0
176
     1
 90
        0
176
     1
290
     0
176
     1
290
     1
176
     1
290
     1
176
     1
290
     0
176
     1
290
     0
176
     1
290
     0
176
     1
290
     0
176
     1
290
     0
176
     1
290
     0
176
     1
 90
       50
176
     1
 40
0.0
176
     1
 40
1.0
176
     1
 90
        0
176
     1
 62
    18
420
        0
176
     1
 90
       50
176
     1
 90
        3
176
     1
 62
     5
420
      255
176
     1
290
     0
176
     1
 90
       50
176
     1
 90
       50
176
     1
 90
       50
176
     1
290
     0
176
     1
 90
       50
176
     1
 62
   256
176
     0
 40
1.0
176
     0
 90
        2
176
     1
  1
strokes_ogs.tif
176
     1
290
     0
176
     1
 40
1.0
176
     1
 40
1.0
176
     1
  0
VISUALSTYLE
  5
A9
102
{ACAD_REACTORS
330
99
102
}
330
99
100
AcDbVisualStyle
  2
ColorChange
 70
    16
177
     3
291
     1
 70
    58
 90
        2
176
     1
 90
        2
176
     1
 90
        3
176
     1
 90
        0
176
     1
 40
0.6
176
     1
 40
30.0
176
     1
 62
     8
420
  8421504
176
     1
 90
        1
176
     1
 90
        4
176
     1
 62
     7
176
     1
 62
   257
176
     1
 90
        1
176
     1
 90
        1
176
     1
 40
1.0
176
     1
 90
        8
176
     1
 62
     8
420
  8421504
176
     1
 40
1.0
176
     1
 90
        1
176
     1
 90
        6
176
     1
 90
        2
176
     1
 62
     7
176
     1
 90
        5
176
     1
 90
        0
176
     1
 90
        0
176
     1
290
     0
176
     1
 90
        1
176
     1
 40
0.0
176
     1
 90
        0
176
     1
290
     0
176
     1
290
     1
176
     1
290
     1
176
     1
290
     0
176
     1
290
     0
176
     1
290
     0
176
     1
290
     0
176
     1
290
     0
176
     1
290
     0
176
     1
 90
       50
176
     1
 40
0.0
176
     1
 40
1.0
176
     1
 90
        0
176
     1
 62
    18
420
        0
176
     1
 90
       50
176
     1
 90
        3
176
     1
 62
     5
420
      255
176
     1
290
     0
176
     1
 90
       50
176
     1
 90
       50
176
     1
 90
       50
176
     1
290
     0
176
     1
 90
       50
176
     1
 62
   256
176
     0
 40
1.0
176
     0
 90
        2
176
     1
  1
strokes_ogs.tif
176
     1
290
     0
176
     1
 40
1.0
176
     1
 40
1.0
176
     1
  0
VISUALSTYLE
  5
A2
102
{ACAD_REACTORS
330
99
102
}
330
99
100
AcDbVisualStyle
  2
Conceptual
 70
     9
177
     3
291
     0
 70
    58
 90
        3
176
     1
 90
        2
176
     1
 90
        1
176
     1
 90
        0
176
     1
 40
0.6
176
     1
 40
30.0
176
     1
 62
     7
420
 16777215
176
     1
 90
        2
176
     1
 90
        2
176
     1
 62
     7
176
     1
 62
   257
176
     1
 90
        1
176
     1
 90
        1
176
     1
 40
40.0
176
     1
 90
        8
176
     1
 62
     7
176
     1
 40
1.0
176
     1
 90
        1
176
     1
 90
        6
176
     1
 90
        2
176
     1
 62
     7
176
     1
 90
        3
176
     1
 90
        0
176
     1
 90
        0
176
     1
290
     0
176
     1
 90
        1
176
     1
 40
0.0
176
     1
 90
        0
176
     1
290
     0
176
     1
290
     1
176
     1
290
     1
176
     1
290
     0
176
     1
290
     0
176
     1
290
     0
176
     1
290
     0
176
     1
290
     0
176
     1
290
     0
176
     1
 90
       50
176
     1
 40
0.0
176
     1
 40
1.0
176
     1
 90
        0
176
     1
 62
    18
420
        0
176
     1
 90
       50
176
     1
 90
        3
176
     1
 62
     5
420
      255
176
     1
290
     0
176
     1
 90
       50
176
     1
 90
       50
176
     1
 90
       50
176
     1
290
     0
176
     1
 90
       50
176
     1
 62
   256
176
     0
 40
1.0
176
     0
 90
        2
176
     1
  1
strokes_ogs.tif
176
     1
290
     0
176
     1
 40
1.0
176
     1
 40
1.0
176
     1
  0
VISUALSTYLE
  5
A4
102
{ACAD_REACTORS
330
99
102
}
330
99
100
AcDbVisualStyle
  2
Dim
 70
    11
177
     3
291
     1
 70
    58
 90
        2
176
     1
 90
        2
176
     1
 90
        1
176
     1
 90
        0
176
     1
 40
0.6
176
     1
 40
30.0
176
     1
 62
     7
420
 16777215
176
     1
 90
        1
176
     1
 90
        4
176
     1
 62
     7
176
     1
 62
   257
176
     1
 90
        1
176
     1
 90
        1
176
     1
 40
1.0
176
     1
 90
        8
176
     1
 62
     7
176
     1
 40
1.0
176
     1
 90
        1
176
     1
 90
        6
176
     1
 90
        2
176
     1
 62
     7
176
     1
 90
        5
176
     1
 90
        0
176
     1
 90
        0
176
     1
290
     0
176
     1
 90
        1
176
     1
 40
-50.0
176
     1
 90
        0
176
     1
290
     0
176
     1
290
     1
176
     1
290
     1
176
     1
290
     0
176
     1
290
     0
176
     1
290
     0
176
     1
290
     0
176
     1
290
     0
176
     1
290
     0
176
     1
 90
       50
176
     1
 40
0.0
176
     1
 40
1.0
176
     1
 90
        0
176
     1
 62
    18
420
        0
176
     1
 90
       50
176
     1
 90
        3
176
     1
 62
     5
420
      255
176
     1
290
     0
176
     1
 90
       50
176
     1
 90
       50
176
     1
 90
       50
176
     1
290
     0
176
     1
 90
       50
176
     1
 62
   256
176
     0
 40
1.0
176
     0
 90
        2
176
     1
  1
strokes_ogs.tif
176
     1
290
     0
176
     1
 40
1.0
176
     1
 40
1.0
176
     1
  0
VISUALSTYLE
  5
175
102
{ACAD_REACTORS
330
99
102
}
330
99
100
AcDbVisualStyle
  2
EdgeColorOff
 70
    22
177
     3
291
     1
 70
    58
 90
        2
176
     0
 90
        2
176
     0
 90
        0
176
     0
 90
        0
176
     0
 40
0.6
176
     0
 40
30.0
176
     0
 62
     7
420
 16777215
176
     0
 90
        1
176
     0
 90
        4
176
     0
 62
     7
176
     0
 62
   257
176
     0
 90
        1
176
     0
 90
        1
176
     0
 40
1.0
176
     0
 90
        8
176
     2
 62
     7
176
     0
 40
1.0
176
     0
 90
        1
176
     0
 90
        6
176
     0
 90
        2
176
     0
 62
     7
176
     0
 90
        5
176
     0
 90
        0
176
     0
 90
        0
176
     0
290
     0
176
     0
 90
        1
176
     0
 40
0.0
176
     0
 90
        0
176
     0
290
     0
176
     1
290
     1
176
     1
290
     1
176
     1
290
     0
176
     1
290
     0
176
     1
290
     0
176
     1
290
     0
176
     1
290
     0
176
     1
290
     0
176
     1
 90
       50
176
     1
 40
0.0
176
     1
 40
1.0
176
     1
 90
        0
176
     1
 62
    18
420
        0
176
     1
 90
       50
176
     1
 90
        3
176
     1
 62
     5
420
      255
176
     1
290
     0
176
     1
 90
       50
176
     1
 90
       50
176
     1
 90
       50
176
     1
290
     0
176
     1
 90
       50
176
     1
 62
   256
176
     0
 40
1.0
176
     0
 90
        2
176
     1
  1
strokes_ogs.tif
176
     1
290
     0
176
     1
 40
1.0
176
     1
 40
1.0
176
     1
  0
VISUALSTYLE
  5
A8
102
{ACAD_REACTORS
330
99
102
}
330
99
100
AcDbVisualStyle
  2
Facepattern
 70
    15
177
     3
291
     1
 70
    58
 90
        2
176
     1
 90
        2
176
     1
 90
        1
176
     1
 90
        0
176
     1
 40
0.6
176
     1
 40
30.0
176
     1
 62
     7
420
 16777215
176
     1
 90
        1
176
     1
 90
        4
176
     1
 62
     7
176
     1
 62
   257
176
     1
 90
        1
176
     1
 90
        1
176
     1
 40
1.0
176
     1
 90
        8
176
     1
 62
     7
176
     1
 40
1.0
176
     1
 90
        1
176
     1
 90
        6
176
     1
 90
        2
176
     1
 62
     7
176
     1
 90
        5
176
     1
 90
        0
176
     1
 90
        0
176
     1
290
     0
176
     1
 90
        1
176
     1
 40
0.0
176
     1
 90
        0
176
     1
290
     0
176
     1
290
     1
176
     1
290
     1
176
     1
290
     0
176
     1
290
     0
176
     1
290
     0
176
     1
290
     0
176
     1
290
     0
176
     1
290
     0
176
     1
 90
       50
176
     1
 40
0.0
176
     1
 40
1.0
176
     1
 90
        0
176
     1
 62
    18
420
        0
176
     1
 90
       50
176
     1
 90
        3
176
     1
 62
     5
420
      255
176
     1
290
     0
176
     1
 90
       50
176
     1
 90
       50
176
     1
 90
       50
176
     1
290
     0
176
     1
 90
       50
176
     1
 62
   256
176
     0
 40
1.0
176
     0
 90
        2
176
     1
  1
strokes_ogs.tif
176
     1
290
     0
176
     1
 40
1.0
176
     1
 40
1.0
176
     1
  0
VISUALSTYLE
  5
9A
102
{ACAD_REACTORS
330
99
102
}
330
99
100
AcDbVisualStyle
  2
Flat
 70
     0
177
     3
291
     1
 70
    58
 90
        2
176
     1
 90
        1
176
     1
 90
        1
176
     1
 90
        2
176
     1
 40
0.6
176
     1
 40
30.0
176
     1
 62
     7
420
 16777215
176
     1
 90
        0
176
     1
 90
        0
176
     1
 62
     7
176
     1
 62
   257
176
     1
 90
        1
176
     1
 90
        1
176
     1
 40
1.0
176
     1
 90
        8
176
     1
 62
     7
176
     1
 40
1.0
176
     1
 90
        1
176
     1
 90
        6
176
     1
 90
        2
176
     1
 62
     7
176
     1
 90
        5
176
     1
 90
        0
176
     1
 90
        0
176
     1
290
     0
176
     1
 90
       13
176
     1
 40
0.0
176
     1
 90
        0
176
     1
290
     0
176
     1
290
     1
176
     1
290
     1
176
     1
290
     0
176
     1
290
     0
176
     1
290
     0
176
     1
290
     0
176
     1
290
     0
176
     1
290
     0
176
     1
 90
       50
176
     1
 40
0.0
176
     1
 40
1.0
176
     1
 90
        0
176
     1
 62
    18
420
        0
176
     1
 90
       50
176
     1
 90
        3
176
     1
 62
     5
420
      255
176
     1
290
     0
176
     1
 90
       50
176
     1
 90
       50
176
     1
 90
       50
176
     1
290
     0
176
     1
 90
       50
176
     1
 62
   256
176
     0
 40
1.0
176
     0
 90
        2
176
     1
  1
strokes_ogs.tif
176
     1
290
     0
176
     1
 40
1.0
176
     1
 40
1.0
176
     1
  0
VISUALSTYLE
  5
9B
102
{ACAD_REACTORS
330
99
102
}
330
99
100
AcDbVisualStyle
  2
FlatWithEdges
 70
     1
177
     3
291
     1
 70
    58
 90
        2
176
     1
 90
        1
176
     1
 90
        1
176
     1
 90
        2
176
     1
 40
0.6
176
     1
 40
30.0
176
     1
 62
     7
420
 16777215
176
     1
 90
        1
176
     1
 90
        0
176
     1
 62
     7
176
     1
 62
   257
176
     1
 90
        1
176
     1
 90
        1
176
     1
 40
1.0
176
     1
 90
        0
176
     1
 62
   257
176
     1
 40
1.0
176
     1
 90
        1
176
     1
 90
        6
176
     1
 90
        2
176
     1
 62
     7
176
     1
 90
        5
176
     1
 90
        0
176
     1
 90
        0
176
     1
290
     0
176
     1
 90
       13
176
     1
 40
0.0
176
     1
 90
        0
176
     1
290
     0
176
     1
290
     1
176
     1
290
     1
176
     1
290
     0
176
     1
290
     0
176
     1
290
     0
176
     1
290
     0
176
     1
290
     0
176
     1
290
     0
176
     1
 90
       50
176
     1
 40
0.0
176
     1
 40
1.0
176
     1
 90
        0
176
     1
 62
    18
420
        0
176
     1
 90
       50
176
     1
 90
        3
176
     1
 62
     5
420
      255
176
     1
290
     0
176
     1
 90
       50
176
     1
 90
       50
176
     1
 90
       50
176
     1
290
     0
176
     1
 90
       50
176
     1
 62
   256
176
     0
 40
1.0
176
     0
 90
        2
176
     1
  1
strokes_ogs.tif
176
     1
290
     0
176
     1
 40
1.0
176
     1
 40
1.0
176
     1
  0
VISUALSTYLE
  5
9C
102
{ACAD_REACTORS
330
99
102
}
330
99
100
AcDbVisualStyle
  2
Gouraud
 70
     2
177
     3
291
     1
 70
    58
 90
        2
176
     1
 90
        2
176
     1
 90
        1
176
     1
 90
        2
176
     1
 40
0.6
176
     1
 40
30.0
176
     1
 62
     7
420
 16777215
176
     1
 90
        0
176
     1
 90
        0
176
     1
 62
     7
176
     1
 62
   257
176
     1
 90
        1
176
     1
 90
        1
176
     1
 40
1.0
176
     1
 90
        0
176
     1
 62
     7
176
     1
 40
1.0
176
     1
 90
        1
176
     1
 90
        6
176
     1
 90
        2
176
     1
 62
     7
176
     1
 90
        5
176
     1
 90
        0
176
     1
 90
        0
176
     1
290
     0
176
     1
 90
       13
176
     1
 40
0.0
176
     1
 90
        0
176
     1
290
     0
176
     1
290
     1
176
     1
290
     1
176
     1
290
     0
176
     1
290
     0
176
     1
290
     0
176
     1
290
     0
176
     1
290
     0
176
     1
290
     0
176
     1
 90
       50
176
     1
 40
0.0
176
     1
 40
1.0
176
     1
 90
        0
176
     1
 62
    18
420
        0
176
     1
 90
       50
176
     1
 90
        3
176
     1
 62
     5
420
      255
176
     1
290
     0
176
     1
 90
       50
176
     1
 90
       50
176
     1
 90
       50
176
     1
290
     0
176
     1
 90
       50
176
     1
 62
   256
176
     0
 40
1.0
176
     0
 90
        2
176
     1
  1
strokes_ogs.tif
176
     1
290
     0
176
     1
 40
1.0
176
     1
 40
1.0
176
     1
  0
VISUALSTYLE
  5
9D
102
{ACAD_REACTORS
330
99
102
}
330
99
100
AcDbVisualStyle
  2
GouraudWithEdges
 70
     3
177
     3
291
     1
 70
    58
 90
        2
176
     1
 90
        2
176
     1
 90
        1
176
     1
 90
        2
176
     1
 40
0.6
176
     1
 40
30.0
176
     1
 62
     7
420
 16777215
176
     1
 90
        1
176
     1
 90
        0
176
     1
 62
     7
176
     1
 62
   257
176
     1
 90
        1
176
     1
 90
        1
176
     1
 40
1.0
176
     1
 90
        0
176
     1
 62
   257
176
     1
 40
1.0
176
     1
 90
        1
176
     1
 90
        6
176
     1
 90
        2
176
     1
 62
     7
176
     1
 90
        5
176
     1
 90
        0
176
     1
 90
        0
176
     1
290
     0
176
     1
 90
       13
176
     1
 40
0.0
176
     1
 90
        0
176
     1
290
     0
176
     1
290
     1
176
     1
290
     1
176
     1
290
     0
176
     1
290
     0
176
     1
290
     0
176
     1
290
     0
176
     1
290
     0
176
     1
290
     0
176
     1
 90
       50
176
     1
 40
0.0
176
     1
 40
1.0
176
     1
 90
        0
176
     1
 62
    18
420
        0
176
     1
 90
       50
176
     1
 90
        3
176
     1
 62
     5
420
      255
176
     1
290
     0
176
     1
 90
       50
176
     1
 90
       50
176
     1
 90
       50
176
     1
290
     0
176
     1
 90
       50
176
     1
 62
   256
176
     0
 40
1.0
176
     0
 90
        2
176
     1
  1
strokes_ogs.tif
176
     1
290
     0
176
     1
 40
1.0
176
     1
 40
1.0
176
     1
  0
VISUALSTYLE
  5
A1
102
{ACAD_REACTORS
330
99
102
}
330
99
100
AcDbVisualStyle
  2
Hidden
 70
     6
177
     3
291
     0
 70
    58
 90
        1
176
     1
 90
        2
176
     1
 90
        2
176
     1
 90
        0
176
     1
 40
0.6
176
     1
 40
30.0
176
     1
 62
     7
420
 16777215
176
     1
 90
        2
176
     1
 90
        2
176
     1
 62
     7
176
     1
 62
   257
176
     1
 90
        2
176
     1
 90
        1
176
     1
 40
40.0
176
     1
 90
        0
176
     1
 62
   257
176
     1
 40
1.0
176
     1
 90
        1
176
     1
 90
        6
176
     1
 90
        2
176
     1
 62
     7
176
     1
 90
        3
176
     1
 90
        0
176
     1
 90
        0
176
     1
290
     0
176
     1
 90
        1
176
     1
 40
0.0
176
     1
 90
        0
176
     1
290
     0
176
     1
290
     1
176
     1
290
     1
176
     1
290
     0
176
     1
290
     0
176
     1
290
     0
176
     1
290
     0
176
     1
290
     0
176
     1
290
     0
176
     1
 90
       50
176
     1
 40
0.0
176
     1
 40
1.0
176
     1
 90
        0
176
     1
 62
    18
420
        0
176
     1
 90
       50
176
     1
 90
        3
176
     1
 62
     5
420
      255
176
     1
290
     0
176
     1
 90
       50
176
     1
 90
       50
176
     1
 90
       50
176
     1
290
     0
176
     1
 90
       50
176
     1
 62
   256
176
     0
 40
1.0
176
     0
 90
        2
176
     1
  1
strokes_ogs.tif
176
     1
290
     0
176
     1
 40
1.0
176
     1
 40
1.0
176
     1
  0
VISUALSTYLE
  5
173
102
{ACAD_REACTORS
330
99
102
}
330
99
100
AcDbVisualStyle
  2
JitterOff
 70
    20
177
     3
291
     1
 70
    58
 90
        2
176
     0
 90
        2
176
     0
 90
        0
176
     0
 90
        0
176
     0
 40
0.6
176
     0
 40
30.0
176
     0
 62
     7
420
 16777215
176
     0
 90
        1
176
     0
 90
        4
176
     0
 62
     7
176
     0
 62
   257
176
     0
 90
        1
176
     0
 90
        1
176
     0
 40
1.0
176
     0
 90
       10
176
     2
 62
     7
176
     0
 40
1.0
176
     0
 90
        1
176
     0
 90
        6
176
     0
 90
        2
176
     0
 62
     7
176
     0
 90
        5
176
     0
 90
        0
176
     0
 90
        0
176
     0
290
     0
176
     0
 90
        1
176
     0
 40
0.0
176
     0
 90
        0
176
     0
290
     0
176
     1
290
     1
176
     1
290
     1
176
     1
290
     0
176
     1
290
     0
176
     1
290
     0
176
     1
290
     0
176
     1
290
     0
176
     1
290
     0
176
     1
 90
       50
176
     1
 40
0.0
176
     1
 40
1.0
176
     1
 90
        0
176
     1
 62
    18
420
        0
176
     1
 90
       50
176
     1
 90
        3
176
     1
 62
     5
420
      255
176
     1
290
     0
176
     1
 90
       50
176
     1
 90
       50
176
     1
 90
       50
176
     1
290
     0
176
     1
 90
       50
176
     1
 62
   256
176
     0
 40
1.0
176
     0
 90
        2
176
     1
  1
strokes_ogs.tif
176
     1
290
     0
176
     1
 40
1.0
176
     1
 40
1.0
176
     1
  0
VISUALSTYLE
  5
A7
102
{ACAD_REACTORS
330
99
102
}
330
99
100
AcDbVisualStyle
  2
Linepattern
 70
    14
177
     3
291
     1
 70
    58
 90
        2
176
     1
 90
        2
176
     1
 90
        1
176
     1
 90
        0
176
     1
 40
0.6
176
     1
 40
30.0
176
     1
 62
     7
420
 16777215
176
     1
 90
        1
176
     1
 90
        4
176
     1
 62
     7
176
     1
 62
   257
176
     1
 90
        7
176
     1
 90
        7
176
     1
 40
1.0
176
     1
 90
        8
176
     1
 62
     7
176
     1
 40
1.0
176
     1
 90
        1
176
     1
 90
        6
176
     1
 90
        2
176
     1
 62
     7
176
     1
 90
        5
176
     1
 90
        0
176
     1
 90
        0
176
     1
290
     0
176
     1
 90
        1
176
     1
 40
0.0
176
     1
 90
        0
176
     1
290
     0
176
     1
290
     1
176
     1
290
     1
176
     1
290
     0
176
     1
290
     0
176
     1
290
     0
176
     1
290
     0
176
     1
290
     0
176
     1
290
     0
176
     1
 90
       50
176
     1
 40
0.0
176
     1
 40
1.0
176
     1
 90
        0
176
     1
 62
    18
420
        0
176
     1
 90
       50
176
     1
 90
        3
176
     1
 62
     5
420
      255
176
     1
290
     0
176
     1
 90
       50
176
     1
 90
       50
176
     1
 90
       50
176
     1
290
     0
176
     1
 90
       50
176
     1
 62
   256
176
     0
 40
1.0
176
     0
 90
        2
176
     1
  1
strokes_ogs.tif
176
     1
290
     0
176
     1
 40
1.0
176
     1
 40
1.0
176
     1
  0
VISUALSTYLE
  5
174
102
{ACAD_REACTORS
330
99
102
}
330
99
100
AcDbVisualStyle
  2
OverhangOff
 70
    21
177
     3
291
     1
 70
    58
 90
        2
176
     0
 90
        2
176
     0
 90
        0
176
     0
 90
        0
176
     0
 40
0.6
176
     0
 40
30.0
176
     0
 62
     7
420
 16777215
176
     0
 90
        1
176
     0
 90
        4
176
     0
 62
     7
176
     0
 62
   257
176
     0
 90
        1
176
     0
 90
        1
176
     0
 40
1.0
176
     0
 90
        9
176
     2
 62
     7
176
     0
 40
1.0
176
     0
 90
        1
176
     0
 90
        6
176
     0
 90
        2
176
     0
 62
     7
176
     0
 90
        5
176
     0
 90
        0
176
     0
 90
        0
176
     0
290
     0
176
     0
 90
        1
176
     0
 40
0.0
176
     0
 90
        0
176
     0
290
     0
176
     1
290
     1
176
     1
290
     1
176
     1
290
     0
176
     1
290
     0
176
     1
290
     0
176
     1
290
     0
176
     1
290
     0
176
     1
290
     0
176
     1
 90
       50
176
     1
 40
0.0
176
     1
 40
1.0
176
     1
 90
        0
176
     1
 62
    18
420
        0
176
     1
 90
       50
176
     1
 90
        3
176
     1
 62
     5
420
      255
176
     1
290
     0
176
     1
 90
       50
176
     1
 90
       50
176
     1
 90
       50
176
     1
290
     0
176
     1
 90
       50
176
     1
 62
   256
176
     0
 40
1.0
176
     0
 90
        2
176
     1
  1
strokes_ogs.tif
176
     1
290
     0
176
     1
 40
1.0
176
     1
 40
1.0
176
     1
  0
VISUALSTYLE
  5
A3
102
{ACAD_REACTORS
330
99
102
}
330
99
100
AcDbVisualStyle
  2
Realistic
 70
     8
177
     3
291
     0
 70
    58
 90
        2
176
     1
 90
        2
176
     1
 90
        0
176
     1
 90
        2
176
     1
 40
0.6
176
     1
 40
30.0
176
     1
 62
     7
420
 16777215
176
     1
 90
        0
176
     1
 90
        0
176
     1
 62
     7
176
     1
 62
   257
176
     1
 90
        1
176
     1
 90
        1
176
     1
 40
1.0
176
     1
 90
        8
176
     1
 62
   257
176
     1
 40
1.0
176
     1
 90
        1
176
     1
 90
        6
176
     1
 90
        2
176
     1
 62
     7
176
     1
 90
        3
176
     1
 90
        0
176
     1
 90
        0
176
     1
290
     0
176
     1
 90
       13
176
     1
 40
0.0
176
     1
 90
        0
176
     1
290
     0
176
     1
290
     1
176
     1
290
     1
176
     1
290
     0
176
     1
290
     0
176
     1
290
     0
176
     1
290
     0
176
     1
290
     0
176
     1
290
     0
176
     1
 90
       50
176
     1
 40
0.0
176
     1
 40
1.0
176
     1
 90
        0
176
     1
 62
    18
420
        0
176
     1
 90
       50
176
     1
 90
        3
176
     1
 62
     5
420
      255
176
     1
290
     0
176
     1
 90
       50
176
     1
 90
       50
176
     1
 90
       50
176
     1
290
     0
176
     1
 90
       50
176
     1
 62
   256
176
     0
 40
1.0
176
     0
 90
        2
176
     1
  1
strokes_ogs.tif
176
     1
290
     0
176
     1
 40
1.0
176
     1
 40
1.0
176
     1
  0
VISUALSTYLE
  5
182
102
{ACAD_REACTORS
330
99
102
}
330
99
100
AcDbVisualStyle
  2
Shaded
 70
    27
177
     3
291
     0
 70
    58
 90
        2
176
     1
 90
        2
176
     1
 90
        1
176
     1
 90
        2
176
     1
 40
0.6
176
     1
 40
30.0
176
     1
 62
     7
420
 16777215
176
     1
 90
        0
176
     1
 90
        4
176
     1
 62
     7
176
     1
 62
   257
176
     1
 90
        1
176
     1
 90
        1
176
     1
 40
1.0
176
     1
 90
        8
176
     1
 62
   257
176
     1
 40
1.0
176
     1
 90
        1
176
     1
 90
        6
176
     1
 90
        2
176
     1
 62
     8
420
  7895160
176
     1
 90
        3
176
     1
 90
        0
176
     1
 90
        0
176
     1
290
     0
176
     1
 90
        5
176
     1
 40
0.0
176
     1
 90
        0
176
     1
290
     0
176
     1
290
     1
176
     1
290
     1
176
     1
290
     0
176
     1
290
     0
176
     1
290
     0
176
     1
290
     0
176
     1
290
     0
176
     1
290
     0
176
     1
 90
       50
176
     1
 40
0.0
176
     1
 40
1.0
176
     1
 90
        0
176
     1
 62
    18
420
        0
176
     1
 90
       50
176
     1
 90
        3
176
     1
 62
     5
420
      255
176
     1
290
     0
176
     1
 90
       50
176
     1
 90
       50
176
     1
 90
       50
176
     1
290
     0
176
     1
 90
       50
176
     1
 62
   256
176
     0
 40
1.0
176
     0
 90
        2
176
     1
  1
strokes_ogs.tif
176
     1
290
     0
176
     1
 40
1.0
176
     1
 40
1.0
176
     1
  0
VISUALSTYLE
  5
181
102
{ACAD_REACTORS
330
99
102
}
330
99
100
AcDbVisualStyle
  2
Shaded with edges
 70
    26
177
     3
291
     0
 70
    58
 90
        2
176
     1
 90
        2
176
     1
 90
        1
176
     1
 90
        2
176
     1
 40
0.6
176
     1
 40
30.0
176
     1
 62
     7
420
 16777215
176
     1
 90
        1
176
     1
 90
        2
176
     1
 62
     7
176
     1
 62
   257
176
     1
 90
        2
176
     1
 90
        1
176
     1
 40
1.0
176
     1
 90
        8
176
     1
 62
   257
176
     1
 40
1.0
176
     1
 90
        1
176
     1
 90
        6
176
     1
 90
        2
176
     1
 62
     7
176
     1
 90
        3
176
     1
 90
        0
176
     1
 90
        0
176
     1
290
     0
176
     1
 90
        5
176
     1
 40
0.0
176
     1
 90
        0
176
     1
290
     0
176
     1
290
     1
176
     1
290
     1
176
     1
290
     0
176
     1
290
     0
176
     1
290
     0
176
     1
290
     0
176
     1
290
     0
176
     1
290
     0
176
     1
 90
       50
176
     1
 40
0.0
176
     1
 40
1.0
176
     1
 90
        0
176
     1
 62
    18
420
        0
176
     1
 90
       50
176
     1
 90
        3
176
     1
 62
     5
420
      255
176
     1
290
     0
176
     1
 90
       50
176
     1
 90
       50
176
     1
 90
       50
176
     1
290
     0
176
     1
 90
       50
176
     1
 62
   256
176
     0
 40
1.0
176
     0
 90
        2
176
     1
  1
strokes_ogs.tif
176
     1
290
     0
176
     1
 40
1.0
176
     1
 40
1.0
176
     1
  0
VISUALSTYLE
  5
17E
102
{ACAD_REACTORS
330
99
102
}
330
99
100
AcDbVisualStyle
  2
Shades of Gray
 70
    23
177
     3
291
     0
 70
    58
 90
        2
176
     1
 90
        2
176
     1
 90
        3
176
     1
 90
        0
176
     1
 40
0.6
176
     1
 40
30.0
176
     1
 62
     7
420
 16777215
176
     1
 90
        2
176
     1
 90
        2
176
     1
 62
     7
176
     1
 62
     7
176
     1
 90
        1
176
     1
 90
        1
176
     1
 40
40.0
176
     1
 90
        8
176
     1
 62
     7
176
     1
 40
1.0
176
     1
 90
        1
176
     1
 90
        6
176
     1
 90
        2
176
     1
 62
     7
176
     1
 90
        3
176
     1
 90
        0
176
     1
 90
        0
176
     1
290
     0
176
     1
 90
        1
176
     1
 40
0.0
176
     1
 90
        0
176
     1
290
     0
176
     1
290
     1
176
     1
290
     1
176
     1
290
     0
176
     1
290
     0
176
     1
290
     0
176
     1
290
     0
176
     1
290
     0
176
     1
290
     0
176
     1
 90
       50
176
     1
 40
0.0
176
     1
 40
1.0
176
     1
 90
        0
176
     1
 62
    18
420
        0
176
     1
 90
       50
176
     1
 90
        3
176
     1
 62
     5
420
      255
176
     1
290
     0
176
     1
 90
       50
176
     1
 90
       50
176
     1
 90
       50
176
     1
290
     0
176
     1
 90
       50
176
     1
 62
   256
176
     0
 40
1.0
176
     0
 90
        2
176
     1
  1
strokes_ogs.tif
176
     1
290
     0
176
     1
 40
1.0
176
     1
 40
1.0
176
     1
  0
VISUALSTYLE
  5
17F
102
{ACAD_REACTORS
330
99
102
}
330
99
100
AcDbVisualStyle
  2
Sketchy
 70
    24
177
     3
291
     0
 70
    58
 90
        1
176
     1
 90
        2
176
     1
 90
        2
176
     1
 90
        0
176
     1
 40
0.6
176
     1
 40
30.0
176
     1
 62
     7
420
 16777215
176
     1
 90
        2
176
     1
 90
        2
176
     1
 62
     7
176
     1
 62
     7
176
     1
 90
        1
176
     1
 90
        1
176
     1
 40
40.0
176
     1
 90
       11
176
     1
 62
     7
176
     1
 40
1.0
176
     1
 90
        1
176
     1
 90
        6
176
     1
 90
        2
176
     1
 62
     7
176
     1
 90
        6
176
     1
 90
        0
176
     1
 90
        0
176
     1
290
     0
176
     1
 90
        1
176
     1
 40
0.0
176
     1
 90
        0
176
     1
290
     0
176
     1
290
     1
176
     1
290
     1
176
     1
290
     0
176
     1
290
     0
176
     1
290
     0
176
     1
290
     0
176
     1
290
     0
176
     1
290
     0
176
     1
 90
       50
176
     1
 40
0.0
176
     1
 40
1.0
176
     1
 90
        0
176
     1
 62
    18
420
        0
176
     1
 90
       50
176
     1
 90
        3
176
     1
 62
     5
420
      255
176
     1
290
     0
176
     1
 90
       50
176
     1
 90
       50
176
     1
 90
       50
176
     1
290
     0
176
     1
 90
       50
176
     1
 62
   256
176
     0
 40
1.0
176
     0
 90
        2
176
     1
  1
strokes_ogs.tif
176
     1
290
     0
176
     1
 40
1.0
176
     1
 40
1.0
176
     1
  0
VISUALSTYLE
  5
A6
102
{ACAD_REACTORS
330
99
102
}
330
99
100
AcDbVisualStyle
  2
Thicken
 70
    13
177
     3
291
     1
 70
    58
 90
        2
176
     1
 90
        2
176
     1
 90
        1
176
     1
 90
        0
176
     1
 40
0.6
176
     1
 40
30.0
176
     1
 62
     7
420
 16777215
176
     1
 90
        1
176
     1
 90
        4
176
     1
 62
     7
176
     1
 62
   257
176
     1
 90
        1
176
     1
 90
        1
176
     1
 40
1.0
176
     1
 90
       12
176
     1
 62
     7
176
     1
 40
1.0
176
     1
 90
        1
176
     1
 90
        6
176
     1
 90
        2
176
     1
 62
     7
176
     1
 90
        5
176
     1
 90
        0
176
     1
 90
        0
176
     1
290
     0
176
     1
 90
        1
176
     1
 40
0.0
176
     1
 90
        0
176
     1
290
     0
176
     1
290
     1
176
     1
290
     1
176
     1
290
     0
176
     1
290
     0
176
     1
290
     0
176
     1
290
     0
176
     1
290
     0
176
     1
290
     0
176
     1
 90
       50
176
     1
 40
0.0
176
     1
 40
1.0
176
     1
 90
        0
176
     1
 62
    18
420
        0
176
     1
 90
       50
176
     1
 90
        3
176
     1
 62
     5
420
      255
176
     1
290
     0
176
     1
 90
       50
176
     1
 90
       50
176
     1
 90
       50
176
     1
290
     0
176
     1
 90
       50
176
     1
 62
   256
176
     0
 40
1.0
176
     0
 90
        2
176
     1
  1
strokes_ogs.tif
176
     1
290
     0
176
     1
 40
1.0
176
     1
 40
1.0
176
     1
  0
VISUALSTYLE
  5
A0
102
{ACAD_REACTORS
330
99
102
}
330
99
100
AcDbVisualStyle
  2
Wireframe
 70
     5
177
     3
291
     0
 70
    58
 90
        0
176
     1
 90
        2
176
     1
 90
        0
176
     1
 90
        0
176
     1
 40
0.6
176
     1
 40
30.0
176
     1
 62
     7
420
 16777215
176
     1
 90
        1
176
     1
 90
        4
176
     1
 62
     7
176
     1
 62
   257
176
     1
 90
        1
176
     1
 90
        1
176
     1
 40
1.0
176
     1
 90
        0
176
     1
 62
   257
176
     1
 40
1.0
176
     1
 90
        1
176
     1
 90
        6
176
     1
 90
        2
176
     1
 62
     7
176
     1
 90
        3
176
     1
 90
        0
176
     1
 90
        0
176
     1
290
     0
176
     1
 90
        1
176
     1
 40
0.0
176
     1
 90
        0
176
     1
290
     0
176
     1
290
     1
176
     1
290
     1
176
     1
290
     0
176
     1
290
     0
176
     1
290
     0
176
     1
290
     0
176
     1
290
     0
176
     1
290
     0
176
     1
 90
       50
176
     1
 40
0.0
176
     1
 40
1.0
176
     1
 90
        0
176
     1
 62
    18
420
        0
176
     1
 90
       50
176
     1
 90
        3
176
     1
 62
     5
420
      255
176
     1
290
     0
176
     1
 90
       50
176
     1
 90
       50
176
     1
 90
       50
176
     1
290
     0
176
     1
 90
       50
176
     1
 62
   256
176
     0
 40
1.0
176
     0
 90
        2
176
     1
  1
strokes_ogs.tif
176
     1
290
     0
176
     1
 40
1.0
176
     1
 40
1.0
176
     1
  0
VISUALSTYLE
  5
180
102
{ACAD_REACTORS
330
99
102
}
330
99
100
AcDbVisualStyle
  2
X-Ray
 70
    25
177
     3
291
     0
 70
    58
 90
        2
176
     1
 90
        2
176
     1
 90
        1
176
     1
 90
        1
176
     1
 40
0.5
176
     1
 40
30.0
176
     1
 62
     7
420
 16777215
176
     1
 90
        1
176
     1
 90
        0
176
     1
 62
     7
176
     1
 62
   257
176
     1
 90
        1
176
     1
 90
        1
176
     1
 40
1.0
176
     1
 90
        8
176
     1
 62
     7
176
     1
 40
1.0
176
     1
 90
        1
176
     1
 90
        6
176
     1
 90
        2
176
     1
 62
     7
176
     1
 90
        3
176
     1
 90
        0
176
     1
 90
        0
176
     1
290
     0
176
     1
 90
       13
176
     1
 40
0.0
176
     1
 90
        0
176
     1
290
     0
176
     1
290
     1
176
     1
290
     1
176
     1
290
     0
176
     1
290
     0
176
     1
290
     0
176
     1
290
     0
176
     1
290
     0
176
     1
290
     0
176
     1
 90
       50
176
     1
 40
0.0
176
     1
 40
1.0
176
     1
 90
        0
176
     1
 62
    18
420
        0
176
     1
 90
       50
176
     1
 90
        3
176
     1
 62
     5
420
      255
176
     1
290
     0
176
     1
 90
       50
176
     1
 90
       50
176
     1
 90
       50
176
     1
290
     0
176
     1
 90
       50
176
     1
 62
   256
176
     0
 40
1.0
176
     0
 90
        2
176
     1
  1
strokes_ogs.tif
176
     1
290
     0
176
     1
 40
1.0
176
     1
 40
1.0
176
     1
  0
DICTIONARYVAR
  5
F0
102
{ACAD_REACTORS
330
66
102
}
330
66
100
DictionaryVariables
280
     0
  1
1:1
  0
DICTIONARYVAR
  5
EF
102
{ACAD_REACTORS
330
66
102
}
330
66
100
DictionaryVariables
280
     0
  1
STANDARD
  0
DICTIONARYVAR
  5
89
102
{ACAD_REACTORS
330
66
102
}
330
66
100
DictionaryVariables
280
     0
  1
STANDARD
  0
DICTIONARYVAR
  5
1B7
102
{ACAD_REACTORS
330
66
102
}
330
66
100
DictionaryVariables
280
     0
  1
Imperial24
  0
DICTIONARYVAR
  5
1B8
102
{ACAD_REACTORS
330
66
102
}
330
66
100
DictionaryVariables
280
     0
  1
Imperial24
  0
DICTIONARYVAR
  5
67
102
{ACAD_REACTORS
330
66
102
}
330
66
100
DictionaryVariables
280
     0
  1
2
  0
DICTIONARYVAR
  5
6B
102
{ACAD_REACTORS
330
66
102
}
330
66
100
DictionaryVariables
280
     0
  1
1
  0
DICTIONARYVAR
  5
14D
102
{ACAD_REACTORS
330
66
102
}
330
66
100
DictionaryVariables
280
     0
  1
0
  0
DICTIONARYVAR
  5
14E
102
{ACAD_REACTORS
330
66
102
}
330
66
100
DictionaryVariables
280
     0
  1
0
  0
DICTIONARY
  5
194
330
22
100
AcDbDictionary
280
     1
281
     1
  0
DICTIONARY
  5
188
330
97
100
AcDbDictionary
280
     1
281
     1
  3
FBXASSET
360
189
  0
DICTIONARY
  5
186
330
96
100
AcDbDictionary
280
     1
281
     1
  3
FBXASSET
360
187
  0
DICTIONARY
  5
110
330
98
100
AcDbDictionary
280
     1
281
     1
  3
BUMPTILE
360
112
  3
DIFFUSETILE
360
111
  3
FBXASSET
360
18A
  3
OPACITYTILE
360
113
  3
REFLECTIONTILE
360
114
  0
DICTIONARY
  5
104
330
87
100
AcDbDictionary
280
     1
281
     1
  3
ACAD_ROUNDTRIP_2008_TABLESTYLE_CELLSTYLEMAP
360
AF9F
  0
XRECORD
  5
189
102
{ACAD_REACTORS
330
188
102
}
330
188
100
AcDbXrecord
280
     1
 70
     1
 90
429727718
  1
508B35C9-AEE7-456F-BE74-D52651303AC6
310
504B03040A0000080000B670623B3DEE336E79000000790000001B0000006175746F6465736B2D64657369676E2D7061636B6167652E786D6C3C3F786D6C2076657273696F6E3D22312E302220656E636F64696E673D227574662D3822203F3E3C666F726D6174733E3C666F726D61743E687474703A2F2F736368656D612E
310
6175746F6465736B2E636F6D2F64657369676E2D7061636B6167652F323030393C2F666F726D61743E3C2F666F726D6174733E504B0304140006080800B670623BD486FD9CA0000000F4000000130000005B436F6E74656E745F54797065735D2E786D6C7D8EC10E82300C865F65E91D8A1E8C310C0EEA1BF002731658846E
310
D98AC1B77784ABF1D8FE5FBFBF75BBCE937A534CCEB38643598122B6FEE978D0B0485F9C41B54DDD7D022595594E1A469170414C76A4D9A4D207E29CF43ECE46F218070CC6BECC4078ACAA135ACF422C856C0E68EA1BF5669944DDD7BCDE7B1F8E415D77AECB980613C2E4AC91FC167A2B244592486606FC29C8FD7F045B9A
310
EF7053A7E60B504B0304140006080800B670623B28ED286BEB0000007C01000008000000636F72652E786D6C8D90416EC3201045AF82665B6183218D6D61A254764FD00B204C5C94182C03558F5F9C3852BBEB6A467FFE9B197D71FA9E6FE8CBACC17AD7012D0820E3B41FAD9B3A48F1826B40272956EFE32F1B20A766D3C1
310
268314D3EAD3B24BDABB685CCCAAF3A3D94515828980F42D371D04FD696655A814B3235C8B45E9AB9A4C419F5D8653B2237A1CB163DE672FD6AC209BF3C08E0D1B30EB19C3FC9D72FCC6EB231EFA33EDE96BDD341517E5064B11EDFCBCAF57A3A2194156843498524CAA0FCA5B7268F9E185D42D21A2DCEC7FA0B48CFF8492
310
759155FBBB0F2C80A4F991FB408A72CB22977B50B96EB9C91F504B0304140006080800B670623B55019EA25F0000007C00000007000000636E782E786D6C4DCB3B0E80201045D1AD90E915ED2CF8AC45050C11660C8261F98AB1B07AC9C97D42D718D865D3E909258CFD00CCE24AC6E326A164D74DC0B4128928FF32603847
310
2BA13128B1252AC747C6BAB984FC68F0B87FE8960A5C09FE86CFB69FBA01504B0304140006080800B670623B7BC41AC871010000D40300000C0000006662782F636F72652E786D6CC553ED6E8320147D15C2DF4501B56B6D90A64BBB27D80B50A5CE54C120983EFEAE1F4DD7A56BBA5FF3879273EEE59E7310BE393735EA95
310
ED2AA333CC428A91D2B9292A5D66D8BB63B0C26823B835C67D2BC348CB46657880B1E0A535BE9DA1DC68A7B403549B42CDA0EC3AE530CA6B5864B8CB3F552343E91D5474A7B095F949962A6421D0502778E72C0840D390E18DC5F170E664C205F7BE2A66B62A605A75AC94C522DDEEE3651AEF837817C741F2CE92E02D592D
310
83FD6ECB76EC7595A651C2C9D02CB8AB9A8BBADC2AE954814544691A3016D0E883256BBA58278B17BA5A53CAC9507ED3E4DBE2C9265F691747B3DCA9ADC382819091F8E1162272A8933DE82182932144F88C09DF060D8140C84E1EEA8B8F1340BDCA9DB1093085F157AA97B557309586747CD0EF0B4EA64E983A6E0EAEEFCE
310
889E9EF17847386AA94B30211D2C0FDE0D3AF9A4610EAD5536E8DD1969631B593F67E381C33F5157F17725E5A636F6BF1491F980C8FC7B90E13E8A2F504B0304140006080800B670623B70102A487D0000009D0000000B0000006662782F636E782E786D6C4DCCD10A83201886E15B91FFDC95A5C30335ACCDFB886521330D
310
A76397BF1A1DECE883878F57749FD5A3B74D2F17830472A901D9F088930B8B849267CC01754AA418F3DF0D5018572BE160506249B16C274D761E8BCFBB7A179E27F65CB39A0F14D396184C9921B81F34C3ACA1B4B99ABB6E6F062A25AA5F69DF23ACBE504B0304140006080800B670623B3610CA3329010000120200003100
310
00006662782F42384135303843342D343331462D343546312D424341352D3532343432364645413344462F636F72652E786D6C8D515B6EC32010BC0AE22B55850D0E446E848992B43E412FE000495162B07854397EA176A4F62F3F2C9A9D991D58BEBB8F37F0AD7D30CE76905418026DA553C65E3A98E219B510EC04F7CEC5
310
3F3408EC30EA0E16180A7EF12E4D0B249D8DDAC68C5AA7F4020E21E80881BCE54B0783FCD2E3500D296646B856D320AFC34557A4CAEDCC133C449F0380794839A138B47B86DB2345744D7A44594FD0E1B867883594369BFE63BF7EEF793D0B054FC9A8456E548E63CE46FB674D8A58F068C6477CE9F510B582A2C1F80D1182
310
70F349E816B32D65AFB8DD62CCEB42FF274A937A52948C8DEB66893BCB021484D7734370E5D2E9F608A3EF93F3119479ABA0E50B14B8C298119A43CCC4FCFCECB8A18B6388CEE7EF5D5D4F994BD86CBBA182D76543B9FCAE2FD7B24DF103504B0304140006080800B670623B1B8617914E0100003303000030000000666278
310
2F42384135303843342D343331462D343546312D424341352D3532343432364645413344462F636E782E786D6CD593C16EC32010447F0571AD6CE3D489D20813A9877E410FBD62D82434182CC055F3F75D1292E692438FBD206B7698593D61BEFD1E2DF982108D773D6D6B460938E5B571FB9ECE6957AD29D90A1EBC4F7736
310
4A9C1CA1A759A682EF839FA72269D8C9D92654AD71C72206887E0E0A22CAF926B15E498B01E0AA19451807D01A34B919F16B070157417138917400F2F6FA41FCF0092A45DEE414C19BDC21783E4BD39D891265658C3D8DEA00A3ACE59CBC8678ACB54CB26EEB6BD7839D7E9348BE70AD9C8321B9BCA7F9A4A26C542347DEE0
310
50F09802D22BA6749A800A394DD62899107273365E3C82CFC6A55557BC06C10774B7ABE7AEC3B0F34CF06446280E154026D0542C187BA9DAB6628BF7B6DBB0E5A65B3EB1F58631DE64BBE083F7B65CC218087E22CABB042E51D1F2268F1FE12B3EA24D40D63E9CFE00120194D60B9D5BC67FE6D39CDF37E20AF817881F504B
310
0304140006080800B670623BBFEF2E3B690500003C100000340000006662782F42384135303843342D343331462D343546312D424341352D3532343432364645413344462F6F626A656374732E786D6CAD575D739B3814FD2B0CFB0C98D84E931D4227B6938EA793B6534F3BFB90198F0099B001899144EAECAFDF231018B0
310
D37A3FFC609090EEE7B94757C1FB7D915B2F54C88CB31BDB7727B64559CC938CA53776A576CE956DBD0F03C1B9EA2DB32D460A7A63EB693B0C52C1ABD24C257447AA5C8D66EF177F5832A68CDA569C13296F6C193FD182B8A4523CA1F2D94D88226EBADBBBBEDB2C1C8A4D05299F46424B222853B014F30C52ACC6287F389C
310
D85E1878FA7B18E87FB36AFAF62AAFF667A83F635211161F291B8999FAB3D5DDC5FCDA99CF6653677679E13B8BFBC5CAF1DF4D27CBCBE5F2FAF6EE1A8AA51290642C117467871F101B91C581D77CEA2C36869F3229E68CD1B8F61F1ED6361B89092D294B90C78C4A68EB793D190E7D1D9BDEE7A91E1B95FDE9F3BCEAEFE809
310
6A6D6F9F7D4B79F4275C90E7A04248AA51D5C4C738DAE06F72885AC4796EBE65D22A88A22223B995679120E2D50EB1542F098381188D4EA111AE3DB043FF20AF6F2B4AE3D7D83D65E5AECA730D4D3BAC91BD05FEA992B565D95F549CD6069B90AB2A63EACA38A45E4B6A87D781574F86817E4C2FCCC72690D62E2729520E37
310
9BAF234797BAF6D62B3BFC781FED37BA1E4F2B2F052FA9501A3E80569BB8F6A9A364D4FA67654E6F803383981F82F21591FF84F23D9882BC896C3FDBCF8C162508933B2E0AE4C69DD43F6BD2BE38DDDBF10BF86CB4FA784D37F3AF16075E67EC9030DECA1FC0A55373F5DFF3378C591FA9BDF485C10B0A8C8BA909E5262639
310
A8E72163488806A595734C81CB77D1DE0ED7604A303B76913CEC0272F412782FF88EFF4636D8AA56DF7B322474C4B767303F625997056C7B032C473C592B36CEBD15F3F9FF5233B7ABCDC74D257624A60F8658567497B14CE1EC3C80B76FD02011038F9EE9EB0F2E12387A9C844D3F09855125116D1D731DF8B43D2CF4E0A0
310
79A020C6BE946BCE0B7EA1E1219331CD73C228AF5A2DDD31A4B1DA918CE91350854D40A71723140BFA92E94E62B0626016CEFA5864A50E5977E8753CEDBEE1CBB7F52780D20E17AF0BA0F5F9B02A3AD07DCC732EB6D1EBB661421BE0C39E21BABF0FE16D22EA6929407C8DE596724C88B749B6DB5512BC7B228ADFD7CB7EA6
310
3A22397E690BA8D5D8D4E40CEC8CDA23C2C0B7D5898640101CEC9C6D331CE328CB93CAFBBAC70A642DF70DF95155945B52F08AA973C23469FD69ADEF84F7BB18F983A8F8C90E37F5D35980B2139A1C523540813E824EF83448CF7C72B598CE97D7CEEDDDDD3B6736BFBC771677EF66CE6A7E7139F7A793E9EDF2B2B3A8B624
310
0CDA13AA5F8388264EC4A0129909F3B7F5A16CEDF08128E97D680ACA4B9BE7B7B58BB638F0B00700EF36AE8B32A705658A68F83EE897FC2B41573190D1CCAF0B92D233A47CFEB019D9809933F67DD1A5467F8CF69AD9A5AE859342D45355448C64F968A371DC2D596ADC6E43D93D1B466F877A64E2893E54F23C4B40388995
310
525E5005DA3983ED45412510D3EFCA13737B3863F74BD30F2A12E5B4B5E489A025CE25500DB855B11ACE5BBFA185D35DD48D8DC3CE7DC69F2944DB42AA6F6CF09BCA622ADD08C7A36E7C6AE18000BAB08E040135C2D21C9D75B3A91B77BB746C403F38018DFE6EC939DD92F16B40BC05294B9CDA035AAD6D330AE27FE4786B
310
8E45145EA34A75BE1C263A676A35A8ACC6297337400BF16C54EF515F3F77CB77EB3583889C754FFA29081AA98E2222ADEF05DA3E63D2EDEA8B8756C05A7FB6CABC4A91CBF325398202CC952E70A008A830324BA200D5E5EF8F5F04C75DB4B0EE3340E071C98B823333B83577596BF3849B69F2085AA0FAFA212F26BEFF5877
310
FDE622B28D88A42E49E43326DA82D31E8CB006401E1DA726059ECEC168F97A6599036306A135688F9AD2E61A6EA178F4CD51974A9F2CCB9F36FE5EBD14601068D9C3BF01504B0304140006080000B670623B000000000000000000000000350000006662782F42384135303843342D343331462D343546312D424341352D35
310
32343432364645413344462F76657274696365732E62696E504B0304140006080800B670623BF270F1330600000004000000360000006662782F42384135303843342D343331462D343546312D424341352D3532343432364645413344462F747269616E676C65732E62696E636660600000504B0304140006080000B67062
310
3B000000000000000000000000370000006662782F42384135303843342D343331462D343546312D424341352D3532343432364645413344462F617474726962757465732E62696E504B0304140006080800B670623B08DA0BD19000000041010000360000006662782F42384135303843342D343331462D343546312D4243
310
41352D3532343432364645413344462F6469726563746F72792E786D6C858F410AC3201045AF22B36F53E9A60B35CBEEBAE80D244E44489C6234F4F835464A48035D0DF398FF9F8AF63D0E6CC63039F212F8F9020C7D47C6792B21C5FE7403D62A1188E2E60C98D7234A5830286103A55745067B9D86B8A3CF9C7F90C11DE6
310
07FB144396D7B6A82D282E9A152AD114D5EF2CB866EEE831B8EEA07A7BB5A8D7D61A2BAAEB7FD5F70921FF497D00504B0304140006080800B670623B3B4606F3FE000000A00100003B0000006662782F42384135303843342D343331462D343546312D424341352D3532343432364645413344462F7265736F75726365732F
310
636F72652E786D6C8D504B6E833010BD0A9A6D65B08134808CA354A427E8052C332156828DFCA97AFC9A40A576D7CDCCE87D344F8F9FBEE647F689CE6B6B7A6039850C8DB2A336530F315C4903D94970676DF82583CCC8197B5861107C72362E3BA4AC096842428D1D7107A5F71820538F74F4E0D50D6799CB1892C2DFF345
310
AABB9C306779A2934E701F5C0A906D4FD609C2A1B7D129F4BCD858C163D4E3AED163FAA9AF1A1D88F67CA98E6D35906AA82A52BFB39ABCD5CD915C86331BD86BD3B665CD8BD52C78D0F34F46E550061C419494B6843142CB0F5677F4D0D58717DA7494F26295FF31C565FCA7296A13AA728FBBD93C0896823C09C18BB5AFB4
310
9E65A6BD762BBE01504B010214000A0000080000B670623B3DEE336E79000000790000001B00000000000000000000000000000000006175746F6465736B2D64657369676E2D7061636B6167652E786D6C504B01021400140006080800B670623BD486FD9CA0000000F40000001300000000000000000000000000B2000000
310
5B436F6E74656E745F54797065735D2E786D6C504B01021400140006080800B670623B28ED286BEB0000007C010000080000000000000000000000000083010000636F72652E786D6C504B01021400140006080800B670623B55019EA25F0000007C000000070000000000000000000000000094020000636E782E786D6C50
310
4B01021400140006080800B670623B7BC41AC871010000D40300000C00000000000000000000000000180300006662782F636F72652E786D6C504B01021400140006080800B670623B70102A487D0000009D0000000B00000000000000000000000000B30400006662782F636E782E786D6C504B01021400140006080800B6
310
70623B3610CA3329010000120200003100000000000000000000000000590500006662782F42384135303843342D343331462D343546312D424341352D3532343432364645413344462F636F72652E786D6C504B01021400140006080800B670623B1B8617914E010000330300003000000000000000000000000000D10600
310
006662782F42384135303843342D343331462D343546312D424341352D3532343432364645413344462F636E782E786D6C504B01021400140006080800B670623BBFEF2E3B690500003C10000034000000000000000000000000006D0800006662782F42384135303843342D343331462D343546312D424341352D35323434
310
32364645413344462F6F626A656374732E786D6C504B01021400140006080000B670623B0000000000000000000000003500000000000000000000000000280E00006662782F42384135303843342D343331462D343546312D424341352D3532343432364645413344462F76657274696365732E62696E504B010214001400
310
06080800B670623BF270F133060000000400000036000000000000000000000000007B0E00006662782F42384135303843342D343331462D343546312D424341352D3532343432364645413344462F747269616E676C65732E62696E504B01021400140006080000B670623B00000000000000000000000037000000000000
310
00000000000000D50E00006662782F42384135303843342D343331462D343546312D424341352D3532343432364645413344462F617474726962757465732E62696E504B01021400140006080800B670623B08DA0BD1900000004101000036000000000000000000000000002A0F00006662782F42384135303843342D3433
310
31462D343546312D424341352D3532343432364645413344462F6469726563746F72792E786D6C504B01021400140006080800B670623B3B4606F3FE000000A00100003B000000000000000000000000000E1000006662782F42384135303843342D343331462D343546312D424341352D3532343432364645413344462F72
310
65736F75726365732F636F72652E786D6C504B0506000000000E000E0080040000651100000000
  0
XRECORD
  5
187
102
{ACAD_REACTORS
330
186
102
}
330
186
100
AcDbXrecord
280
     1
 70
     1
 90
429727718
  1
887D55A9-D0DD-414E-B741-A7DCD4DA2B4C
310
504B03040A0000080000B670623B3DEE336E79000000790000001B0000006175746F6465736B2D64657369676E2D7061636B6167652E786D6C3C3F786D6C2076657273696F6E3D22312E302220656E636F64696E673D227574662D3822203F3E3C666F726D6174733E3C666F726D61743E687474703A2F2F736368656D612E
310
6175746F6465736B2E636F6D2F64657369676E2D7061636B6167652F323030393C2F666F726D61743E3C2F666F726D6174733E504B0304140006080800B670623BD486FD9CA0000000F4000000130000005B436F6E74656E745F54797065735D2E786D6C7D8EC10E82300C865F65E91D8A1E8C310C0EEA1BF002731658846E
310
D98AC1B77784ABF1D8FE5FBFBF75BBCE937A534CCEB38643598122B6FEE978D0B0485F9C41B54DDD7D022595594E1A469170414C76A4D9A4D207E29CF43ECE46F218070CC6BECC4078ACAA135ACF422C856C0E68EA1BF5669944DDD7BCDE7B1F8E415D77AECB980613C2E4AC91FC167A2B244592486606FC29C8FD7F045B9A
310
EF7053A7E60B504B0304140006080800B670623BBC1638F5EC0000007C01000008000000636F72652E786D6C8D90416EC3201045AF82665B61836BE2D8C24471DB9CA01740401C94182C03558F5F9C3852BBEB6A467FFE9B197D7EF89E6EE8CB2CC17AD7032D0820E394D7D68D3DA478C67B4007C117EFE32F1B202727D3C3
310
2A83E0E3E2D3BC49CABB685CCCAAF3DA6CA20CC14440EA969B1E82BA98491632C5EC08D76296EA2A4753D06797E194AC468F2356E77DF66CCD02825543D50CACC62D39ED70FDC68EB8FD68F6F8787A6784342D1DDA1D2F5758F068A7E77DB518198D065111D2624A31A93E69DD11D6D5EC85EC3B4278B9DAFF4069D6FF8492
310
75F1B5DADE7D600104CD8FDC0782976B16B9DC83CA75CD4DFC00504B0304140006080800B670623B55019EA25F0000007C00000007000000636E782E786D6C4DCB3B0E80201045D1AD90E915ED2CF8AC45050C11660C8261F98AB1B07AC9C97D42D718D865D3E909258CFD00CCE24AC6E326A164D74DC0B4128928FF326038
310
472BA13128B1252AC747C6BAB984FC68F0B87FE8960A5C09FE86CFB69FBA01504B0304140006080800B670623B3586FFB671010000D40300000C0000006662782F636F72652E786D6CC553ED6E8320147D15C2DF4541A76D6D90A6DDD627D80B50A4CE54C120983EFEAE1F4DD7A55BBA5FF3879273EEE59E7310B6393735EA
310
95ED2AA3731C851423A5A5292A5DE6D8BB63B0C268C39935C67D29C3488B46E578803167A535BE9D2169B453DA01AA4DA16650749D7218C91A1639EEE4876A4428BC838AEE14B6429E44A9C228041AEA38EB9C0501681A32BC313F1ECE8C4C3867DE57C5CC56054CAB8E95B298A7F12E5EEED224C8E87E11242FE936C8DE96
310
AB60BB7F4D295D66D12E5B30323473E6AAE6A24E5A259C2A308F29CD82280A68FC1E256B9AAE93F489AED694323294DF34F9B678B0C957DA3DC7B3DCA9ADC33C022123F1CD2D44E450277AD04338234388F01913BE0D1A0281909D38D4171F27807A259DB1093085F157AA17B557309586747CD0CF0B46A64E983A6E0EAEEF
310
CE881F9EF1FB8E70D44297604238581EBC1B74B249C31C5AAB6CD0BB33D2C636A27ECCC62F0EFF445DC5DF95244D6DEC7F2922F30191F9F720C37DE49F504B0304140006080800B670623B4220A0FF7D0000009D0000000B0000006662782F636E782E786D6C4DCCD10A83201886E15B91FFDCE542CB0335D0EC3E6259C84A
310
C3E9D8E5AF46073BFAE0E1E315DD675BD1DBA5978F41C2FD4600B9F088930F8B849267CC01754AA418F3DF0D50183727E164506249B1EC174D6E1ECB9A0F5D7D785E68DB8151CD286E5A5363CA6B8A39E90D36D40E96B086F55A43A544F52B1D7B86D517504B0304140006080800B670623B2FA3FEDE290100001202000031
310
0000006662782F45374635344235342D363743322D343832342D383044432D4334454645303536354442422F636F72652E786D6C8D515B6EC32010BC0AE22B55850D2E386E848994D7097A0117488A1283C5A3CAF10BB523B57FF961D1ECCCECC0F2ED7DBC816FED8371B687A4C210682B9D32F6D2C314CFA883602BB8772E
310
FEA141608751F7B0C050F08B77695A20E96CD43666D43AA5177008414708E42D5F7A18E4971E876A483133C2B59A06791D2EBA22556E679EE021FA1C00CC43CA09C5717D6274C7286AD7FB06D1AEA1A8C3873DDAD3E3E98859CB0EBB1DAF67A1E02919B5C88DCA71CCD968FFAC49110B1ECDF8882FBD1EA256503418BF2342
310
106E3E08DD60B6A1EC15771B8C795DE8FF4469524F8A92B1F1AD59E2CEB20005E1F5DC105CB9F4797B84D1F7C9F908CABC55D0F2050A5C61CC1AD2F27A26E6E767C7962E8E213A9FBF7775FDCC5CC266DB960A5E970DE5F2BBBE5CCB36C50F504B0304140006080800B670623B1B8617914E01000033030000300000006662
310
782F45374635344235342D363743322D343832342D383044432D4334454645303536354442422F636E782E786D6CD593C16EC32010447F0571AD6CE3D489D20813A9877E410FBD62D82434182CC055F3F75D1292E692438FBD206B7698593D61BEFD1E2DF982108D773D6D6B460938E5B571FB9ECE6957AD29D90A1EBC4F77
310
364A9C1CA1A759A682EF839FA72269D8C9D92654AD71C72206887E0E0A22CAF926B15E498B01E0AA19451807D01A34B919F16B070157417138917400F2F6FA41FCF0092A45DEE414C19BDC21783E4BD39D891265658C3D8DEA00A3ACE59CBC8678ACB54CB26EEB6BD7839D7E9348BE70AD9C8321B9BCA7F9A4A26C542347DE
310
E050F09802D22BA6749A800A394DD62899107273365E3C82CFC6A55557BC06C10774B7ABE7AEC3B0F34CF06446280E154026D0542C187BA9DAB6628BF7B6DBB0E5A65B3EB1F58631DE64BBE083F7B65CC218087E22CABB042E51D1F2268F1FE12B3EA24D40D63E9CFE00120194D60B9D5BC67FE6D39CDF37E20AF817881F50
310
4B0304140006080800B670623B29652116630500003C100000340000006662782F45374635344235342D363743322D343832342D383044432D4334454645303536354442422F6F626A656374732E786D6CAD575D739B3814FD2B0CFB0C989834C90EA1639B24E3E9A6EDD4D3CE3E64C623834CD8006224913AFDF57B040203
310
B65BEF871F0C12D2FD3CF7E8CA7FBFCB33E3957291B2E2D674ED8969D02262715A24B76625B7D6B569BC0F7CCE98EC2D338D82E4F4D654D366E0279C55A59E8AE99654991CCDDECFFF3444440B6A1A514684B83545F44C7362934AB2988A173B2692D8C97667BB76B3702836E1A47C1E092D09A78584A5982F20C5688C7287
310
C389E904BEA3BE07BEFAD7ABA6A75739B53F43FD69212429A20365233153D70BEF2E2E6FAC4BCF9B5ADEBB0BD79ADFCF43CBBD9A4E16EF168B9BD9DD0D140BC921495BC2E9D60C1E101B9E46BED37CEA2CD6861F3329624541A3DA7F7858DBAC25C6B4A4458C3CA654405BCFEBC970E8AAD8F43E4FD558ABEC4F9FE7557F47
310
4F506B7BFBEC5BCA367FC105710E2AB8A00A554D7CB4A30DFE26FBA86D18CBF4B75418399194A72433B274C3097F33032C554B027F2046A1932B842B0FCCC0DDCBEBDB8AD2F835768F59B9ADB24C41D30C6A64AF817F2A456D59FA83F2E3DA60137255A585BCD60EC9B7929AC18DEFD49381AF1ED30BFDB109A4B1CD488294
310
C3CDE6EBC8D185AABD6568061FEE37BB95AAC7E3CA4BCE4ACAA5820FA0D526AE7DAA2869B5EE5999531BE0CC20E6FBA07C41E43FA27CF7A6206F3CDD793B4F6B919C1462CB788EDCD893FA674CDA17AB7B3B7C019F8D561FAEE966FED562DFE98C1D12C6A9FC015C2A35D7FF3D7FC398F591DA4B5FE0BFA2C0189FEA50AE22
310
92817A1ED3020951A03432862970F976B33383259812CC8E5D240BBA801CBCF8CE2BBEE3BF910DB6AAD5F79E05123AE2DB33981FB1ACCB02B69D00CB014FD68AB573A7627EF9BFD4CC2C5C7D58557C4B22FAA88925A4DBB44825CECE3D78FB060D1231F0E885BE7D673C86A3874958F593906B5502D1563157814FDAC3420D
310
F69A070A22EC4B98E23CFF171A1E5311D12C23056555ABA53B8614563B92D17D02AAB009E8F46284624E5F53D5490C560CCCC2591FF1B45421EB0EBD8EA7ED13BE7C5D7E0428CD60FEF60779EB13E6664FF711CB185F6FDED60D139A001FF60CD1FD6D086F1D51474901E26B2CB794A343BC8ED3EDB612E0DD2351FCB65CF4
310
33D511C9E14B5B40ADC6A6263DB0336A8F700DDF56271A024E70B0B3629DE21847591E55DED73D56206AB927E46FAABC5C939C55853C274C93D69FD6FA4E78BF8B11DF898C9ECD60553FAD39283BA6F18984AA23E8884F83F45C5F5F859797B31B2B9C84A1E5B9DE9D35BFF25C6B76152E422F9C5DCC3D847F5801ED09D5AF
310
41441327A25FF15487F9EB725FB666F048A4701E9A827292E6F97569A32DF61DEC01C0BB8DCBBCCC684E0B49147C1FD54BF685A0AB18C868E6973949E819523E3DAC463660E68C7D9F55A9D1EFA3BD7A76A16AE1A810F95CE59B82A4D968A376DC2E8B44BBDD86B27B368CDE0ED548C7137DA860591A83706223A12CA712B4
310
7306DBF39C0A20A6DF95C7FAF670C6EED7A61F946493D1D6926782963813403548A78AE470DEF80D2D9CEAA26E4D1C76F60BFE74219A06527D6B82DF641A51616F703CAAC6A7160E08A00BEB4810A0274592A1B36E3675E36E978A0DE80727A0D6DF2D39A75BD27E0D8837276589537B40ABB56D5A41F48F1C6FCD3188C4EB
310
A6929D2FFB89CE995A4D00AE813BDD032DC48B56BD437DFDDC2DD7AED70C2272D63DE9A72068A45A92F0A4BE17A8A06B9366E16707AD80B1FC649459952097E74BB23805982B55E0401150A165964402AA8BDF9F3E7386BB686EDCA780C0D382E5392BF460A6EFB2C6EA1937D3F809B440D5F5435C4C5CF7A9EEFAF54564BD
310
2182DA24162F98680B4E7930C21A0079709CEAEB99A372305ABE0C0D7D6078105A83F6A0296DAEE1068A47DD1C55A9F4C9B2FC69E3EFD44B81028E963DF81B504B0304140006080000B670623B000000000000000000000000350000006662782F45374635344235342D363743322D343832342D383044432D433445464530
310
3536354442422F76657274696365732E62696E504B0304140006080800B670623BF270F1330600000004000000360000006662782F45374635344235342D363743322D343832342D383044432D4334454645303536354442422F747269616E676C65732E62696E636660600000504B0304140006080000B670623B00000000
310
0000000000000000370000006662782F45374635344235342D363743322D343832342D383044432D4334454645303536354442422F617474726962757465732E62696E504B0304140006080800B670623B08DA0BD19000000041010000360000006662782F45374635344235342D363743322D343832342D383044432D4334
310
454645303536354442422F6469726563746F72792E786D6C858F410AC3201045AF22B36F53E9A60B35CBEEBAE80D244E44489C6234F4F835464A48035D0DF398FF9F8AF63D0E6CC63039F212F8F9020C7D47C6792B21C5FE7403D62A1188E2E60C98D7234A5830286103A55745067B9D86B8A3CF9C7F90C11DE607FB144396
310
D7B6A82D282E9A152AD114D5EF2CB866EEE831B8EEA07A7BB5A8D7D61A2BAAEB7FD5F70921FF497D00504B0304140006080800B670623B6378F24DFF000000A00100003B0000006662782F45374635344235342D363743322D343832342D383044432D4334454645303536354442422F7265736F75726365732F636F72652E
310
786D6C8D504B6E833010BD0A9A6D65B0094E42641C85B639412F6099496225D8C89FAAC7AF09546A77DDCC8CDE47F3F4C4F16B7C149FE88371B603565228D06A37187BED20C50BD9437194C23B177FC9A0B06AC40E6618A4B87A97A615D2CE46B431A3D60DB8822A048C50E8473E3A08FA86A32A558A5911EEE5A4F45D5DB1
310
6465A6B34E8A107D0E502C4FE609D26370C96B0CA25A58295232C3AA3143FE692E063D485EF7F5AEE71BD2D2F39634AFFC44DAF7DD9E9CCE6F9CD25DCBFA762BAAD92C4534E34F46ED51451C40D694B6843142EB0FD61C283F34FC85EE0F948A6A96FF31A569F8A729191B37F51A77B105902C0779125254735F793DCBCC7B
310
EE567E03504B010214000A0000080000B670623B3DEE336E79000000790000001B00000000000000000000000000000000006175746F6465736B2D64657369676E2D7061636B6167652E786D6C504B01021400140006080800B670623BD486FD9CA0000000F40000001300000000000000000000000000B20000005B436F6E
310
74656E745F54797065735D2E786D6C504B01021400140006080800B670623BBC1638F5EC0000007C010000080000000000000000000000000083010000636F72652E786D6C504B01021400140006080800B670623B55019EA25F0000007C000000070000000000000000000000000095020000636E782E786D6C504B010214
310
00140006080800B670623B3586FFB671010000D40300000C00000000000000000000000000190300006662782F636F72652E786D6C504B01021400140006080800B670623B4220A0FF7D0000009D0000000B00000000000000000000000000B40400006662782F636E782E786D6C504B01021400140006080800B670623B2F
310
A3FEDE290100001202000031000000000000000000000000005A0500006662782F45374635344235342D363743322D343832342D383044432D4334454645303536354442422F636F72652E786D6C504B01021400140006080800B670623B1B8617914E010000330300003000000000000000000000000000D2060000666278
310
2F45374635344235342D363743322D343832342D383044432D4334454645303536354442422F636E782E786D6C504B01021400140006080800B670623B29652116630500003C10000034000000000000000000000000006E0800006662782F45374635344235342D363743322D343832342D383044432D4334454645303536
310
354442422F6F626A656374732E786D6C504B01021400140006080000B670623B0000000000000000000000003500000000000000000000000000230E00006662782F45374635344235342D363743322D343832342D383044432D4334454645303536354442422F76657274696365732E62696E504B01021400140006080800
310
B670623BF270F13306000000040000003600000000000000000000000000760E00006662782F45374635344235342D363743322D343832342D383044432D4334454645303536354442422F747269616E676C65732E62696E504B01021400140006080000B670623B0000000000000000000000003700000000000000000000
310
000000D00E00006662782F45374635344235342D363743322D343832342D383044432D4334454645303536354442422F617474726962757465732E62696E504B01021400140006080800B670623B08DA0BD190000000410100003600000000000000000000000000250F00006662782F45374635344235342D363743322D34
310
3832342D383044432D4334454645303536354442422F6469726563746F72792E786D6C504B01021400140006080800B670623B6378F24DFF000000A00100003B00000000000000000000000000091000006662782F45374635344235342D363743322D343832342D383044432D4334454645303536354442422F7265736F75
310
726365732F636F72652E786D6C504B0506000000000E000E0080040000611100000000
  0
XRECORD
  5
112
102
{ACAD_REACTORS
330
110
102
}
330
110
100
AcDbXrecord
280
     1
270
     1
271
     1
  0
XRECORD
  5
111
102
{ACAD_REACTORS
330
110
102
}
330
110
100
AcDbXrecord
280
     1
270
     1
271
     1
  0
XRECORD
  5
18A
102
{ACAD_REACTORS
330
110
102
}
330
110
100
AcDbXrecord
280
     1
 70
     0
 90
1778669749
  1
9BF507EE-FAF7-4A99-A33D-4EE51894BC40
310
504B03040A0000080000B670623B3DEE336E79000000790000001B0000006175746F6465736B2D64657369676E2D7061636B6167652E786D6C3C3F786D6C2076657273696F6E3D22312E302220656E636F64696E673D227574662D3822203F3E3C666F726D6174733E3C666F726D61743E687474703A2F2F736368656D612E
310
6175746F6465736B2E636F6D2F64657369676E2D7061636B6167652F323030393C2F666F726D61743E3C2F666F726D6174733E504B0304140006080800B670623BD486FD9CA0000000F4000000130000005B436F6E74656E745F54797065735D2E786D6C7D8EC10E82300C865F65E91D8A1E8C310C0EEA1BF002731658846E
310
D98AC1B77784ABF1D8FE5FBFBF75BBCE937A534CCEB38643598122B6FEE978D0B0485F9C41B54DDD7D022595594E1A469170414C76A4D9A4D207E29CF43ECE46F218070CC6BECC4078ACAA135ACF422C856C0E68EA1BF5669944DDD7BCDE7B1F8E415D77AECB980613C2E4AC91FC167A2B244592486606FC29C8FD7F045B9A
310
EF7053A7E60B504B0304140006080800B670623BCA089DFFEC0000007C01000008000000636F72652E786D6C8D90416E83301045AF62CDB632D8402020E32882F604BD80653BC44AB011B6AB1EBF262152BBEB6A467FFE9B197D76FA9EEFE84BAFDE38DB03CD08206DA553C64E3DC470C1474027CE56E7C22F1B202B66DDC3
310
260367D3EAE2B24BD2D9A06D48AA754AEFA2F05E0740F29E9A1EBCBCEA59642286E4F0B76C11F226269DD15797E0188D42CF2346A57DE662F40ABCAEC77628C6120F654571D50C04B7F5B9C1E3997CD4F550BE3745C3F20DE62C98F9755FAE5A04AD801784B498524C8A4F5A75E4D055873772EC0861F966FF03C545FD138A
310
C686B2D8DF7D621E384D8F3C069CE55B16A93C824A75CB8DFF00504B0304140006080800B670623B55019EA25F0000007C00000007000000636E782E786D6C4DCB3B0E80201045D1AD90E915ED2CF8AC45050C11660C8261F98AB1B07AC9C97D42D718D865D3E909258CFD00CCE24AC6E326A164D74DC0B4128928FF326038
310
472BA13128B1252AC747C6BAB984FC68F0B87FE8960A5C09FE86CFB69FBA01504B0304140006080800B670623B68FC0B7272010000D40300000C0000006662782F636F72652E786D6CC5535B6E833010BC8AE5DF0A6C1E8124328E22D29EA01770C0A128602363A31CBFCB234A53A555FA553EC09AD9F5CE8C31DB5DDA060D
310
D2F4B556190E7C8A9154852E6B5565D8D993B7C668C799D1DA7E29C3488956667884316795D1AE5BA0422B2B950554E9522EA0E87B69312A1A5864B82F3E642B7CE12C54F467BF13C55954D20F7CA0A18EB3DE1A1080E621E31BF3D3F1C2C88C73E65C5D2E6C5DC2B4FA544B8379921C36797888BC3C8A032F4E73EA6D927D
310
EA1DF6F42D49F2E8350D5346C666CE6CDD5ED515460A2B4BCC434A375E1078347C0FE22D5D6DE3D50B5D6F2965642CBF6B725DF96493AB958DC245EEDCD6631E809089F8E61622B2A81703E8219C913144F84C09DF070D8140C8561C9BAB8F3340832CAC363130A576376A108D933095FA747AD0CF0B46E64E983A6D0EAE1F
310
CE089F9EF1FB8E70D44255604258581E9D1D75B259C3125A278D37D80B52DAB4A279CEC62F0EFF44DDC43F9454E8469BFF5244960322CBEF41C6FBC83F01504B0304140006080800B670623B0F71DDB67E0000009D0000000B0000006662782F636E782E786D6C4DCCD10A83201886E15B91FFDCA54DB73F502386BB8F5816
310
32D3703976F9ABD1C18E3E78F87855FB990379BBFCF2296AE02706C4C5471A7C9C349475A408A4352AA7B4FEDD80C47E761A7606A3A69CCA72D0E0C6BE8475D3E0E3F3409428EA6B27A84079A782899AA2EC1A7AE3ECCC2FD858CB2D544655BFD2B67BD87C01504B0304140006080800B670623BE134B4FB28010000120200
310
00310000006662782F38353834323741342D343835462D343034322D383541392D4331303331363839454531452F636F72652E786D6C8D515B6EC32010BC0AE22B55850D0EA424C24451959EA0172086A42831583CAA1CBF503B52FB971F16CDCECC0EACD8DFC71BF836215AEF7A481A0C817183D7D65D7A98D3197108F652
310
04EFD31F1A044E8DA6871586525C82CFD3020DDE25E352419DD76601558C264130DCCAA58771F832A36A544E8511AFCDA486ABBA988634A55D7852C4144A00300FA927949C71DABD1D28A29C7D208A6987383B6CD13BC16BB2E1DBE3911C453B0BA5C8D9EA456E758963CFD684674DAA588A64C747FC2118958C86B2C3788B
310
0841B8FB247487D98EB257CC77188BB6D2FF89F2A49F1465EBD2BA5BE2CEB2082511EDDC9042FB7CBA3DC298FBE4430275DE2A9AE1054ADC60CC08E3A29D89E5F9C5714317C7987C28DFBBBA9E0A97B0D97643A568EB864AF95D5FA9759BF207504B0304140006080800B670623B1B8617914E010000330300003000000066
310
62782F38353834323741342D343835462D343034322D383541392D4331303331363839454531452F636E782E786D6CD593C16EC32010447F0571AD6CE3D489D20813A9877E410FBD62D82434182CC055F3F75D1292E692438FBD206B7698593D61BEFD1E2DF982108D773D6D6B460938E5B571FB9ECE6957AD29D90A1EBC4F
310
77364A9C1CA1A759A682EF839FA72269D8C9D92654AD71C72206887E0E0A22CAF926B15E498B01E0AA19451807D01A34B919F16B070157417138917400F2F6FA41FCF0092A45DEE414C19BDC21783E4BD39D891265658C3D8DEA00A3ACE59CBC8678ACB54CB26EEB6BD7839D7E9348BE70AD9C8321B9BCA7F9A4A26C542347
310
DEE050F09802D22BA6749A800A394DD62899107273365E3C82CFC6A55557BC06C10774B7ABE7AEC3B0F34CF06446280E154026D0542C187BA9DAB6628BF7B6DBB0E5A65B3EB1F58631DE64BBE083F7B65CC218087E22CABB042E51D1F2268F1FE12B3EA24D40D63E9CFE00120194D60B9D5BC67FE6D39CDF37E20AF817881F
310
504B0304140006080800B670623B5933D422630500003B100000340000006662782F38353834323741342D343835462D343034322D383541392D4331303331363839454531452F6F626A656374732E786D6CAD575B6FA33814FE2B887D0642934E9B156594264D158D3A534DD4D13E548A0C38942D60649B4EBABF7E3F8321
310
40924EF6928780CDF1B97EE762EFF32E4B8D37CA45C2F21BD3B547A641F39045491EDF98A5DC5AD7A6F1D9F73863B243661A39C9E88DA9B64DDF8B392B0BBD15D12D295339D85DDEFE618890E6D434C2940871638AF08566C426A5641115AF764424B1E3EDCE76ED9AB0CF36E6A47819302D08A7B984A6D8CFC1C5A89572FB
310
CB91E9F89EA3BEFB9EFAD754E3D3544E654F5F7E920B49F2F040D880CDD89D2CEE2E2EA7D6E56432B6269F2E5CEB7679BBB0DCABF168FE693E9FCEEEA6102C240727AD09A75BD3BF876F78127A4EFDA9D5582B7E4CA590E5390D2BFB6161A5B3E618D182E611E2985001691DAB47FDA5AB7CD3F93C566B2DB2BB7D9E55DD13
310
1D468DEECDB3AB290BFE8409E21C54704115AA6AFF68436BFC8DF65E0B184BF5B74418199194272435D224E084BF9B3E481589EFF5D828747285706581E9BB7B7E5D5D911ABFC6EE312DB7659A2A689A7E85EC0DF04FA5A8344BFEA2FCB834E8845895492EAFB541F2BDA0A63FF59C6AD3F7D4637CA13FD68E34B629891172
310
98597F1D183A57B9B75A98FE9765B05BAB7C3C2EBCE0ACA05C2AF8005A4DE09AA7F29216EB9E15397500C6F47CBE77CA7778FE2BD277AF0AE2C693DD6437D1522427B9D8329E2136F6A8FA19A3E6C56ADF0E5F50CF06D48734EDCEBF22F69C56D97EC138153F804B85E6FABFC7AFEFB32E523BE1F3BD372418E363EDCA7548
310
52949E8724474014288D94610BB57C1BEC4C7F854A89CA8E5324F55B871CBC78CE1BBEE3BFE68D6A5589EF3C730474506FCFA8FCF0659516D0ED04580EEA6425581B77CAE797FF4BCECC16EB2FEB926F49481F746159D06D922712BD730FDEAE42BD40F42C7AA5EF3F198F60E86110D6DD20645A9480B795CF95E3E3A659A8
310
C55E724F408873315335CFFB8584874484344D494E59D94869DB90C26A5B64F49C802CAC1D3ABE18A098D3B7444D123D8A9E5AE8F5214F0AE5B2B6E9B575DA3E61CBD3EA2B4009FA940524DD1305FB6A1FB294F14DF0BEA90BA109ECE1481FDC3FFAE8D60E75141700BE82725371B4873751B2DD960265F788137FACE6DD40
310
B575E4F0A5C99F46629D92131467A41EE11ABD8D4CCC039CA0AFB37C93A08B232B8F0AEFCA1E0A1015DF13FC83322B362463652ECF71D3A8B1A7D1BE65DE1D62C44F22C317D35F574FEB16153BA2D13E543D10A80E74C4A65E78A6B7CBCBD1D5DD9DB59C2DAFACC96C3AB566E3F1C29ADCDD5DBAD7D3C9ED7C822ED74F80A6
310
41755310DE4443F44A9E68373FADF6596BFA0F440AE7BECE2727AE9F4F2B1B53B1E7E00CF0DD1E5C65454A339A4BA2D0FBA05ED2EF0443458F47BDBFCA484CCFE0F2ED7E3DD0013B679C7B5499467F0ECEEADDB9CA85A34CE44B99053949D2C1416DB85DE4B136BB7165FBAC0B7AB3542BED4F8CA182A549847A1319316519
310
95A83A67147B9E5101C47487F2485F1ECE38FD568F839204296D3479219888530154036E6528FBFBC66F98E0D4107563A2D7D9AFF8D389681A08F58D89F22693900A3B407754734FC51C10C010D6D640809EE4718AC1BA3ED4AEDB53CA37283F68805A7E4B72CEB0A4EDEAD5DD8C14059A76AFAA56BA6901E13F32BC51C720
310
12AF41295B5BF61BAD3195181FB506E6B40F4C10AF5AF40EF9F5B159AE5DD1F43C72D635E94310D45C2D49785C5D0B94D3B54AB3C5A38349C0587D338AB48C11CBF339599C02CCA54A70A008A8D03C0B2201D5F9EFCF8F9CE12A9A19CB0410789EB32C63B95ECCF455D658BFE0621A3DA32C5075FB101723D77DAE867E7D0F
310
D90444509B44E2151B4DC2290B065803200FBAA9BE9D392A0603F2D5C2D00D6302A615680F66D2FA166E2079D4C551A54AB758161FCEFD4E450A14704CECFEDF504B0304140006080000B670623B000000000000000000000000350000006662782F38353834323741342D343835462D343034322D383541392D4331303331
310
363839454531452F76657274696365732E62696E504B0304140006080800B670623BF270F1330600000004000000360000006662782F38353834323741342D343835462D343034322D383541392D4331303331363839454531452F747269616E676C65732E62696E636660600000504B0304140006080000B670623B000000
310
000000000000000000370000006662782F38353834323741342D343835462D343034322D383541392D4331303331363839454531452F617474726962757465732E62696E504B0304140006080800B670623B08DA0BD19000000041010000360000006662782F38353834323741342D343835462D343034322D383541392D43
310
31303331363839454531452F6469726563746F72792E786D6C858F410AC3201045AF22B36F53E9A60B35CBEEBAE80D244E44489C6234F4F835464A48035D0DF398FF9F8AF63D0E6CC63039F212F8F9020C7D47C6792B21C5FE7403D62A1188E2E60C98D7234A5830286103A55745067B9D86B8A3CF9C7F90C11DE607FB1443
310
96D7B6A82D282E9A152AD114D5EF2CB866EEE831B8EEA07A7BB5A8D7D61A2BAAEB7FD5F70921FF497D00504B0304140006080800B670623BD9A3B367FE000000A00100003B0000006662782F38353834323741342D343835462D343034322D383541392D4331303331363839454531452F7265736F75726365732F636F7265
310
2E786D6C8D504B6E833010BD0A9A6D65B01D0201194711694FD00B586642AD043BF2A7EAF16B122AB5BB6E6646EFA3797AE2F8B5DC8A4FF4C1383B002B291468B59B8C9D0748F1420E501CA5F0CEC55F3228AC5A708015062966EFD27D83B4B3116DCCA875136EA00A012314FA968F0182FEC045952AC5AC08D7F2AEF455CD
310
58B232D3592745883E07289E4FD609D26370C96B0CA27AB252A464A64D63A6FCD35C0C7A904D73EE467EE664DCD58CD4ED4849D79C5A723ED1B7A61977AF2D6F45B59AA58866F9C9A83DAA8813484E6947182394BFB3BAA7FBBEDEBFD0434FA9A856F91F53BA4FFF342563E38E6F719FB60092E5200F428A6AED2BAF479979
310
AFDDCA6F504B010214000A0000080000B670623B3DEE336E79000000790000001B00000000000000000000000000000000006175746F6465736B2D64657369676E2D7061636B6167652E786D6C504B01021400140006080800B670623BD486FD9CA0000000F40000001300000000000000000000000000B20000005B436F6E
310
74656E745F54797065735D2E786D6C504B01021400140006080800B670623BCA089DFFEC0000007C010000080000000000000000000000000083010000636F72652E786D6C504B01021400140006080800B670623B55019EA25F0000007C000000070000000000000000000000000095020000636E782E786D6C504B010214
310
00140006080800B670623B68FC0B7272010000D40300000C00000000000000000000000000190300006662782F636F72652E786D6C504B01021400140006080800B670623B0F71DDB67E0000009D0000000B00000000000000000000000000B50400006662782F636E782E786D6C504B01021400140006080800B670623BE1
310
34B4FB280100001202000031000000000000000000000000005C0500006662782F38353834323741342D343835462D343034322D383541392D4331303331363839454531452F636F72652E786D6C504B01021400140006080800B670623B1B8617914E010000330300003000000000000000000000000000D3060000666278
310
2F38353834323741342D343835462D343034322D383541392D4331303331363839454531452F636E782E786D6C504B01021400140006080800B670623B5933D422630500003B10000034000000000000000000000000006F0800006662782F38353834323741342D343835462D343034322D383541392D4331303331363839
310
454531452F6F626A656374732E786D6C504B01021400140006080000B670623B0000000000000000000000003500000000000000000000000000240E00006662782F38353834323741342D343835462D343034322D383541392D4331303331363839454531452F76657274696365732E62696E504B01021400140006080800
310
B670623BF270F13306000000040000003600000000000000000000000000770E00006662782F38353834323741342D343835462D343034322D383541392D4331303331363839454531452F747269616E676C65732E62696E504B01021400140006080000B670623B0000000000000000000000003700000000000000000000
310
000000D10E00006662782F38353834323741342D343835462D343034322D383541392D4331303331363839454531452F617474726962757465732E62696E504B01021400140006080800B670623B08DA0BD190000000410100003600000000000000000000000000260F00006662782F38353834323741342D343835462D34
310
3034322D383541392D4331303331363839454531452F6469726563746F72792E786D6C504B01021400140006080800B670623BD9A3B367FE000000A00100003B000000000000000000000000000A1000006662782F38353834323741342D343835462D343034322D383541392D4331303331363839454531452F7265736F75
310
726365732F636F72652E786D6C504B0506000000000E000E0080040000611100000000
  0
XRECORD
  5
113
102
{ACAD_REACTORS
330
110
102
}
330
110
100
AcDbXrecord
280
     1
270
     1
271
     1
  0
XRECORD
  5
114
102
{ACAD_REACTORS
330
110
102
}
330
110
100
AcDbXrecord
280
     1
270
     1
271
     1
  0
CELLSTYLEMAP
  5
AF9F
102
{ACAD_REACTORS
330
104
102
}
330
104
100
AcDbCellStyleMap
 90
        3
300
CELLSTYLE
  1
TABLEFORMAT_BEGIN
 90
        5
170
     1
 91
        0
 92
    32768
 62
   257
 93
        1
300
CONTENTFORMAT
  1
CONTENTFORMAT_BEGIN
 90
        0
 91
        0
 92
      512
 93
        0
300

 40
0.0
140
1.0
 94
        5
 62
     0
340
11
144
0.25
309
CONTENTFORMAT_END
171
     1
301
MARGIN
  1
CELLMARGIN_BEGIN
 40
0.06
 40
0.06
 40
0.06
 40
0.06
 40
0.18
 40
0.18
309
CELLMARGIN_END
 94
        6
 95
        1
302
GRIDFORMAT
  1
GRIDFORMAT_BEGIN
 90
        0
 91
        1
 62
     0
 92
       -2
340
0
 93
        0
 40
0.045
309
GRIDFORMAT_END
 95
        2
302
GRIDFORMAT
  1
GRIDFORMAT_BEGIN
 90
        0
 91
        1
 62
     0
 92
       -2
340
0
 93
        0
 40
0.045
309
GRIDFORMAT_END
 95
        4
302
GRIDFORMAT
  1
GRIDFORMAT_BEGIN
 90
        0
 91
        1
 62
     0
 92
       -2
340
0
 93
        0
 40
0.045
309
GRIDFORMAT_END
 95
        8
302
GRIDFORMAT
  1
GRIDFORMAT_BEGIN
 90
        0
 91
        1
 62
     0
 92
       -2
340
0
 93
        0
 40
0.045
309
GRIDFORMAT_END
 95
       16
302
GRIDFORMAT
  1
GRIDFORMAT_BEGIN
 90
        0
 91
        1
 62
     0
 92
       -2
340
0
 93
        0
 40
0.045
309
GRIDFORMAT_END
 95
       32
302
GRIDFORMAT
  1
GRIDFORMAT_BEGIN
 90
        0
 91
        1
 62
     0
 92
       -2
340
0
 93
        0
 40
0.045
309
GRIDFORMAT_END
309
TABLEFORMAT_END
  1
CELLSTYLE_BEGIN
 90
        1
 91
        1
300
_TITLE
309
CELLSTYLE_END
300
CELLSTYLE
  1
TABLEFORMAT_BEGIN
 90
        5
170
     1
 91
        0
 92
        0
 62
   257
 93
        1
300
CONTENTFORMAT
  1
CONTENTFORMAT_BEGIN
 90
        0
 91
        0
 92
      512
 93
        0
300

 40
0.0
140
1.0
 94
        5
 62
     0
340
11
144
0.18
309
CONTENTFORMAT_END
171
     1
301
MARGIN
  1
CELLMARGIN_BEGIN
 40
0.06
 40
0.06
 40
0.06
 40
0.06
 40
0.18
 40
0.18
309
CELLMARGIN_END
 94
        6
 95
        1
302
GRIDFORMAT
  1
GRIDFORMAT_BEGIN
 90
        0
 91
        1
 62
     0
 92
       -2
340
0
 93
        0
 40
0.045
309
GRIDFORMAT_END
 95
        2
302
GRIDFORMAT
  1
GRIDFORMAT_BEGIN
 90
        0
 91
        1
 62
     0
 92
       -2
340
0
 93
        0
 40
0.045
309
GRIDFORMAT_END
 95
        4
302
GRIDFORMAT
  1
GRIDFORMAT_BEGIN
 90
        0
 91
        1
 62
     0
 92
       -2
340
0
 93
        0
 40
0.045
309
GRIDFORMAT_END
 95
        8
302
GRIDFORMAT
  1
GRIDFORMAT_BEGIN
 90
        0
 91
        1
 62
     0
 92
       -2
340
0
 93
        0
 40
0.045
309
GRIDFORMAT_END
 95
       16
302
GRIDFORMAT
  1
GRIDFORMAT_BEGIN
 90
        0
 91
        1
 62
     0
 92
       -2
340
0
 93
        0
 40
0.045
309
GRIDFORMAT_END
 95
       32
302
GRIDFORMAT
  1
GRIDFORMAT_BEGIN
 90
        0
 91
        1
 62
     0
 92
       -2
340
0
 93
        0
 40
0.045
309
GRIDFORMAT_END
309
TABLEFORMAT_END
  1
CELLSTYLE_BEGIN
 90
        2
 91
        1
300
_HEADER
309
CELLSTYLE_END
300
CELLSTYLE
  1
TABLEFORMAT_BEGIN
 90
        5
170
     1
 91
        0
 92
        0
 62
   257
 93
        1
300
CONTENTFORMAT
  1
CONTENTFORMAT_BEGIN
 90
        0
 91
        0
 92
      512
 93
        0
300

 40
0.0
140
1.0
 94
        2
 62
     0
340
11
144
0.18
309
CONTENTFORMAT_END
171
     1
301
MARGIN
  1
CELLMARGIN_BEGIN
 40
0.06
 40
0.06
 40
0.06
 40
0.06
 40
0.18
 40
0.18
309
CELLMARGIN_END
 94
        6
 95
        1
302
GRIDFORMAT
  1
GRIDFORMAT_BEGIN
 90
        0
 91
        1
 62
     0
 92
       -2
340
0
 93
        0
 40
0.045
309
GRIDFORMAT_END
 95
        2
302
GRIDFORMAT
  1
GRIDFORMAT_BEGIN
 90
        0
 91
        1
 62
     0
 92
       -2
340
0
 93
        0
 40
0.045
309
GRIDFORMAT_END
 95
        4
302
GRIDFORMAT
  1
GRIDFORMAT_BEGIN
 90
        0
 91
        1
 62
     0
 92
       -2
340
0
 93
        0
 40
0.045
309
GRIDFORMAT_END
 95
        8
302
GRIDFORMAT
  1
GRIDFORMAT_BEGIN
 90
        0
 91
        1
 62
     0
 92
       -2
340
0
 93
        0
 40
0.045
309
GRIDFORMAT_END
 95
       16
302
GRIDFORMAT
  1
GRIDFORMAT_BEGIN
 90
        0
 91
        1
 62
     0
 92
       -2
340
0
 93
        0
 40
0.045
309
GRIDFORMAT_END
 95
       32
302
GRIDFORMAT
  1
GRIDFORMAT_BEGIN
 90
        0
 91
        1
 62
     0
 92
       -2
340
0
 93
        0
 40
0.045
309
GRIDFORMAT_END
309
TABLEFORMAT_END
  1
CELLSTYLE_BEGIN
 90
        3
 91
        2
300
_DATA
309
CELLSTYLE_END
  0
ENDSEC
  0
SECTION
  2
ACDSDATA
 70
     2
 71
     8
  0
ACDSSCHEMA
 90
        0
  1
AcDb_Thumbnail_Schema
  2
AcDbDs::ID
280
    10
 91
        8
  2
Thumbnail_Data
280
    15
 91
        0
101
ACDSRECORD
 95
        0
 90
        1
  2
AcDbDs::TreatedAsObjectData
280
     1
291
     1
101
ACDSRECORD
 95
        0
 90
        2
  2
AcDbDs::Legacy
280
     1
291
     1
101
ACDSRECORD
  1
AcDbDs::ID
 90
        3
  2
AcDs:Indexable
280
     1
291
     1
101
ACDSRECORD
  1
AcDbDs::ID
 90
        4
  2
AcDbDs::HandleAttribute
280
     7
282
     1
  0
ACDSSCHEMA
 90
        1
  1
AcDbDs::TreatedAsObjectDataSchema
  2
AcDbDs::TreatedAsObjectData
280
     1
 91
        0
  0
ACDSSCHEMA
 90
        2
  1
AcDbDs::LegacySchema
  2
AcDbDs::Legacy
280
     1
 91
        0
  0
ACDSSCHEMA
 90
        3
  1
AcDbDs::IndexedPropertySchema
  2
AcDs:Indexable
280
     1
 91
        0
  0
ACDSSCHEMA
 90
        4
  1
AcDbDs::HandleAttributeSchema
  2
AcDbDs::HandleAttribute
280
     7
 91
        1
284
     1
  0
ACDSRECORD
 90
        0
  2
AcDbDs::ID
280
    10
320
22
  2
Thumbnail_Data
280
    15
 94
     2350
310
89504E470D0A1A0A0000000D49484452000001000000006D080300000079B14F6400000300504C5445212830FFFFFF2128300000000000000000000000000000000000000000000000000000330000660000990000CC0000FF0033000033330033660033990033CC0033FF0066000066330066660066990066CC0066FF0099
310
000099330099660099990099CC0099FF00CC0000CC3300CC6600CC9900CCCC00CCFF00FF0000FF3300FF6600FF9900FFCC00FFFF3300003300333300663300993300CC3300FF3333003333333333663333993333CC3333FF3366003366333366663366993366CC3366FF3399003399333399663399993399CC3399FF33CC00
310
33CC3333CC6633CC9933CCCC33CCFF33FF0033FF3333FF6633FF9933FFCC33FFFF6600006600336600666600996600CC6600FF6633006633336633666633996633CC6633FF6666006666336666666666996666CC6666FF6699006699336699666699996699CC6699FF66CC0066CC3366CC6666CC9966CCCC66CCFF66FF0066
310
FF3366FF6666FF9966FFCC66FFFF9900009900339900669900999900CC9900FF9933009933339933669933999933CC9933FF9966009966339966669966999966CC9966FF9999009999339999669999999999CC9999FF99CC0099CC3399CC6699CC9999CCCC99CCFF99FF0099FF3399FF6699FF9999FFCC99FFFFCC0000CC00
310
33CC0066CC0099CC00CCCC00FFCC3300CC3333CC3366CC3399CC33CCCC33FFCC6600CC6633CC6666CC6699CC66CCCC66FFCC9900CC9933CC9966CC9999CC99CCCC99FFCCCC00CCCC33CCCC66CCCC99CCCCCCCCCCFFCCFF00CCFF33CCFF66CCFF99CCFFCCCCFFFFFF0000FF0033FF0066FF0099FF00CCFF00FFFF3300FF3333
310
FF3366FF3399FF33CCFF33FFFF6600FF6633FF6666FF6699FF66CCFF66FFFF9900FF9933FF9966FF9999FF99CCFF99FFFFCC00FFCC33FFCC66FFCC99FFCCCCFFCCFFFFFF00FFFF33FFFF66FFFF99FFFFCCFFFFFF0000000D0D0D1A1A1A2828283535354343435050505D5D5D6B6B6B787878868686939393A1A1A1AEAEAEBB
310
BBBBC9C9C9D6D6D6E4E4E4F1F1F1FFFFFF0000000000000000000000000000000000000000000000000000000000002E4550F1000005E94944415478DAED9CD972E3201045FBFFFFF7BC4FCD2416BD02923D062FAECA8B1DC5E8707BE18222F27D3DF0050C7EE1FD090CEE9F0F07F0E1F7FFF60086F7F7F600E4D3236008E0
310
ED4360A8800F4F0216006F78FB9C91C8632282D702F0F09CB0515E613C1D9E10F70F7FA3BC3A03200CF7EEB4B85304CC00482EE24D04300320F9FC4E027BA5C0D178C826EC6FEABC3E8F3B95D22900C5855711F05A2150653C2ECF25F262001E4D6027003F39804B00647CED6B0860308D9D8CCF2509BC11804B1A40DE08C0
310
4C19DDDB5FB817C005023B02E8689C0340316ECE86C15E0613F514D3567E3F3FD5C84F8A604B00F5389B043A03671C45AF0F806E9CF4EFCB594AAF0240C7C020750D9A427D31FB01905E6CFF1060649C21C320D9B10D9AC8EF3F039E300E07D5646B00DD2CC0A8504C1168C25F0A804B00CA30717E798F40BBEDA59DF01900
310
9C052074128ABA6D16D681D4DE2C01FC567FCAE2153EAA338A01B093043ABA45B778691F48B89AB2D09918908512E004005D24933A4032E3D4B1B6050039050003206E1099182955B1570C848DBE490524BD00927708F99FB400B6C802C4D13A353705FCAE08BCDAF325425E0D7427205BF402090049001CED1011509DF1E2
310
3DDA5AB1430C4C003039F0DF1B3840F5AE499FC0F54D85871502235424567BCC5CDD96C5D8CF617E911524002B25D003804972BA0AA869A4ABE58480BE742500BDC851F31B7B397B87884D8496CFCC3A33C4C01A00A40054C3470A805B1A50A9A1DFD5A741E512E8AA32806B74ED7DA2A9A0E2FDB8ED2900B12762DA44FCEF
310
1A686198009000E0660A59008CCF58C6D8CF12EC9242E08680A40050F76025808C7DB24E9FC55215A8C193E9D50038BA1D5AF77FF86493A76B4824B07651988830032016809200A26362D674040B7CA1025461EB02D0C6A8EE0EB58826F20024BED04A6748D5BC5E082400DA3DCFB63366516D920D8BD7844A01940AB0116B
310
00B47860EADB0C004196035049DEA47BD313B894D5FABFD61B334FC0D922AB17C5470C60144009E0561790530AD08B0BDB0BAC8F81667D47E70BD729C77DE2996D43F77DB6242E96809E62DDF315AD7BB2029A07E0B3CE4A47C054275B070943B41D4C04307B6636E0DDC319C33B20B9020C00BD2C60FEC46C2AB0C52B2267
310
8470CB8A9400D4EF80E17192001B58835AEEB786172D81EC5129DAB1213891047585D90440CC77FE2804859FF75B3C8F5E607AC3DB6E8F6E0120B16FC88EC53593C43BA39CD9EE35EED2E29302AE810B0070009C17DAB1FE3A532F6655C80E6D40629472A43A4CC2C8969089DB5519302EDB2E06100E3ED11678476D834401
310
DA33A40040B22D4624B0088032F98C41A18A4104604B627266823C6022001948E929737FCB01711DC7F191FB2CCF8892CF7B7E10C55DB50C405BD8155BDB47712F1F9986720B3CA821E9FCE3BA608502EAEA7574480500E27E9273D592D82114834500D4A63FDD135DD4FA2E763A54AC932D22B4EF3067AAFF7700F476F6CA
310
47C67DE674951E48DF6FED4711654F07D01B4071F0852AC9D94E41991EDE7E6D6DF4A2184027017AE98ADAD6A81EA5CDFA4AF15161B6D8960090540238EB266D73281B5F5C57D1DB3438CE5A2C530019005C9F6026D41EAAA8CE41FAC702BA11B60E80B223FD5E9D2E9359EBD3499ACD2509EFC5B0B935A2CF07E00E06A8CC
310
153AFCF400E880400280A3EBF6E3580600B70D201E45068011809CC02DE721853C5603C8F25CE2890A946DBEBFDD8C2CA62068176E4908C4C3013DF322D7477EB52FF7CE6D732E832C5400E7FE01445EF9D324515C7018AE4269233C0F4075F477C2D32ADE4B8EE153C963030508F190DF19733FCD92A177624247EB008401
310
4F6E70954F40262EEB0481E5004ECBB10AE05BC9A7B39E929D14205CDB9EAF8D50718B81A9D5EE0A00F79911B92F103DD4C936671900B90EA07ABE84F471932D01DC794AB3D817481DE66D01749A5ACE84416C78CF95952500FA5F3E93B9AABEF03C81A500C669BEBABEFE8F2367616E09808B1F5EF9BA6703983ECD74C7F5
310
0F9E90BDBEEFE146FEAB01904F57C0CB0FE80BE0D3016C47E00BE00BE00BE00BE0C9BDF0662FF9BE2EBDFE00D21618084D77D8D20000000049454E44AE426082
  0
ENDSEC
  0
EOF
