  0
SECTION
  2
HEADER
  9
$ACADVER
  1
AC1032
  9
$ACADMAINTVER
 90
      197
  9
$DWGCODEPAGE
  3
ANSI_1252
  9
$LASTSAVEDBY
  1
gregb
  9
$REQUIREDVERSIONS
160
                 0
  9
$INSBASE
 10
0.0
 20
0.0
 30
0.0
  9
$EXTMIN
 10
10053.24288627574
 20
30078.74567685142
 30
0.0
  9
$EXTMAX
 10
10181.36703216693
 20
30243.52537482069
 30
0.0
  9
$LIMMIN
 10
0.0
 20
0.0
  9
$LIMMAX
 10
12.0
 20
9.0
  9
$ORTHOMODE
 70
     1
  9
$REGENMODE
 70
     1
  9
$FILLMODE
 70
     1
  9
$QTEXTMODE
 70
     0
  9
$MIRRTEXT
 70
     0
  9
$LTSCALE
 40
1.0
  9
$ATTMODE
 70
     1
  9
$TEXTSIZE
 40
0.2
  9
$TRACEWID
 40
0.05
  9
$TEXTSTYLE
  7
Standard
  9
$CLAYER
  8
freecads.com
  9
$CELTYPE
  6
ByLayer
  9
$CECOLOR
 62
   256
  9
$CELTSCALE
 40
1.0
  9
$DISPSILH
 70
     1
  9
$DIMSCALE
 40
1.0
  9
$DIMASZ
 40
0.18
  9
$DIMEXO
 40
0.0625
  9
$DIMDLI
 40
0.38
  9
$DIMRND
 40
0.0
  9
$DIMDLE
 40
0.0
  9
$DIMEXE
 40
0.18
  9
$DIMTP
 40
0.0
  9
$DIMTM
 40
0.0
  9
$DIMTXT
 40
0.18
  9
$DIMCEN
 40
0.09
  9
$DIMTSZ
 40
0.0
  9
$DIMTOL
 70
     0
  9
$DIMLIM
 70
     0
  9
$DIMTIH
 70
     1
  9
$DIMTOH
 70
     1
  9
$DIMSE1
 70
     0
  9
$DIMSE2
 70
     0
  9
$DIMTAD
 70
     0
  9
$DIMZIN
 70
     0
  9
$DIMBLK
  1

  9
$DIMASO
 70
     1
  9
$DIMSHO
 70
     1
  9
$DIMPOST
  1

  9
$DIMAPOST
  1

  9
$DIMALT
 70
     0
  9
$DIMALTD
 70
     2
  9
$DIMALTF
 40
25.4
  9
$DIMLFAC
 40
1.0
  9
$DIMTOFL
 70
     0
  9
$DIMTVP
 40
0.0
  9
$DIMTIX
 70
     0
  9
$DIMSOXD
 70
     0
  9
$DIMSAH
 70
     0
  9
$DIMBLK1
  1

  9
$DIMBLK2
  1

  9
$DIMSTYLE
  2
Standard
  9
$DIMCLRD
 70
     0
  9
$DIMCLRE
 70
     0
  9
$DIMCLRT
 70
     0
  9
$DIMTFAC
 40
1.0
  9
$DIMGAP
 40
0.09
  9
$DIMJUST
 70
     0
  9
$DIMSD1
 70
     0
  9
$DIMSD2
 70
     0
  9
$DIMTOLJ
 70
     1
  9
$DIMTZIN
 70
     0
  9
$DIMALTZ
 70
     0
  9
$DIMALTTZ
 70
     0
  9
$DIMUPT
 70
     0
  9
$DIMDEC
 70
     4
  9
$DIMTDEC
 70
     4
  9
$DIMALTU
 70
     2
  9
$DIMALTTD
 70
     2
  9
$DIMTXSTY
  7
Standard
  9
$DIMAUNIT
 70
     0
  9
$DIMADEC
 70
     0
  9
$DIMALTRND
 40
0.0
  9
$DIMAZIN
 70
     0
  9
$DIMDSEP
 70
    46
  9
$DIMATFIT
 70
     3
  9
$DIMFRAC
 70
     0
  9
$DIMLDRBLK
  1

  9
$DIMLUNIT
 70
     2
  9
$DIMLWD
 70
    -2
  9
$DIMLWE
 70
    -2
  9
$DIMTMOVE
 70
     0
  9
$DIMFXL
 40
1.0
  9
$DIMFXLON
 70
     0
  9
$DIMJOGANG
 40
0.7853981633974483
  9
$DIMTFILL
 70
     0
  9
$DIMTFILLCLR
 70
     0
  9
$DIMARCSYM
 70
     0
  9
$DIMLTYPE
  6

  9
$DIMLTEX1
  6

  9
$DIMLTEX2
  6

  9
$DIMTXTDIRECTION
 70
     0
  9
$LUNITS
 70
     2
  9
$LUPREC
 70
     4
  9
$SKETCHINC
 40
0.1
  9
$FILLETRAD
 40
0.0
  9
$AUNITS
 70
     0
  9
$AUPREC
 70
     0
  9
$MENU
  1
.
  9
$ELEVATION
 40
0.0
  9
$PELEVATION
 40
0.0
  9
$THICKNESS
 40
0.0
  9
$LIMCHECK
 70
     0
  9
$CHAMFERA
 40
0.0
  9
$CHAMFERB
 40
0.0
  9
$CHAMFERC
 40
0.0
  9
$CHAMFERD
 40
0.0
  9
$SKPOLY
 70
     0
  9
$TDCREATE
 40
2458157.371250000
  9
$TDUCREATE
 40
2458157.287916667
  9
$TDUPDATE
 40
2461016.546979167
  9
$TDUUPDATE
 40
2461016.463645834
  9
$TDINDWG
 40
0.1056712963
  9
$TDUSRTIMER
 40
0.1056712963
  9
$USRTIMER
 70
     1
  9
$ANGBASE
 50
0.0
  9
$ANGDIR
 70
     0
  9
$PDMODE
 70
     0
  9
$PDSIZE
 40
0.0
  9
$PLINEWID
 40
0.0
  9
$SPLFRAME
 70
     0
  9
$SPLINETYPE
 70
     6
  9
$SPLINESEGS
 70
     8
  9
$HANDSEED
  5
B2FB
  9
$SURFTAB1
 70
     6
  9
$SURFTAB2
 70
     6
  9
$SURFTYPE
 70
     6
  9
$SURFU
 70
     6
  9
$SURFV
 70
     6
  9
$UCSBASE
  2

  9
$UCSNAME
  2

  9
$UCSORG
 10
0.0
 20
0.0
 30
0.0
  9
$UCSXDIR
 10
1.0
 20
0.0
 30
0.0
  9
$UCSYDIR
 10
0.0
 20
1.0
 30
0.0
  9
$UCSORTHOREF
  2

  9
$UCSORTHOVIEW
 70
     0
  9
$UCSORGTOP
 10
0.0
 20
0.0
 30
0.0
  9
$UCSORGBOTTOM
 10
0.0
 20
0.0
 30
0.0
  9
$UCSORGLEFT
 10
0.0
 20
0.0
 30
0.0
  9
$UCSORGRIGHT
 10
0.0
 20
0.0
 30
0.0
  9
$UCSORGFRONT
 10
0.0
 20
0.0
 30
0.0
  9
$UCSORGBACK
 10
0.0
 20
0.0
 30
0.0
  9
$PUCSBASE
  2

  9
$PUCSNAME
  2

  9
$PUCSORG
 10
0.0
 20
0.0
 30
0.0
  9
$PUCSXDIR
 10
1.0
 20
0.0
 30
0.0
  9
$PUCSYDIR
 10
0.0
 20
1.0
 30
0.0
  9
$PUCSORTHOREF
  2

  9
$PUCSORTHOVIEW
 70
     0
  9
$PUCSORGTOP
 10
0.0
 20
0.0
 30
0.0
  9
$PUCSORGBOTTOM
 10
0.0
 20
0.0
 30
0.0
  9
$PUCSORGLEFT
 10
0.0
 20
0.0
 30
0.0
  9
$PUCSORGRIGHT
 10
0.0
 20
0.0
 30
0.0
  9
$PUCSORGFRONT
 10
0.0
 20
0.0
 30
0.0
  9
$PUCSORGBACK
 10
0.0
 20
0.0
 30
0.0
  9
$USERI1
 70
     0
  9
$USERI2
 70
     0
  9
$USERI3
 70
     0
  9
$USERI4
 70
     0
  9
$USERI5
 70
     0
  9
$USERR1
 40
0.0
  9
$USERR2
 40
0.0
  9
$USERR3
 40
0.0
  9
$USERR4
 40
0.0
  9
$USERR5
 40
0.0
  9
$WORLDVIEW
 70
     1
  9
$SHADEDGE
 70
     3
  9
$SHADEDIF
 70
    70
  9
$TILEMODE
 70
     1
  9
$MAXACTVP
 70
    64
  9
$PINSBASE
 10
0.0
 20
0.0
 30
0.0
  9
$PLIMCHECK
 70
     0
  9
$PEXTMIN
 10
0.0
 20
0.0
 30
0.0
  9
$PEXTMAX
 10
0.0
 20
0.0
 30
0.0
  9
$PLIMMIN
 10
0.0
 20
0.0
  9
$PLIMMAX
 10
12.0
 20
9.0
  9
$UNITMODE
 70
     0
  9
$VISRETAIN
 70
     1
  9
$PLINEGEN
 70
     0
  9
$PSLTSCALE
 70
     1
  9
$TREEDEPTH
 70
  3020
  9
$CMLSTYLE
  2
Standard
  9
$CMLJUST
 70
     0
  9
$CMLSCALE
 40
1.0
  9
$PROXYGRAPHICS
 70
     1
  9
$MEASUREMENT
 70
     0
  9
$CELWEIGHT
370
    -1
  9
$ENDCAPS
280
     0
  9
$JOINSTYLE
280
     0
  9
$LWDISPLAY
290
     0
  9
$INSUNITS
 70
     1
  9
$HYPERLINKBASE
  1

  9
$STYLESHEET
  1
monochrome.ctb
  9
$XEDIT
290
     1
  9
$CEPSNTYPE
380
     0
  9
$PSTYLEMODE
290
     1
  9
$FINGERPRINTGUID
  2
{358EB121-6EE0-9143-8A3E-6E8E8869FDA6}
  9
$VERSIONGUID
  2
{B32136BB-033C-9C49-8FB9-78E6AFF98DF7}
  9
$EXTNAMES
290
     1
  9
$PSVPSCALE
 40
0.0
  9
$OLESTARTUP
290
     0
  9
$SORTENTS
280
   127
  9
$INDEXCTL
280
     0
  9
$HIDETEXT
280
     1
  9
$XCLIPFRAME
280
     2
  9
$HALOGAP
280
     0
  9
$OBSCOLOR
 70
   257
  9
$OBSLTYPE
280
     0
  9
$INTERSECTIONDISPLAY
280
     0
  9
$INTERSECTIONCOLOR
 70
   257
  9
$DIMASSOC
280
     2
  9
$PROJECTNAME
  1

  9
$CAMERADISPLAY
290
     0
  9
$LENSLENGTH
 40
50.0
  9
$CAMERAHEIGHT
 40
0.0
  9
$STEPSPERSEC
 40
2.0
  9
$STEPSIZE
 40
6.0
  9
$3DDWFPREC
 40
2.0
  9
$PSOLWIDTH
 40
0.25
  9
$PSOLHEIGHT
 40
4.0
  9
$LOFTANG1
 40
1.570796326794896
  9
$LOFTANG2
 40
1.570796326794896
  9
$LOFTMAG1
 40
0.0
  9
$LOFTMAG2
 40
0.0
  9
$LOFTPARAM
 70
     7
  9
$LOFTNORMALS
280
     1
  9
$LATITUDE
 40
37.795
  9
$LONGITUDE
 40
-122.394
  9
$NORTHDIRECTION
 40
0.0
  9
$TIMEZONE
 70
 -8000
  9
$LIGHTGLYPHDISPLAY
280
     1
  9
$TILEMODELIGHTSYNCH
280
     1
  9
$CMATERIAL
347
96
  9
$SOLIDHIST
280
     0
  9
$SHOWHIST
280
     1
  9
$DWFFRAME
280
     2
  9
$DGNFRAME
280
     0
  9
$REALWORLDSCALE
290
     1
  9
$INTERFERECOLOR
 62
     1
  9
$INTERFEREOBJVS
345
A3
  9
$INTERFEREVPVS
346
A0
  9
$CSHADOW
280
     0
  9
$SHADOWPLANELOCATION
 40
0.0
  0
ENDSEC
  0
SECTION
  2
CLASSES
  0
CLASS
  1
ACDBDICTIONARYWDFLT
  2
AcDbDictionaryWithDefault
  3
ObjectDBX Classes
 90
        0
 91
        1
280
     0
281
     0
  0
CLASS
  1
DICTIONARYVAR
  2
AcDbDictionaryVar
  3
ObjectDBX Classes
 90
        0
 91
        9
280
     0
281
     0
  0
CLASS
  1
TABLESTYLE
  2
AcDbTableStyle
  3
ObjectDBX Classes
 90
     4095
 91
        1
280
     0
281
     0
  0
CLASS
  1
MATERIAL
  2
AcDbMaterial
  3
ObjectDBX Classes
 90
     1153
 91
        3
280
     0
281
     0
  0
CLASS
  1
VISUALSTYLE
  2
AcDbVisualStyle
  3
ObjectDBX Classes
 90
     4095
 91
       25
280
     0
281
     0
  0
CLASS
  1
SCALE
  2
AcDbScale
  3
ObjectDBX Classes
 90
     1153
 91
       35
280
     0
281
     0
  0
CLASS
  1
MLEADERSTYLE
  2
AcDbMLeaderStyle
  3
ACDB_MLEADERSTYLE_CLASS
 90
     4095
 91
        1
280
     0
281
     0
  0
CLASS
  1
CELLSTYLEMAP
  2
AcDbCellStyleMap
  3
ObjectDBX Classes
 90
     1152
 91
        1
280
     0
281
     0
  0
CLASS
  1
EXACXREFPANELOBJECT
  2
ExAcXREFPanelObject
  3
EXAC_ESW
 90
     1025
 91
        0
280
     0
281
     0
  0
CLASS
  1
NPOCOLLECTION
  2
AcDbImpNonPersistentObjectsCollection
  3
ObjectDBX Classes
 90
     1153
 91
        0
280
     0
281
     0
  0
CLASS
  1
LAYER_INDEX
  2
AcDbLayerIndex
  3
ObjectDBX Classes
 90
        0
 91
        0
280
     0
281
     0
  0
CLASS
  1
SPATIAL_INDEX
  2
AcDbSpatialIndex
  3
ObjectDBX Classes
 90
        0
 91
        0
280
     0
281
     0
  0
CLASS
  1
IDBUFFER
  2
AcDbIdBuffer
  3
ObjectDBX Classes
 90
        0
 91
        0
280
     0
281
     0
  0
CLASS
  1
ACDBSECTIONVIEWSTYLE
  2
AcDbSectionViewStyle
  3
ObjectDBX Classes
 90
     1025
 91
        2
280
     0
281
     0
  0
CLASS
  1
ACDBDETAILVIEWSTYLE
  2
AcDbDetailViewStyle
  3
ObjectDBX Classes
 90
     1025
 91
        2
280
     0
281
     0
  0
CLASS
  1
SORTENTSTABLE
  2
AcDbSortentsTable
  3
ObjectDBX Classes
 90
        0
 91
        1
280
     0
281
     0
  0
CLASS
  1
SPATIAL_FILTER
  2
AcDbSpatialFilter
  3
ObjectDBX Classes
 90
        0
 91
        0
280
     0
281
     0
  0
CLASS
  1
SOLID_BACKGROUND
  2
AcDbSolidBackground
  3
SCENEOE
 90
     4095
 91
        0
280
     0
281
     0
  0
ENDSEC
  0
SECTION
  2
TABLES
  0
TABLE
  2
VPORT
  5
8
330
0
100
AcDbSymbolTable
 70
     1
  0
VPORT
  5
94
330
8
100
AcDbSymbolTableRecord
100
AcDbViewportTableRecord
  2
*Active
 70
     0
 10
0.0
 20
0.0
 11
1.0
 21
1.0
 12
10117.63599199969
 22
30174.21763902048
 13
0.0
 23
0.0
 14
0.5
 24
0.5
 15
0.5
 25
0.5
 16
0.0
 26
0.0
 36
1.0
 17
0.0
 27
0.0
 37
0.0
 40
186.2218918566502
 41
2.066284779050736
 42
50.0
 43
0.0
 44
0.0
 50
0.0
 51
0.0
 71
     0
 72
  1000
 73
     1
 74
     3
 75
     0
 76
     0
 77
     0
 78
     0
281
     0
 65
     1
110
0.0
120
0.0
130
0.0
111
1.0
121
0.0
131
0.0
112
0.0
122
1.0
132
0.0
 79
     0
146
0.0
348
9F
 60
     3
 61
     5
292
     1
282
     1
141
0.0
142
0.0
 63
   250
421
  3355443
1001
ACAD_NAV_VCDISPLAY
1070
     3
  0
ENDTAB
  0
TABLE
  2
LTYPE
  5
5
330
0
100
AcDbSymbolTable
 70
     1
  0
LTYPE
  5
14
330
5
100
AcDbSymbolTableRecord
100
AcDbLinetypeTableRecord
  2
ByBlock
 70
     0
  3

 72
    65
 73
     0
 40
0.0
  0
LTYPE
  5
15
330
5
100
AcDbSymbolTableRecord
100
AcDbLinetypeTableRecord
  2
ByLayer
 70
     0
  3

 72
    65
 73
     0
 40
0.0
  0
LTYPE
  5
16
330
5
100
AcDbSymbolTableRecord
100
AcDbLinetypeTableRecord
  2
Continuous
 70
     0
  3
Solid line
 72
    65
 73
     0
 40
0.0
  0
ENDTAB
  0
TABLE
  2
LAYER
  5
2
102
{ACAD_XDICTIONARY
360
18E
102
}
330
0
100
AcDbSymbolTable
 70
     2
  0
LAYER
  5
10
102
{ACAD_XDICTIONARY
360
E6
102
}
330
2
100
AcDbSymbolTableRecord
100
AcDbLayerTableRecord
  2
0
 70
     0
 62
     7
  6
Continuous
370
    -3
390
F
347
98
348
0
  0
LAYER
  5
204
330
2
100
AcDbSymbolTableRecord
100
AcDbLayerTableRecord
  2
freecads.com
 70
     0
 62
     7
  6
Continuous
370
    -3
390
F
347
98
348
0
1001
AcAecLayerStandard
1000

1000

1001
AcCmTransparency
1071
        0
  0
ENDTAB
  0
TABLE
  2
STYLE
  5
3
330
0
100
AcDbSymbolTable
 70
     1
  0
STYLE
  5
11
330
3
100
AcDbSymbolTableRecord
100
AcDbTextStyleTableRecord
  2
Standard
 70
     0
 40
0.0
 41
1.0
 50
0.0
 71
     0
 42
0.2
  3
arial.ttf
  4

1001
ACAD
1000
Arial
1071
       34
  0
ENDTAB
  0
TABLE
  2
VIEW
  5
6
330
0
100
AcDbSymbolTable
 70
     0
  0
ENDTAB
  0
TABLE
  2
UCS
  5
7
330
0
100
AcDbSymbolTable
 70
     0
  0
ENDTAB
  0
TABLE
  2
APPID
  5
9
330
0
100
AcDbSymbolTable
 70
    23
  0
APPID
  5
12
330
9
100
AcDbSymbolTableRecord
100
AcDbRegAppTableRecord
  2
ACAD
 70
     0
  0
APPID
  5
DD
330
9
100
AcDbSymbolTableRecord
100
AcDbRegAppTableRecord
  2
AcadAnnoPO
 70
     0
  0
APPID
  5
DE
330
9
100
AcDbSymbolTableRecord
100
AcDbRegAppTableRecord
  2
AcadAnnotative
 70
     0
  0
APPID
  5
DF
330
9
100
AcDbSymbolTableRecord
100
AcDbRegAppTableRecord
  2
ACAD_DSTYLE_DIMJAG
 70
     0
  0
APPID
  5
E0
330
9
100
AcDbSymbolTableRecord
100
AcDbRegAppTableRecord
  2
ACAD_DSTYLE_DIMTALN
 70
     0
  0
APPID
  5
107
330
9
100
AcDbSymbolTableRecord
100
AcDbRegAppTableRecord
  2
ACAD_MLEADERVER
 70
     0
  0
APPID
  5
1A6
330
9
100
AcDbSymbolTableRecord
100
AcDbRegAppTableRecord
  2
ACAD_NAV_VCDISPLAY
 70
     0
  0
APPID
  5
205
330
9
100
AcDbSymbolTableRecord
100
AcDbRegAppTableRecord
  2
AcAecLayerStandard
 70
     0
  0
APPID
  5
206
330
9
100
AcDbSymbolTableRecord
100
AcDbRegAppTableRecord
  2
AcCmTransparency
 70
     0
  0
APPID
  5
222
330
9
100
AcDbSymbolTableRecord
100
AcDbRegAppTableRecord
  2
ACAD_PSEXT
 70
     0
  0
APPID
  5
2DA
330
9
100
AcDbSymbolTableRecord
100
AcDbRegAppTableRecord
  2
GradientColor1ACI
 70
     0
  0
APPID
  5
2DB
330
9
100
AcDbSymbolTableRecord
100
AcDbRegAppTableRecord
  2
GradientColor2ACI
 70
     0
  0
APPID
  5
2F3
330
9
100
AcDbSymbolTableRecord
100
AcDbRegAppTableRecord
  2
ACAD_EXEMPT_FROM_CAD_STANDARDS
 70
     0
  0
APPID
  5
A1A
330
9
100
AcDbSymbolTableRecord
100
AcDbRegAppTableRecord
  2
AcDbBlockRepETag
 70
     0
  0
APPID
  5
228C
330
9
100
AcDbSymbolTableRecord
100
AcDbRegAppTableRecord
  2
RAK
 70
     0
  0
APPID
  5
2683
330
9
100
AcDbSymbolTableRecord
100
AcDbRegAppTableRecord
  2
ACAD_DSTYLE_DIMJOGGED_JOGANGLE_SYMBOL
 70
     0
  0
APPID
  5
47CF
330
9
100
AcDbSymbolTableRecord
100
AcDbRegAppTableRecord
  2
ACAD_DSTYLE_DIMBREAK
 70
     0
  0
APPID
  5
47D0
330
9
100
AcDbSymbolTableRecord
100
AcDbRegAppTableRecord
  2
AcDbDynamicBlockGUID
 70
     0
  0
APPID
  5
8BD5
330
9
100
AcDbSymbolTableRecord
100
AcDbRegAppTableRecord
  2
AcLayerTools
 70
     0
  0
APPID
  5
92D9
330
9
100
AcDbSymbolTableRecord
100
AcDbRegAppTableRecord
  2
AutoGrph01
 70
     0
  0
APPID
  5
92DA
330
9
100
AcDbSymbolTableRecord
100
AcDbRegAppTableRecord
  2
AutoGrphVars
 70
     0
  0
APPID
  5
92DB
330
9
100
AcDbSymbolTableRecord
100
AcDbRegAppTableRecord
  2
AutoGrphZ
 70
     0
  0
APPID
  5
92DC
330
9
100
AcDbSymbolTableRecord
100
AcDbRegAppTableRecord
  2
AutoGrph05
 70
     0
  0
ENDTAB
  0
TABLE
  2
DIMSTYLE
  5
A
330
0
100
AcDbSymbolTable
 70
     1
100
AcDbDimStyleTable
 71
     1
340
27
  0
DIMSTYLE
105
27
330
A
100
AcDbSymbolTableRecord
100
AcDbDimStyleTableRecord
  2
Standard
 70
     0
340
11
  0
ENDTAB
  0
TABLE
  2
BLOCK_RECORD
  5
1
330
0
100
AcDbSymbolTable
 70
     1
  0
BLOCK_RECORD
  5
1F
102
{ACAD_XDICTIONARY
360
15D
102
}
330
1
100
AcDbSymbolTableRecord
100
AcDbBlockTableRecord
  2
*Model_Space
340
22
 70
     0
280
     1
281
     0
  0
BLOCK_RECORD
  5
58
330
1
100
AcDbSymbolTableRecord
100
AcDbBlockTableRecord
  2
*Paper_Space
340
59
 70
     0
280
     1
281
     0
  0
BLOCK_RECORD
  5
5D
330
1
100
AcDbSymbolTableRecord
100
AcDbBlockTableRecord
  2
*Paper_Space0
340
5E
 70
     0
280
     1
281
     0
  0
ENDTAB
  0
ENDSEC
  0
SECTION
  2
BLOCKS
  0
BLOCK
  5
20
330
1F
100
AcDbEntity
  8
0
100
AcDbBlockBegin
  2
*Model_Space
 70
     0
 10
0.0
 20
0.0
 30
0.0
  3
*Model_Space
  1

  0
ENDBLK
  5
21
330
1F
100
AcDbEntity
  8
0
100
AcDbBlockEnd
  0
BLOCK
  5
5A
330
58
100
AcDbEntity
 67
     1
  8
0
100
AcDbBlockBegin
  2
*Paper_Space
 70
     0
 10
0.0
 20
0.0
 30
0.0
  3
*Paper_Space
  1

  0
ENDBLK
  5
5B
330
58
100
AcDbEntity
 67
     1
  8
0
100
AcDbBlockEnd
  0
BLOCK
  5
5F
330
5D
100
AcDbEntity
 67
     1
  8
0
100
AcDbBlockBegin
  2
*Paper_Space0
 70
     0
 10
0.0
 20
0.0
 30
0.0
  3
*Paper_Space0
  1

  0
ENDBLK
  5
60
330
5D
100
AcDbEntity
 67
     1
  8
0
100
AcDbBlockEnd
  0
ENDSEC
  0
SECTION
  2
ENTITIES
  0
ARC
  5
B0C7
330
1F
100
AcDbEntity
  8
freecads.com
100
AcDbCircle
 10
10078.34938335878
 20
30237.60945866673
 30
0.0
 40
5.343755001809839
100
AcDbArc
 50
104.2006242971747
 51
142.2517627997395
  0
ARC
  5
B0C8
330
1F
100
AcDbEntity
  8
freecads.com
100
AcDbCircle
 10
10085.35555121372
 20
30232.18502261596
 30
0.0
 40
14.20439236490031
100
AcDbArc
 50
142.2516796523013
 51
160.6029286773878
  0
ARC
  5
B0C9
330
1F
100
AcDbEntity
  8
freecads.com
100
AcDbCircle
 10
10085.84237144791
 20
30232.01362021635
 30
0.0
 40
14.72050545616785
100
AcDbArc
 50
160.6029510652687
 51
178.6380943531202
  0
ARC
  5
B0CA
330
1F
100
AcDbEntity
  8
freecads.com
100
AcDbCircle
 10
10077.45475871083
 20
30232.21303750344
 30
0.0
 40
6.330522459680901
100
AcDbArc
 50
178.6381701419364
 51
212.5117241562366
  0
ARC
  5
B0CB
330
1F
100
AcDbEntity
  8
freecads.com
100
AcDbCircle
 10
10064.96286902993
 20
30224.2512288967
 30
0.0
 40
8.482907396036258
100
AcDbArc
 50
10.06404040332136
 51
32.51174198148744
  0
ARC
  5
B0CC
330
1F
100
AcDbEntity
  8
freecads.com
100
AcDbCircle
 10
10068.74612389573
 20
30224.92267814051
 30
0.0
 40
4.640530336632394
100
AcDbArc
 50
334.8166518210153
 51
10.06405987489219
  0
ARC
  5
B0CD
330
1F
100
AcDbEntity
  8
freecads.com
100
AcDbCircle
 10
10061.2946934561
 20
30228.42639934812
 30
0.0
 40
12.87459846225389
100
AcDbArc
 50
316.7949912549272
 51
334.8166962394758
  0
ARC
  5
B0CE
330
1F
100
AcDbEntity
  8
freecads.com
100
AcDbCircle
 10
9960.194919860725
 20
30323.381948298
 30
0.0
 40
151.5747084023995
100
AcDbArc
 50
313.8355100349634
 51
316.7950163084727
  0
LINE
  5
B0CF
330
1F
100
AcDbEntity
  8
freecads.com
100
AcDbLine
 10
10065.17410234188
 20
30214.04639382069
 30
0.0
 11
10056.82022334188
 21
30206.02537482069
 31
0.0
  0
LINE
  5
B0D0
330
1F
100
AcDbEntity
  8
freecads.com
100
AcDbLine
 10
10056.82022334188
 20
30206.02537482069
 30
0.0
 11
10056.13284534188
 21
30199.14451582069
 31
0.0
  0
ARC
  5
B0D1
330
1F
100
AcDbEntity
  8
freecads.com
100
AcDbCircle
 10
9998.474394140977
 20
30204.90440316808
 30
0.0
 40
57.94543379026546
100
AcDbArc
 50
351.4418570473086
 51
354.2952686038704
  0
ARC
  5
B0D2
330
1F
100
AcDbEntity
  8
freecads.com
100
AcDbCircle
 10
9992.61435011266
 20
30205.78628704128
 30
0.0
 40
63.87146409557385
100
AcDbArc
 50
348.7893976652872
 51
351.4418446394866
  0
ARC
  5
B0D3
330
1F
100
AcDbEntity
  8
freecads.com
100
AcDbCircle
 10
9999.84238370988
 20
30204.35371104958
 30
0.0
 40
56.50283168144708
100
AcDbArc
 50
346.1213651492559
 51
348.7893944759536
  0
ARC
  5
B0D4
330
1F
100
AcDbEntity
  8
freecads.com
100
AcDbCircle
 10
10043.49004326528
 20
30193.56928115131
 30
0.0
 40
11.54260355818713
100
AcDbArc
 50
337.459148691419
 51
346.1213519998234
  0
ARC
  5
B0D5
330
1F
100
AcDbEntity
  8
freecads.com
100
AcDbCircle
 10
10064.3530482824
 20
30184.91010110488
 30
0.0
 40
11.0460302522151
100
AcDbArc
 50
157.459110417421
 51
173.5642892358208
  0
ARC
  5
B0D6
330
1F
100
AcDbEntity
  8
freecads.com
100
AcDbCircle
 10
10074.4659172341
 20
30183.76938863517
 30
0.0
 40
21.22303095835763
100
AcDbArc
 50
173.5643169595322
 51
183.4437775603601
  0
ARC
  5
B0D7
330
1F
100
AcDbEntity
  8
freecads.com
100
AcDbCircle
 10
10126.81102678349
 20
30186.91927839992
 30
0.0
 40
73.66282786169238
100
AcDbArc
 50
183.44368384414
 51
187.9781675977749
  0
ARC
  5
B0D8
330
1F
100
AcDbEntity
  8
freecads.com
100
AcDbCircle
 10
11207.18343823303
 20
30338.33525020024
 30
0.0
 40
1164.594239059252
100
AcDbArc
 50
187.9781341302984
 51
188.5831761564044
  0
ARC
  5
B0D9
330
1F
100
AcDbEntity
  8
freecads.com
100
AcDbCircle
 10
10455.75243328302
 20
30224.91779235183
 30
0.0
 40
404.6520866917608
100
AcDbArc
 50
188.5831924825744
 51
190.0098389648243
  0
ARC
  5
B0DA
330
1F
100
AcDbEntity
  8
freecads.com
100
AcDbCircle
 10
10086.1015211105
 20
30159.67289383822
 30
0.0
 40
29.28733921003105
100
AcDbArc
 50
190.0098074300382
 51
199.7357673334148
  0
ARC
  5
B0DB
330
1F
100
AcDbEntity
  8
freecads.com
100
AcDbCircle
 10
10064.7683152673
 20
30152.0194684084
 30
0.0
 40
6.622816440772213
100
AcDbArc
 50
199.7357364504145
 51
224.2963417250077
  0
ARC
  5
B0DC
330
1F
100
AcDbEntity
  8
freecads.com
100
AcDbCircle
 10
10062.08997337434
 20
30149.40611651226
 30
0.0
 40
2.880741691573541
100
AcDbArc
 50
224.2963223820853
 51
269.9999595759231
  0
ARC
  5
B0DD
330
1F
100
AcDbEntity
  8
freecads.com
100
AcDbCircle
 10
10062.08996935855
 20
30142.31489778477
 30
0.0
 40
4.210477035923771
100
AcDbArc
 50
77.84062530188876
 51
89.99997301097691
  0
ARC
  5
B0DE
330
1F
100
AcDbEntity
  8
freecads.com
100
AcDbCircle
 10
10062.16202564838
 20
30142.64935865754
 30
0.0
 40
3.868342290173899
100
AcDbArc
 50
64.88324826241825
 51
77.84050201281651
  0
ARC
  5
B0DF
330
1F
100
AcDbEntity
  8
freecads.com
100
AcDbCircle
 10
10062.51468162167
 20
30143.40162389475
 30
0.0
 40
3.037517866726725
100
AcDbArc
 50
50.36471524676315
 51
64.88326441295814
  0
ARC
  5
B0E0
330
1F
100
AcDbEntity
  8
freecads.com
100
AcDbCircle
 10
10063.6983249208
 20
30144.8306087938
 30
0.0
 40
1.181983091713044
100
AcDbArc
 50
20.99362243226371
 51
50.36475779047309
  0
ARC
  5
B0E1
330
1F
100
AcDbEntity
  8
freecads.com
100
AcDbCircle
 10
10054.81942342202
 20
30141.42344859696
 30
0.0
 40
10.69216881187772
100
AcDbArc
 50
7.120506538089341
 51
20.9936380790594
  0
ARC
  5
B0E2
330
1F
100
AcDbEntity
  8
freecads.com
100
AcDbCircle
 10
9222.353530216151
 20
30037.4308939814
 30
0.0
 40
849.6283492013652
100
AcDbArc
 50
6.512313879376287
 51
7.120564446631483
  0
ARC
  5
B0E3
330
1F
100
AcDbEntity
  8
freecads.com
100
AcDbCircle
 10
9497.24624083459
 20
30068.81064148502
 30
0.0
 40
572.9503939817606
100
AcDbArc
 50
5.461762557575081
 51
6.512330612165095
  0
ARC
  5
B0E4
330
1F
100
AcDbEntity
  8
freecads.com
100
AcDbCircle
 10
9287.018860482177
 20
30048.70990895172
 30
0.0
 40
784.1365462222886
100
AcDbArc
 50
4.631416055585843
 51
5.461742859279601
  0
ARC
  5
B0E5
330
1F
100
AcDbEntity
  8
freecads.com
100
AcDbCircle
 10
10274.83610605759
 20
30128.73290820778
 30
0.0
 40
206.9167273539309
100
AcDbArc
 50
184.6314013661098
 51
186.1634676882226
  0
ARC
  5
B0E6
330
1F
100
AcDbEntity
  8
freecads.com
100
AcDbCircle
 10
10207.15561247429
 20
30121.42410988595
 30
0.0
 40
138.8427400710631
100
AcDbArc
 50
186.1634661246302
 51
188.2294959661841
  0
ARC
  5
B0E7
330
1F
100
AcDbEntity
  8
freecads.com
100
AcDbCircle
 10
10227.37268921609
 20
30124.34781880369
 30
0.0
 40
159.2701301581458
100
AcDbArc
 50
188.2294101465907
 51
189.7293922361177
  0
ARC
  5
B0E8
330
1F
100
AcDbEntity
  8
freecads.com
100
AcDbCircle
 10
10074.4813916744
 20
30098.13289722329
 30
0.0
 40
4.147691492919729
100
AcDbArc
 50
189.7293532436067
 51
210.5386431498796
  0
ARC
  5
B0E9
330
1F
100
AcDbEntity
  8
freecads.com
100
AcDbCircle
 10
10065.4745756075
 20
30092.81928602849
 30
0.0
 40
6.30970778187334
100
AcDbArc
 50
7.918710269839754
 51
30.53868561175312
  0
ARC
  5
B0EA
330
1F
100
AcDbEntity
  8
freecads.com
100
AcDbCircle
 10
10050.67410789291
 20
30090.76058954567
 30
0.0
 40
21.2526685252746
100
AcDbArc
 50
358.7618562630386
 51
7.91880481994094
  0
ARC
  5
B0EB
330
1F
100
AcDbEntity
  8
freecads.com
100
AcDbCircle
 10
10050.73498764322
 20
30090.75926027966
 30
0.0
 40
21.19177426639093
100
AcDbArc
 50
349.8896070076025
 51
358.7618926703123
  0
ARC
  5
B0EC
330
1F
100
AcDbEntity
  8
freecads.com
100
AcDbCircle
 10
10068.3287039057
 20
30087.62205533763
 30
0.0
 40
3.320543005708253
100
AcDbArc
 50
315.0000478189663
 51
349.8895056117842
  0
ARC
  5
B0ED
330
1F
100
AcDbEntity
  8
freecads.com
100
AcDbCircle
 10
10072.70663108657
 20
30083.24413537875
 30
0.0
 40
2.870775881845136
100
AcDbArc
 50
135.0000466104426
 51
149.3592600775761
  0
ARC
  5
B0EE
330
1F
100
AcDbEntity
  8
freecads.com
100
AcDbCircle
 10
10074.87344111827
 20
30081.96061022938
 30
0.0
 40
5.389208434548775
100
AcDbArc
 50
149.3592890818835
 51
158.3212785894881
  0
ARC
  5
B0EF
330
1F
100
AcDbEntity
  8
freecads.com
100
AcDbCircle
 10
10074.99300694486
 20
30081.91307840192
 30
0.0
 40
5.517875685647148
100
AcDbArc
 50
158.3212570220271
 51
167.2042981367802
  0
ARC
  5
B0F0
330
1F
100
AcDbEntity
  8
freecads.com
100
AcDbCircle
 10
10072.91778496202
 20
30082.38439589767
 30
0.0
 40
3.389804620143237
100
AcDbArc
 50
167.2043366718765
 51
180.0000689105389
  0
ARC
  5
B0F1
330
1F
100
AcDbEntity
  8
freecads.com
100
AcDbCircle
 10
10072.13025162018
 20
30082.38439227961
 30
0.0
 40
2.602271278299139
100
AcDbArc
 50
180.0000101043777
 51
237.4601549402548
  0
ARC
  5
B0F2
330
1F
100
AcDbEntity
  8
freecads.com
100
AcDbCircle
 10
10072.67990611775
 20
30083.2458479911
 30
0.0
 40
3.624145052081631
100
AcDbArc
 50
237.4601004614082
 51
282.3947595001713
  0
ARC
  5
B0F3
330
1F
100
AcDbEntity
  8
freecads.com
100
AcDbCircle
 10
10071.41183168709
 20
30089.0159131477
 30
0.0
 40
9.531908137469949
100
AcDbArc
 50
282.3947394333941
 51
307.2242386908764
  0
ARC
  5
B0F4
330
1F
100
AcDbEntity
  8
freecads.com
100
AcDbCircle
 10
10067.18033056245
 20
30094.58581180742
 30
0.0
 40
16.52686152168376
100
AcDbArc
 50
307.224246542159
 51
323.6689609685166
  0
ARC
  5
B0F5
330
1F
100
AcDbEntity
  8
freecads.com
100
AcDbCircle
 10
10065.26810380927
 20
30095.99206921526
 30
0.0
 40
18.90050240703597
100
AcDbArc
 50
323.6689812848506
 51
336.3877178761081
  0
ARC
  5
B0F6
330
1F
100
AcDbEntity
  8
freecads.com
100
AcDbCircle
 10
10073.02610699234
 20
30092.60070096531
 30
0.0
 40
10.43362624193116
100
AcDbArc
 50
336.3877146271258
 51
356.2308466587068
  0
ARC
  5
B0F7
330
1F
100
AcDbEntity
  8
freecads.com
100
AcDbCircle
 10
10072.55201257125
 20
30092.63194647502
 30
0.0
 40
10.90874917532716
100
AcDbArc
 50
356.2307808809073
 51
15.55245109876329
  0
ARC
  5
B0F8
330
1F
100
AcDbEntity
  8
freecads.com
100
AcDbCircle
 10
10061.97565784426
 20
30089.68840526278
 30
0.0
 40
21.88707847348098
100
AcDbArc
 50
15.55252450680212
 51
27.02889281106317
  0
ARC
  5
B0F9
330
1F
100
AcDbEntity
  8
freecads.com
100
AcDbCircle
 10
10095.88102084449
 20
30106.98560659583
 30
0.0
 40
16.17559108782499
100
AcDbArc
 50
197.5374771969299
 51
207.0289371080151
  0
ARC
  5
B0FA
330
1F
100
AcDbEntity
  8
freecads.com
100
AcDbCircle
 10
10099.1490096328
 20
30108.01836987073
 30
0.0
 40
19.60288604190011
100
AcDbArc
 50
189.3197991769054
 51
197.5375323358375
  0
ARC
  5
B0FB
330
1F
100
AcDbEntity
  8
freecads.com
100
AcDbCircle
 10
10112.99950821098
 20
30110.29139920469
 30
0.0
 40
33.63866080559017
100
AcDbArc
 50
183.3188792192451
 51
189.3198132861483
  0
ARC
  5
B0FC
330
1F
100
AcDbEntity
  8
freecads.com
100
AcDbCircle
 10
10211.37107749593
 20
30115.9958756467
 30
0.0
 40
132.1754899359087
100
AcDbArc
 50
181.1492177681041
 51
183.3188295317894
  0
ARC
  5
B0FD
330
1F
100
AcDbEntity
  8
freecads.com
100
AcDbCircle
 10
10169.46209939443
 20
30115.15511217633
 30
0.0
 40
90.25807912941552
100
AcDbArc
 50
176.0914737997645
 51
181.149182361475
  0
ARC
  5
B0FE
330
1F
100
AcDbEntity
  8
freecads.com
100
AcDbCircle
 10
10192.01926760435
 20
30113.61381724817
 30
0.0
 40
112.8678431196224
100
AcDbArc
 50
171.8142021719447
 51
176.0914084155036
  0
ARC
  5
B0FF
330
1F
100
AcDbEntity
  8
freecads.com
100
AcDbCircle
 10
10173.32625892894
 20
30116.30268704413
 30
0.0
 40
93.98243621096268
100
AcDbArc
 50
167.7231967400627
 51
171.8141392144115
  0
ARC
  5
B100
330
1F
100
AcDbEntity
  8
freecads.com
100
AcDbCircle
 10
10082.04750369756
 20
30136.16596477069
 30
0.0
 40
0.5674429891448815
100
AcDbArc
 50
28.87691820913822
 51
167.7231014668461
  0
ARC
  5
B101
330
1F
100
AcDbEntity
  8
freecads.com
100
AcDbCircle
 10
10077.94148346415
 20
30133.90147834943
 30
0.0
 40
5.256504825941703
100
AcDbArc
 50
16.83732033968397
 51
28.87691050645386
  0
ARC
  5
B102
330
1F
100
AcDbEntity
  8
freecads.com
100
AcDbCircle
 10
9743.193350617532
 20
30032.59677083459
 30
0.0
 40
354.9977752087238
100
AcDbArc
 50
16.24768333343138
 51
16.83737019488647
  0
ARC
  5
B103
330
1F
100
AcDbEntity
  8
freecads.com
100
AcDbCircle
 10
9832.601866335297
 20
30058.65288906089
 30
0.0
 40
261.8698847577816
100
AcDbArc
 50
15.29638442054978
 51
16.24771807961836
  0
ARC
  5
B104
330
1F
100
AcDbEntity
  8
freecads.com
100
AcDbCircle
 10
9692.429985485603
 20
30020.31595828451
 30
0.0
 40
407.1897954453966
100
AcDbArc
 50
14.61292854681149
 51
15.29635057923605
  0
ARC
  5
B105
330
1F
100
AcDbEntity
  8
freecads.com
100
AcDbCircle
 10
10194.27960267964
 20
30151.15879605107
 30
0.0
 40
111.4361646382347
100
AcDbArc
 50
194.6128654781037
 51
197.6864851701259
  0
ARC
  5
B106
330
1F
100
AcDbEntity
  8
freecads.com
100
AcDbCircle
 10
10228.14126679533
 20
30161.95660535607
 30
0.0
 40
146.9777597413007
100
AcDbArc
 50
197.6864754665099
 51
200.1840142157492
  0
ARC
  5
B107
330
1F
100
AcDbEntity
  8
freecads.com
100
AcDbCircle
 10
10228.88855510155
 20
30162.23151674847
 30
0.0
 40
147.7740109902183
100
AcDbArc
 50
200.1840868271257
 51
202.6756675210735
  0
ARC
  5
B108
330
1F
100
AcDbEntity
  8
freecads.com
100
AcDbCircle
 10
10198.73497940959
 20
30149.63317965649
 30
0.0
 40
115.0944114750034
100
AcDbArc
 50
202.6757286492224
 51
205.6808346406397
  0
ARC
  5
B109
330
1F
100
AcDbEntity
  8
freecads.com
100
AcDbCircle
 10
10486.13069050357
 20
30287.82952775074
 30
0.0
 40
433.9902022621289
100
AcDbArc
 50
205.6808957547396
 51
207.0825622282355
  0
ARC
  5
B10A
330
1F
100
AcDbEntity
  8
freecads.com
100
AcDbCircle
 10
10131.16936241446
 20
30106.32296944409
 30
0.0
 40
35.31467611698577
100
AcDbArc
 50
207.0826067458245
 51
215.8809762258158
  0
ARC
  5
B10B
330
1F
100
AcDbEntity
  8
freecads.com
100
AcDbCircle
 10
10110.41905264559
 20
30091.3127392587
 30
0.0
 40
9.704475693684798
100
AcDbArc
 50
215.8809364845928
 51
235.4101236870392
  0
ARC
  5
B10C
330
1F
100
AcDbEntity
  8
freecads.com
100
AcDbCircle
 10
10107.47363303289
 20
30087.0414997601
 30
0.0
 40
4.516124939415418
100
AcDbArc
 50
235.4101504471861
 51
269.9999531724123
  0
ARC
  5
B10D
330
1F
100
AcDbEntity
  8
freecads.com
100
AcDbCircle
 10
10107.47362569403
 20
30076.23559656454
 30
0.0
 40
6.289778256153033
100
AcDbArc
 50
79.32272301938785
 51
89.99996677046684
  0
ARC
  5
B10E
330
1F
100
AcDbEntity
  8
freecads.com
100
AcDbCircle
 10
10107.25706983221
 20
30075.08707977434
 30
0.0
 40
7.458532831980075
100
AcDbArc
 50
69.92634274608687
 51
79.32262427640002
  0
ARC
  5
B10F
330
1F
100
AcDbEntity
  8
freecads.com
100
AcDbCircle
 10
10107.58002944316
 20
30075.97084399952
 30
0.0
 40
6.517606630863905
100
AcDbArc
 50
60.03093930239089
 51
69.92641288014752
  0
ARC
  5
B110
330
1F
100
AcDbEntity
  8
freecads.com
100
AcDbCircle
 10
10109.59566134933
 20
30079.4663820353
 30
0.0
 40
2.48256534969426
100
AcDbArc
 50
39.69015991619015
 51
60.03090030387054
  0
ARC
  5
B111
330
1F
100
AcDbEntity
  8
freecads.com
100
AcDbCircle
 10
10115.5035008937
 20
30084.36945302112
 30
0.0
 40
5.194847832751989
100
AcDbArc
 50
219.6901753139955
 51
254.8332829713099
  0
ARC
  5
B112
330
1F
100
AcDbEntity
  8
freecads.com
100
AcDbCircle
 10
10118.72904636664
 20
30096.26875872691
 30
0.0
 40
17.52357931161576
100
AcDbArc
 50
254.8332923756385
 51
269.0486808800606
  0
ARC
  5
B113
330
1F
100
AcDbEntity
  8
freecads.com
100
AcDbCircle
 10
10118.6691298252
 20
30092.66051201662
 30
0.0
 40
13.91483516520176
100
AcDbArc
 50
269.0486848603699
 51
285.0295699332839
  0
ARC
  5
B114
330
1F
100
AcDbEntity
  8
freecads.com
100
AcDbCircle
 10
10121.8396841359
 20
30080.85221661533
 30
0.0
 40
1.688296205981225
100
AcDbArc
 50
285.0296199856493
 51
359.9999730325505
  0
ARC
  5
B115
330
1F
100
AcDbEntity
  8
freecads.com
100
AcDbCircle
 10
10122.39311907519
 20
30080.85221599297
 30
0.0
 40
1.134861266685119
100
AcDbArc
 50
359.9999913019725
 51
28.71575955999095
  0
ARC
  5
B116
330
1F
100
AcDbEntity
  8
freecads.com
100
AcDbCircle
 10
10119.59226680481
 20
30079.31779904678
 30
0.0
 40
4.32848128247754
100
AcDbArc
 50
28.71568595948096
 51
39.32798201789324
  0
ARC
  5
B117
330
1F
100
AcDbEntity
  8
freecads.com
100
AcDbCircle
 10
10118.68348824518
 20
30078.57322975219
 30
0.0
 40
5.503326763762403
100
AcDbArc
 50
39.32799173031514
 51
49.01048486619338
  0
ARC
  5
B118
330
1F
100
AcDbEntity
  8
freecads.com
100
AcDbCircle
 10
10118.31649821485
 20
30078.15090338353
 30
0.0
 40
6.062827652076754
100
AcDbArc
 50
49.01046359800314
 51
58.01478687589541
  0
ARC
  5
B119
330
1F
100
AcDbEntity
  8
freecads.com
100
AcDbCircle
 10
10123.57012051463
 20
30086.56328695521
 30
0.0
 40
3.855274214002759
100
AcDbArc
 50
218.8078116818852
 51
238.0147878131961
  0
ARC
  5
B11A
330
1F
100
AcDbEntity
  8
freecads.com
100
AcDbCircle
 10
10123.41763002708
 20
30086.44064131339
 30
0.0
 40
3.659582358707456
100
AcDbArc
 50
198.8356387661419
 51
218.807739605161
  0
ARC
  5
B11B
330
1F
100
AcDbEntity
  8
freecads.com
100
AcDbCircle
 10
10126.16589284639
 20
30087.37814176148
 30
0.0
 40
6.563348123045028
100
AcDbArc
 50
184.8025065670163
 51
198.8357007040493
  0
ARC
  5
B11C
330
1F
100
AcDbEntity
  8
freecads.com
100
AcDbCircle
 10
10147.33017885113
 20
30089.15627663751
 30
0.0
 40
27.80219850925149
100
AcDbArc
 50
179.9999645881955
 51
184.8024813099496
  0
ARC
  5
B11D
330
1F
100
AcDbEntity
  8
freecads.com
100
AcDbCircle
 10
10201.83548640835
 20
30089.15621377777
 30
0.0
 40
82.30750606650898
100
AcDbArc
 50
178.1802685623368
 51
179.9999442806391
  0
ARC
  5
B11E
330
1F
100
AcDbEntity
  8
freecads.com
100
AcDbCircle
 10
10122.15476531227
 20
30091.68774672667
 30
0.0
 40
2.586580498237296
100
AcDbArc
 50
156.0001691229319
 51
178.1802171749304
  0
ARC
  5
B11F
330
1F
100
AcDbEntity
  8
freecads.com
100
AcDbCircle
 10
10120.13787241503
 20
30092.58571872164
 30
0.0
 40
0.378819038589904
100
AcDbArc
 50
72.70179594948324
 51
156.0002458653715
  0
ARC
  5
B120
330
1F
100
AcDbEntity
  8
freecads.com
100
AcDbCircle
 10
10119.57314780435
 20
30090.77240699299
 30
0.0
 40
2.278032905205015
100
AcDbArc
 50
50.30985750924847
 51
72.70171785133664
  0
ARC
  5
B121
330
1F
100
AcDbEntity
  8
freecads.com
100
AcDbCircle
 10
10119.4209636213
 20
30090.58904135881
 30
0.0
 40
2.516324703974344
100
AcDbArc
 50
29.45344079411456
 51
50.30978068628995
  0
ARC
  5
B122
330
1F
100
AcDbEntity
  8
freecads.com
100
AcDbCircle
 10
10115.01506809602
 20
30088.10102905477
 30
0.0
 40
7.576178516554644
100
AcDbArc
 50
20.2836831397514
 51
29.45344544542183
  0
ARC
  5
B123
330
1F
100
AcDbEntity
  8
freecads.com
100
AcDbCircle
 10
10113.83012371421
 20
30087.66308402416
 30
0.0
 40
8.839463534989546
100
AcDbArc
 50
11.60731743402474
 51
20.28370977362662
  0
ARC
  5
B124
330
1F
100
AcDbEntity
  8
freecads.com
100
AcDbCircle
 10
10114.79822315651
 20
30087.86193490392
 30
0.0
 40
7.851152752613031
100
AcDbArc
 50
2.124095762405472
 51
11.60731921190018
  0
ARC
  5
B125
330
1F
100
AcDbEntity
  8
freecads.com
100
AcDbCircle
 10
10143.2382140856
 20
30088.91678987887
 30
0.0
 40
20.60839402988886
100
AcDbArc
 50
182.1241822589162
 51
185.228736051379
  0
ARC
  5
B126
330
1F
100
AcDbEntity
  8
freecads.com
100
AcDbCircle
 10
10124.90429557517
 20
30087.238998964
 30
0.0
 40
2.197865783764285
100
AcDbArc
 50
185.228687450228
 51
201.3147096840912
  0
ARC
  5
B127
330
1F
100
AcDbEntity
  8
freecads.com
100
AcDbCircle
 10
10122.9541063267
 20
30086.47807525222
 30
0.0
 40
0.1044850252800385
100
AcDbArc
 50
201.3147841154875
 51
315.1754903034189
  0
ARC
  5
B128
330
1F
100
AcDbEntity
  8
freecads.com
100
AcDbCircle
 10
10122.54026371454
 20
30086.88939206387
 30
0.0
 40
0.6879635828823298
100
AcDbArc
 50
315.1753975721701
 51
345.2203400166685
  0
ARC
  5
B129
330
1F
100
AcDbEntity
  8
freecads.com
100
AcDbCircle
 10
10128.82445493187
 20
30085.23143053119
 30
0.0
 40
5.811259116781155
100
AcDbArc
 50
155.7740189574346
 51
165.2204068206589
  0
ARC
  5
B12A
330
1F
100
AcDbEntity
  8
freecads.com
100
AcDbCircle
 10
10123.85129002564
 20
30087.46916906821
 30
0.0
 40
0.3578342346895516
100
AcDbArc
 50
84.01345082320766
 51
155.7737959041424
  0
ARC
  5
B12B
330
1F
100
AcDbEntity
  8
freecads.com
100
AcDbCircle
 10
10123.79296284952
 20
30086.9129597175
 30
0.0
 40
0.9170934780630297
100
AcDbArc
 50
47.57485350379908
 51
84.01349846672628
  0
ARC
  5
B12C
330
1F
100
AcDbEntity
  8
freecads.com
100
AcDbCircle
 10
10099.94742679337
 20
30060.82180276834
 30
0.0
 40
36.26335297960902
100
AcDbArc
 50
45.00005642403237
 51
47.57482042558318
  0
ARC
  5
B12D
330
1F
100
AcDbEntity
  8
freecads.com
100
AcDbCircle
 10
10129.31168147897
 20
30090.18611029808
 30
0.0
 40
5.264011612209415
100
AcDbArc
 50
225.0000180120806
 51
250.1687648167443
  0
ARC
  5
B12E
330
1F
100
AcDbEntity
  8
freecads.com
100
AcDbCircle
 10
10131.73438791299
 20
30096.90399584735
 30
0.0
 40
12.40540452384744
100
AcDbArc
 50
250.1688473304575
 51
263.433801465333
  0
ARC
  5
B12F
330
1F
100
AcDbEntity
  8
freecads.com
100
AcDbCircle
 10
10131.34592169754
 20
30093.52916939564
 30
0.0
 40
9.008294048800147
100
AcDbArc
 50
263.4338201492347
 51
278.9046609816562
  0
ARC
  5
B130
330
1F
100
AcDbEntity
  8
freecads.com
100
AcDbCircle
 10
10132.59607164213
 20
30085.55012650677
 30
0.0
 40
0.9319086997536295
100
AcDbArc
 50
278.904651508482
 51
359.9999578180373
  0
ARC
  5
B131
330
1F
100
AcDbEntity
  8
freecads.com
100
AcDbCircle
 10
10132.81275223451
 20
30085.55012602108
 30
0.0
 40
0.7152281073719277
100
AcDbArc
 50
359.9999839475547
 51
39.74187884249944
  0
ARC
  5
B132
330
1F
100
AcDbEntity
  8
freecads.com
100
AcDbCircle
 10
10130.41884773664
 20
30083.55971242308
 30
0.0
 40
3.828510143422787
100
AcDbArc
 50
39.74185809762909
 51
51.22028388112498
  0
ARC
  5
B133
330
1F
100
AcDbEntity
  8
freecads.com
100
AcDbCircle
 10
10129.44814062899
 20
30082.35152717267
 30
0.0
 40
5.378343646786755
100
AcDbArc
 50
51.22024028977814
 51
61.26851853469006
  0
ARC
  5
B134
330
1F
100
AcDbEntity
  8
freecads.com
100
AcDbCircle
 10
10128.47875047064
 20
30080.58319201365
 30
0.0
 40
7.394956280311072
100
AcDbArc
 50
61.26857489703739
 51
69.18324537166661
  0
ARC
  5
B135
330
1F
100
AcDbEntity
  8
freecads.com
100
AcDbCircle
 10
10132.7132510414
 20
30091.7207837777
 30
0.0
 40
4.520451618137468
100
AcDbArc
 50
230.2969739744848
 51
249.18325632275
  0
ARC
  5
B136
330
1F
100
AcDbEntity
  8
freecads.com
100
AcDbCircle
 10
10131.80788462201
 20
30090.63038224659
 30
0.0
 40
3.103178231530381
100
AcDbArc
 50
205.2616079345856
 51
230.296978810966
  0
ARC
  5
B137
330
1F
100
AcDbEntity
  8
freecads.com
100
AcDbCircle
 10
10135.30799518765
 20
30092.28200450771
 30
0.0
 40
6.973401747696873
100
AcDbArc
 50
190.3324283008633
 51
205.2615783925824
  0
ARC
  5
B138
330
1F
100
AcDbEntity
  8
freecads.com
100
AcDbCircle
 10
10183.72002214176
 20
30101.1082291482
 30
0.0
 40
56.18342710035316
100
AcDbArc
 50
187.1217428798496
 51
190.3323883129431
  0
ARC
  5
B139
330
1F
100
AcDbEntity
  8
freecads.com
100
AcDbCircle
 10
10158.88888018284
 20
30098.00580197765
 30
0.0
 40
31.15922550806483
100
AcDbArc
 50
180.9552713086793
 51
187.1217880298265
  0
ARC
  5
B13A
330
1F
100
AcDbEntity
  8
freecads.com
100
AcDbCircle
 10
10148.87289366626
 20
30097.83882477832
 30
0.0
 40
21.14184724407384
100
AcDbArc
 50
172.7087826139852
 51
180.9553556038632
  0
ARC
  5
B13B
330
1F
100
AcDbEntity
  8
freecads.com
100
AcDbCircle
 10
10159.06992374586
 20
30096.5341684449
 30
0.0
 40
31.42200048184765
100
AcDbArc
 50
166.2304006515683
 51
172.7088272342738
  0
ARC
  5
B13C
330
1F
100
AcDbEntity
  8
freecads.com
100
AcDbCircle
 10
10253.77250524122
 20
30073.32636040352
 30
0.0
 40
128.9267762416517
100
AcDbArc
 50
163.9611484923204
 51
166.23044556141
  0
ARC
  5
B13D
330
1F
100
AcDbEntity
  8
freecads.com
100
AcDbCircle
 10
10032.49218354129
 20
30136.93987978342
 30
0.0
 40
101.3158362772342
100
AcDbArc
 50
343.9611528421459
 51
346.4023190893326
  0
ARC
  5
B13E
330
1F
100
AcDbEntity
  8
freecads.com
100
AcDbCircle
 10
9924.191994888371
 20
30163.13607037584
 30
0.0
 40
212.7392236956051
100
AcDbArc
 50
346.4022516628748
 51
347.803918136233
  0
ARC
  5
B13F
330
1F
100
AcDbEntity
  8
freecads.com
100
AcDbCircle
 10
9922.702308485114
 20
30163.45814136934
 30
0.0
 40
214.2633284479594
100
AcDbArc
 50
347.8038930381803
 51
349.2034969406619
  0
ARC
  5
B140
330
1F
100
AcDbEntity
  8
freecads.com
100
AcDbCircle
 10
10026.09102531764
 20
30143.74215523664
 30
0.0
 40
109.0115024426508
100
AcDbArc
 50
349.203534777297
 51
351.5241637169278
  0
ARC
  5
B141
330
1F
100
AcDbEntity
  8
freecads.com
100
AcDbCircle
 10
10316.57882986837
 20
30100.45370111738
 30
0.0
 40
184.6840114024507
100
AcDbArc
 50
169.1982645464059
 51
171.5241641561134
  0
ARC
  5
B142
330
1F
100
AcDbEntity
  8
freecads.com
100
AcDbCircle
 10
10151.49216320293
 20
30131.9508261775
 30
0.0
 40
16.61951069586373
100
AcDbArc
 50
155.6018278606057
 51
169.1981859137355
  0
ARC
  5
B143
330
1F
100
AcDbEntity
  8
freecads.com
100
AcDbCircle
 10
10140.96287328523
 20
30136.72671020067
 30
0.0
 40
5.057719555499176
100
AcDbArc
 50
126.580102606503
 51
155.6017381883891
  0
ARC
  5
B144
330
1F
100
AcDbEntity
  8
freecads.com
100
AcDbCircle
 10
10140.83028948441
 20
30136.90536463221
 30
0.0
 40
4.835242882233877
100
AcDbArc
 50
96.56354855534203
 51
126.5801069113613
  0
ARC
  5
B145
330
1F
100
AcDbEntity
  8
freecads.com
100
AcDbCircle
 10
10139.39382374237
 20
30149.38987244241
 30
0.0
 40
7.73163298614164
100
AcDbArc
 50
276.5636019942285
 51
288.0820339518546
  0
ARC
  5
B146
330
1F
100
AcDbEntity
  8
freecads.com
100
AcDbCircle
 10
10141.29269856393
 20
30143.574082805
 30
0.0
 40
1.613697493293651
100
AcDbArc
 50
288.0820335606092
 51
324.8847898019893
  0
ARC
  5
B147
330
1F
100
AcDbEntity
  8
freecads.com
100
AcDbCircle
 10
10140.46948817099
 20
30144.15297590345
 30
0.0
 40
2.620073452117623
100
AcDbArc
 50
324.8847074734247
 51
351.3233911386854
  0
ARC
  5
B148
330
1F
100
AcDbEntity
  8
freecads.com
100
AcDbCircle
 10
10114.9648885507
 20
30148.04509300488
 30
0.0
 40
28.4199412293399
100
AcDbArc
 50
351.323350495111
 51
355.9247291368257
  0
ARC
  5
B149
330
1F
100
AcDbEntity
  8
freecads.com
100
AcDbCircle
 10
10235.22834214857
 20
30139.47657142838
 30
0.0
 40
92.1483706660258
100
AcDbArc
 50
173.3242369998558
 51
175.9246662387653
  0
ARC
  5
B14A
330
1F
100
AcDbEntity
  8
freecads.com
100
AcDbCircle
 10
10145.67817560436
 20
30149.9578972882
 30
0.0
 40
1.986901512754984
100
AcDbArc
 50
132.2733254203075
 51
173.3242648953682
  0
ARC
  5
B14B
330
1F
100
AcDbEntity
  8
freecads.com
100
AcDbCircle
 10
10145.08774559554
 20
30150.60737849724
 30
0.0
 40
1.109158135561888
100
AcDbArc
 50
69.19502831803751
 51
132.2733226060258
  0
ARC
  5
B14C
330
1F
100
AcDbEntity
  8
freecads.com
100
AcDbCircle
 10
10135.80774886909
 20
30126.18396451295
 30
0.0
 40
27.23618417932501
100
AcDbArc
 50
62.98616935695648
 51
69.19505405607636
  0
ARC
  5
B14D
330
1F
100
AcDbEntity
  8
freecads.com
100
AcDbCircle
 10
10158.97009525421
 20
30171.61560215068
 30
0.0
 40
23.75918804711435
100
AcDbArc
 50
242.9862656163754
 51
247.2027591861053
  0
ARC
  5
B14E
330
1F
100
AcDbEntity
  8
freecads.com
100
AcDbCircle
 10
10159.18046468206
 20
30172.11609837918
 30
0.0
 40
24.30209851013136
100
AcDbArc
 50
247.2027406099139
 51
251.3484401639501
  0
ARC
  5
B14F
330
1F
100
AcDbEntity
  8
freecads.com
100
AcDbCircle
 10
10158.14722548212
 20
30169.05492452693
 30
0.0
 40
21.07125208895379
100
AcDbArc
 50
251.3483699384031
 51
255.5428693364416
  0
ARC
  5
B150
330
1F
100
AcDbEntity
  8
freecads.com
100
AcDbCircle
 10
10153.87633304533
 20
30152.48948074468
 30
0.0
 40
3.964105923990538
100
AcDbArc
 50
255.5428448887199
 51
269.9999898326731
  0
ARC
  5
B151
330
1F
100
AcDbEntity
  8
freecads.com
100
AcDbCircle
 10
10153.87633133404
 20
30146.52283710507
 30
0.0
 40
2.002537715615543
100
AcDbArc
 50
59.65344889562414
 51
89.99997116408691
  0
ARC
  5
B152
330
1F
100
AcDbEntity
  8
freecads.com
100
AcDbCircle
 10
10154.32693928434
 20
30147.29252179503
 30
0.0
 40
1.110650925255016
100
AcDbArc
 50
12.5316620406377
 51
59.65350463225342
  0
ARC
  5
B153
330
1F
100
AcDbEntity
  8
freecads.com
100
AcDbCircle
 10
10149.97213833365
 20
30146.32455864127
 30
0.0
 40
5.571731958721447
100
AcDbArc
 50
356.6461327898772
 51
12.53168159615726
  0
ARC
  5
B154
330
1F
100
AcDbEntity
  8
freecads.com
100
AcDbCircle
 10
10017.77415642213
 20
30154.0719895282
 30
0.0
 40
137.996537440265
100
AcDbArc
 50
355.0960932049739
 51
356.646035002253
  0
ARC
  5
B155
330
1F
100
AcDbEntity
  8
freecads.com
100
AcDbCircle
 10
10126.57317798842
 20
30144.73717246681
 30
0.0
 40
28.79779246876557
100
AcDbArc
 50
349.1901612677328
 51
355.0960485071349
  0
ARC
  5
B156
330
1F
100
AcDbEntity
  8
freecads.com
100
AcDbCircle
 10
10111.6432932025
 20
30147.58785841442
 30
0.0
 40
43.99739345342698
100
AcDbArc
 50
344.8911889790149
 51
349.1901599978925
  0
ARC
  5
B157
330
1F
100
AcDbEntity
  8
freecads.com
100
AcDbCircle
 10
10111.0579100579
 20
30147.74589873007
 30
0.0
 40
44.60373507935547
100
AcDbArc
 50
340.6160505654554
 51
344.8911948790312
  0
ARC
  5
B158
330
1F
100
AcDbEntity
  8
freecads.com
100
AcDbCircle
 10
10123.40956356845
 20
30143.40008089358
 30
0.0
 40
31.50986334053814
100
AcDbArc
 50
335.0688448858084
 51
340.6160554649472
  0
ARC
  5
B159
330
1F
100
AcDbEntity
  8
freecads.com
100
AcDbCircle
 10
10189.03143958508
 20
30112.89605482154
 30
0.0
 40
40.85536462529396
100
AcDbArc
 50
155.0688658492715
 51
161.3773708728716
  0
ARC
  5
B15A
330
1F
100
AcDbEntity
  8
freecads.com
100
AcDbCircle
 10
10155.93719076901
 20
30124.04805040076
 30
0.0
 40
5.932645514395266
100
AcDbArc
 50
161.3773472107564
 51
187.5869178653258
  0
ARC
  5
B15B
330
1F
100
AcDbEntity
  8
freecads.com
100
AcDbCircle
 10
10152.46287179528
 20
30123.58528241485
 30
0.0
 40
2.427642441639199
100
AcDbArc
 50
187.586865527699
 51
234.3290562625352
  0
ARC
  5
B15C
330
1F
100
AcDbEntity
  8
freecads.com
100
AcDbCircle
 10
10153.98085682606
 20
30125.70002608618
 30
0.0
 40
5.030798093743135
100
AcDbArc
 50
234.328934565022
 51
261.4654844377406
  0
ARC
  5
B15D
330
1F
100
AcDbEntity
  8
freecads.com
100
AcDbCircle
 10
10152.99620342716
 20
30119.13859436349
 30
0.0
 40
1.604104209047078
100
AcDbArc
 50
29.11143943908049
 51
81.46550087827256
  0
ARC
  5
B15E
330
1F
100
AcDbEntity
  8
freecads.com
100
AcDbCircle
 10
10148.57096485479
 20
30116.67438236274
 30
0.0
 40
6.66918833540098
100
AcDbArc
 50
10.91457905785504
 51
29.11142775134146
  0
ARC
  5
B15F
330
1F
100
AcDbEntity
  8
freecads.com
100
AcDbCircle
 10
10117.46105444569
 20
30110.67535194152
 30
0.0
 40
38.35222625250226
100
AcDbArc
 50
4.855466896582147
 51
10.91457318615726
  0
ARC
  5
B160
330
1F
100
AcDbEntity
  8
freecads.com
100
AcDbCircle
 10
9130.155704996063
 20
30026.80704206351
 30
0.0
 40
1029.213339857049
100
AcDbArc
 50
4.296225397853654
 51
4.855431096163169
  0
ARC
  5
B161
330
1F
100
AcDbEntity
  8
freecads.com
100
AcDbCircle
 10
9123.503156864996
 20
30026.30715528328
 30
0.0
 40
1035.884642834355
100
AcDbArc
 50
3.742985039400516
 51
4.296232011714448
  0
ARC
  5
B162
330
1F
100
AcDbEntity
  8
freecads.com
100
AcDbCircle
 10
10110.19266649026
 20
30090.85683864783
 30
0.0
 40
47.08595248987026
100
AcDbArc
 50
358.5208559345958
 51
3.743035214545076
  0
ARC
  5
B163
330
1F
100
AcDbEntity
  8
freecads.com
100
AcDbCircle
 10
10146.4578204268
 20
30089.92041625484
 30
0.0
 40
10.80871063027938
100
AcDbArc
 50
345.3365106753115
 51
358.5208322480322
  0
ARC
  5
B164
330
1F
100
AcDbEntity
  8
freecads.com
100
AcDbCircle
 10
10153.00630094251
 20
30088.20691793711
 30
0.0
 40
4.039761409791113
100
AcDbArc
 50
317.8553402614654
 51
345.3364553436204
  0
ARC
  5
B165
330
1F
100
AcDbEntity
  8
freecads.com
100
AcDbCircle
 10
10160.53633645905
 20
30081.39233609174
 30
0.0
 40
6.116023178683443
100
AcDbArc
 50
137.8553138259482
 51
159.3365451458167
  0
ARC
  5
B166
330
1F
100
AcDbEntity
  8
freecads.com
100
AcDbCircle
 10
10156.61591249549
 20
30082.87088492866
 30
0.0
 40
1.926055312794614
100
AcDbArc
 50
159.3365729845244
 51
210.0633422798617
  0
ARC
  5
B167
330
1F
100
AcDbEntity
  8
freecads.com
100
AcDbCircle
 10
10156.83801104577
 20
30082.99943890039
 30
0.0
 40
2.182675439985814
100
AcDbArc
 50
210.0632905301738
 51
256.8399858759523
  0
ARC
  5
B168
330
1F
100
AcDbEntity
  8
freecads.com
100
AcDbCircle
 10
10158.05074973442
 20
30088.18622919088
 30
0.0
 40
7.509356268079188
100
AcDbArc
 50
256.83993904792
 51
275.5047195256663
  0
LINE
  5
B169
330
1F
100
AcDbEntity
  8
freecads.com
100
AcDbLine
 10
10158.77110534188
 20
30080.71150382069
 30
0.0
 11
10162.02798034188
 21
30081.02537482069
 31
0.0
  0
LINE
  5
B16A
330
1F
100
AcDbEntity
  8
freecads.com
100
AcDbLine
 10
10162.02798034188
 20
30081.02537482069
 30
0.0
 11
10162.77033434188
 21
30092.16335982069
 31
0.0
  0
ARC
  5
B16B
330
1F
100
AcDbEntity
  8
freecads.com
100
AcDbCircle
 10
10400.72249094651
 20
30076.30381277177
 30
0.0
 40
238.4800915493563
100
AcDbArc
 50
175.0911511474188
 51
176.1868672863835
  0
ARC
  5
B16C
330
1F
100
AcDbEntity
  8
freecads.com
100
AcDbCircle
 10
10383.17557896775
 20
30077.81075641204
 30
0.0
 40
220.8685896509623
100
AcDbArc
 50
173.9305551965187
 51
175.0911285857745
  0
ARC
  5
B16D
330
1F
100
AcDbEntity
  8
freecads.com
100
AcDbCircle
 10
10361.36867856329
 20
30080.12924696775
 30
0.0
 40
198.9387856471189
100
AcDbArc
 50
172.8207924021593
 51
173.9304883875499
  0
ARC
  5
B16E
330
1F
100
AcDbEntity
  8
freecads.com
100
AcDbCircle
 10
10187.77572024694
 20
30101.99510889692
 30
0.0
 40
23.9741289449182
100
AcDbArc
 50
167.5506678166936
 51
172.8207212745881
  0
ARC
  5
B16F
330
1F
100
AcDbEntity
  8
freecads.com
100
AcDbCircle
 10
10269.37103422936
 20
30083.98155381457
 30
0.0
 40
107.5341877684619
100
AcDbArc
 50
166.1737535509668
 51
167.5506691572255
  0
ARC
  5
B170
330
1F
100
AcDbEntity
  8
freecads.com
100
AcDbCircle
 10
10165.08648116925
 20
30109.64695610275
 30
0.0
 40
0.1378150105248264
100
AcDbArc
 50
31.08090685812099
 51
166.1737871608215
  0
ARC
  5
B171
330
1F
100
AcDbEntity
  8
freecads.com
100
AcDbCircle
 10
10163.77887412166
 20
30108.85875018888
 30
0.0
 40
1.66461059394492
100
AcDbArc
 50
6.828048379871197
 51
31.08093939810519
  0
ARC
  5
B172
330
1F
100
AcDbEntity
  8
freecads.com
100
AcDbCircle
 10
9275.746781277554
 20
30002.52586021237
 30
0.0
 40
896.0401924452419
100
AcDbArc
 50
6.535416150137537
 51
6.828082832702623
  0
ARC
  5
B173
330
1F
100
AcDbEntity
  8
freecads.com
100
AcDbCircle
 10
10111.59424054431
 20
30098.28206413273
 30
0.0
 40
54.72561052481869
100
AcDbArc
 50
1.198924504407346
 51
6.535405484527794
  0
ARC
  5
B174
330
1F
100
AcDbEntity
  8
freecads.com
100
AcDbCircle
 10
10024.79964641599
 20
30096.46567370034
 30
0.0
 40
141.5392087920371
100
AcDbArc
 50
358.5739486587778
 51
1.198897304219061
  0
ARC
  5
B175
330
1F
100
AcDbEntity
  8
freecads.com
100
AcDbCircle
 10
10025.97978090031
 20
30096.43616128958
 30
0.0
 40
140.3587053547371
100
AcDbArc
 50
355.9779278730159
 51
358.5740031921169
  0
ARC
  5
B176
330
1F
100
AcDbEntity
  8
freecads.com
100
AcDbCircle
 10
10126.35822517752
 20
30089.37811106578
 30
0.0
 40
39.73242574316285
100
AcDbArc
 50
349.3362945839967
 51
355.9779948773017
  0
ARC
  5
B177
330
1F
100
AcDbEntity
  8
freecads.com
100
AcDbCircle
 10
10168.84512909519
 20
30081.37800270154
 30
0.0
 40
3.501111451347254
100
AcDbArc
 50
169.3363613841811
 51
185.1516588895302
  0
ARC
  5
B178
330
1F
100
AcDbEntity
  8
freecads.com
100
AcDbCircle
 10
10166.54685954885
 20
30081.17079729079
 30
0.0
 40
1.19352028524707
100
AcDbArc
 50
185.1515879383628
 51
220.426747268874
  0
ARC
  5
B179
330
1F
100
AcDbEntity
  8
freecads.com
100
AcDbCircle
 10
10166.76474363152
 20
30081.35640594949
 30
0.0
 40
1.479744057251339
100
AcDbArc
 50
220.426726997699
 51
251.1481057922537
  0
ARC
  5
B17A
330
1F
100
AcDbEntity
  8
freecads.com
100
AcDbCircle
 10
10168.24251587938
 20
30085.6844725437
 30
0.0
 40
6.053142275263066
100
AcDbArc
 50
251.1480833069401
 51
261.9353225751844
  0
ARC
  5
B17B
330
1F
100
AcDbEntity
  8
freecads.com
100
AcDbCircle
 10
10168.16099544219
 20
30085.10913924552
 30
0.0
 40
5.472062258673636
100
AcDbArc
 50
261.9353249202185
 51
272.2585374619989
  0
ARC
  5
B17C
330
1F
100
AcDbEntity
  8
freecads.com
100
AcDbCircle
 10
10168.14170357511
 20
30085.59815366627
 30
0.0
 40
5.961457068426936
100
AcDbArc
 50
272.2585898855761
 51
281.9394816009227
  0
ARC
  5
B17D
330
1F
100
AcDbEntity
  8
freecads.com
100
AcDbCircle
 10
10168.33194785249
 20
30084.6985067328
 30
0.0
 40
5.041915068392649
100
AcDbArc
 50
281.9393551188939
 51
292.2730886872128
  0
ARC
  5
B17E
330
1F
100
AcDbEntity
  8
freecads.com
100
AcDbCircle
 10
10169.57867015568
 20
30081.65461378579
 30
0.0
 40
1.752598912387523
100
AcDbArc
 50
292.2730682373185
 51
314.9999357611327
  0
ARC
  5
B17F
330
1F
100
AcDbEntity
  8
freecads.com
100
AcDbCircle
 10
10169.73771898341
 20
30081.49556164226
 30
0.0
 40
1.527667558508079
100
AcDbArc
 50
315.0000142386037
 51
351.2444650181811
  0
ARC
  5
B180
330
1F
100
AcDbEntity
  8
freecads.com
100
AcDbCircle
 10
10093.26657235974
 20
30093.27313461845
 30
0.0
 40
78.90045018359869
100
AcDbArc
 50
351.2444827714127
 51
353.3769701405749
  0
ARC
  5
B181
330
1F
100
AcDbEntity
  8
freecads.com
100
AcDbCircle
 10
10105.40172348864
 20
30091.86415607169
 30
0.0
 40
66.68377659936537
100
AcDbArc
 50
353.3769278418243
 51
356.435195012903
  0
ARC
  5
B182
330
1F
100
AcDbEntity
  8
freecads.com
100
AcDbCircle
 10
10065.33121117703
 20
30094.36052566809
 30
0.0
 40
106.831974791492
100
AcDbArc
 50
356.4351643991612
 51
358.5836931871337
  0
ARC
  5
B183
330
1F
100
AcDbEntity
  8
freecads.com
100
AcDbCircle
 10
10397.60034855285
 20
30086.14517066503
 30
0.0
 40
225.5387094006096
100
AcDbArc
 50
175.8548755830275
 51
178.5836300167254
  0
ARC
  5
B184
330
1F
100
AcDbEntity
  8
freecads.com
100
AcDbCircle
 10
10268.85682246508
 20
30095.47537360627
 30
0.0
 40
96.45754037750579
100
AcDbArc
 50
170.7068135048896
 51
175.8547754564748
  0
ARC
  5
B185
330
1F
100
AcDbEntity
  8
freecads.com
100
AcDbCircle
 10
10246.83986902217
 20
30099.07804970565
 30
0.0
 40
74.14777762706238
100
AcDbArc
 50
165.6442563730085
 51
170.7067754343792
  0
ARC
  5
B186
330
1F
100
AcDbEntity
  8
freecads.com
100
AcDbCircle
 10
10178.29776513862
 20
30116.62025161611
 30
0.0
 40
3.396460659458706
100
AcDbArc
 50
118.1549263599261
 51
165.6443067226151
  0
ARC
  5
B187
330
1F
100
AcDbEntity
  8
freecads.com
100
AcDbCircle
 10
10174.72880464992
 20
30123.28892465775
 30
0.0
 40
4.167181261349429
100
AcDbArc
 50
298.1549379588856
 51
310.1127052534446
  0
ARC
  5
B188
330
1F
100
AcDbEntity
  8
freecads.com
100
AcDbCircle
 10
10175.38013078827
 20
30122.51580147809
 30
0.0
 40
3.156268213940525
100
AcDbArc
 50
310.1126648629403
 51
324.8396075402034
  0
ARC
  5
B189
330
1F
100
AcDbEntity
  8
freecads.com
100
AcDbCircle
 10
10176.14412285825
 20
30121.97765500028
 30
0.0
 40
2.221770747608335
100
AcDbArc
 50
324.8396057781774
 51
342.4464848776092
  0
ARC
  5
B18A
330
1F
100
AcDbEntity
  8
freecads.com
100
AcDbCircle
 10
10177.4498224702
 20
30121.56462938255
 30
0.0
 40
0.8523031001158988
100
AcDbArc
 50
342.4464165601297
 51
18.43491571827913
  0
ARC
  5
B18B
330
1F
100
AcDbEntity
  8
freecads.com
100
AcDbCircle
 10
10179.48820106103
 20
30122.2440883348
 30
0.0
 40
1.29633641067461
100
AcDbArc
 50
174.2919746147357
 51
198.4349463515133
  0
ARC
  5
B18C
330
1F
100
AcDbEntity
  8
freecads.com
100
AcDbCircle
 10
10181.02612614075
 20
30122.09036203689
 30
0.0
 40
2.841925400511878
100
AcDbArc
 50
160.8659253856907
 51
174.291906365468
  0
ARC
  5
B18D
330
1F
100
AcDbEntity
  8
freecads.com
100
AcDbCircle
 10
10181.4774923102
 20
30121.9337633203
 30
0.0
 40
3.319685357977229
100
AcDbArc
 50
148.3619939756437
 51
160.8659501248869
  0
ARC
  5
B18E
330
1F
100
AcDbEntity
  8
freecads.com
100
AcDbCircle
 10
10181.23810181437
 20
30122.08126402329
 30
0.0
 40
3.038501669214782
100
AcDbArc
 50
135.0000890031752
 51
148.3621176385752
  0
ARC
  5
B18F
330
1F
100
AcDbEntity
  8
freecads.com
100
AcDbCircle
 10
10177.62563087554
 20
30125.69372930626
 30
0.0
 40
2.070299726866274
100
AcDbArc
 50
314.9999800543846
 51
351.5161538853454
  0
ARC
  5
B190
330
1F
100
AcDbEntity
  8
freecads.com
100
AcDbCircle
 10
10076.66006527939
 20
30140.75410254188
 30
0.0
 40
104.1529146921336
100
AcDbArc
 50
351.516116334452
 51
353.7036027659614
  0
ARC
  5
B191
330
1F
100
AcDbEntity
  8
freecads.com
100
AcDbCircle
 10
10065.55222070217
 20
30141.97981878646
 30
0.0
 40
115.3281816443791
100
AcDbArc
 50
353.7035505420798
 51
356.3633303909952
  0
ARC
  5
B192
330
1F
100
AcDbEntity
  8
freecads.com
100
AcDbCircle
 10
9809.203703111663
 20
30158.27302266886
 30
0.0
 40
372.1939655930301
100
AcDbArc
 50
356.3632686782957
 51
357.4743397303371
  0
ARC
  5
B193
330
1F
100
AcDbEntity
  8
freecads.com
100
AcDbCircle
 10
9825.15444446235
 20
30157.5698177299
 30
0.0
 40
356.227731012683
100
AcDbArc
 50
357.4742791740645
 51
359.4429137384272
  0
ARC
  5
B194
330
1F
100
AcDbEntity
  8
freecads.com
100
AcDbCircle
 10
10145.51720460744
 20
30154.45486455333
 30
0.0
 40
35.84982755949101
100
AcDbArc
 50
359.4428678221607
 51
10.07300179729638
  0
ARC
  5
B195
330
1F
100
AcDbEntity
  8
freecads.com
100
AcDbCircle
 10
10170.63586578491
 20
30158.91696933254
 30
0.0
 40
10.33791821485005
100
AcDbArc
 50
10.07299972831533
 51
32.89767285146015
  0
ARC
  5
B196
330
1F
100
AcDbEntity
  8
freecads.com
100
AcDbCircle
 10
10174.90899977034
 20
30161.68113774154
 30
0.0
 40
5.248684377541195
100
AcDbArc
 50
32.89767056562154
 51
70.78137316876841
  0
ARC
  5
B197
330
1F
100
AcDbEntity
  8
freecads.com
100
AcDbCircle
 10
10178.7754880657
 20
30172.77254608623
 30
0.0
 40
6.497339239268039
100
AcDbArc
 50
235.7487818469581
 51
250.7813089247547
  0
ARC
  5
B198
330
1F
100
AcDbEntity
  8
freecads.com
100
AcDbCircle
 10
10176.30302062445
 20
30169.14140271074
 30
0.0
 40
2.104356487048724
100
AcDbArc
 50
200.9284470806088
 51
235.7487126584828
  0
ARC
  5
B199
330
1F
100
AcDbEntity
  8
freecads.com
100
AcDbCircle
 10
10179.61186446131
 20
30170.40680300762
 30
0.0
 40
5.646910007887359
100
AcDbArc
 50
183.2672780000032
 51
200.9283803975708
  0
ARC
  5
B19A
330
1F
100
AcDbEntity
  8
freecads.com
100
AcDbCircle
 10
10284.88768341159
 20
30176.41668010214
 30
0.0
 40
111.0941322488944
100
AcDbArc
 50
181.2448065786712
 51
183.2672950922115
  0
ARC
  5
B19B
330
1F
100
AcDbEntity
  8
freecads.com
100
AcDbCircle
 10
10135.57347146089
 20
30173.17222411388
 30
0.0
 40
38.25532501535596
100
AcDbArc
 50
1.244730054905727
 51
5.244944292375409
  0
ARC
  5
B19C
330
1F
100
AcDbEntity
  8
freecads.com
100
AcDbCircle
 10
10133.12525435285
 20
30172.94745737642
 30
0.0
 40
40.71383820299535
100
AcDbArc
 50
5.244979379599985
 51
9.062587812040746
  0
ARC
  5
B19D
330
1F
100
AcDbEntity
  8
freecads.com
100
AcDbCircle
 10
10138.21235940262
 20
30173.75888610293
 30
0.0
 40
35.56242535160982
100
AcDbArc
 50
9.062566993640057
 51
12.92714476949931
  0
ARC
  5
B19E
330
1F
100
AcDbEntity
  8
freecads.com
100
AcDbCircle
 10
10165.89541253968
 20
30180.11296523949
 30
0.0
 40
7.159507320835339
100
AcDbArc
 50
12.92707580381127
 51
25.60788469799224
  0
ARC
  5
B19F
330
1F
100
AcDbEntity
  8
freecads.com
100
AcDbCircle
 10
10165.44614717759
 20
30179.89764460662
 30
0.0
 40
7.657706418055203
100
AcDbArc
 50
25.60783554650285
 51
47.54787456739366
  0
ARC
  5
B1A0
330
1F
100
AcDbEntity
  8
freecads.com
100
AcDbCircle
 10
10165.98173903902
 20
30180.48310740825
 30
0.0
 40
6.864217077229013
100
AcDbArc
 50
47.54795653827603
 51
71.36314418667817
  0
ARC
  5
B1A1
330
1F
100
AcDbEntity
  8
freecads.com
100
AcDbCircle
 10
10166.0524233857
 20
30180.69268538744
 30
0.0
 40
6.643040210864728
100
AcDbArc
 50
71.36317239208378
 51
95.63034076420917
  0
ARC
  5
B1A2
330
1F
100
AcDbEntity
  8
freecads.com
100
AcDbCircle
 10
10166.07741405417
 20
30180.43916371877
 30
0.0
 40
6.897790618100555
100
AcDbArc
 50
95.63031681115466
 51
119.2223920607338
  0
ARC
  5
B1A3
330
1F
100
AcDbEntity
  8
freecads.com
100
AcDbCircle
 10
10166.50761742863
 20
30179.67011201567
 30
0.0
 40
7.778991767345945
100
AcDbArc
 50
119.2223945265734
 51
132.4284164027735
  0
ARC
  5
B1A4
330
1F
100
AcDbEntity
  8
freecads.com
100
AcDbCircle
 10
10163.48662168039
 20
30182.97522639979
 30
0.0
 40
3.301247200831819
100
AcDbArc
 50
132.4283618588909
 51
157.4832080434232
  0
ARC
  5
B1A5
330
1F
100
AcDbEntity
  8
freecads.com
100
AcDbCircle
 10
10166.3143052669
 20
30181.8029894374
 30
0.0
 40
6.362281986880007
100
AcDbArc
 50
157.4831993645183
 51
173.7644257263174
  0
ARC
  5
B1A6
330
1F
100
AcDbEntity
  8
freecads.com
100
AcDbCircle
 10
10217.12572687305
 20
30176.25113624473
 30
0.0
 40
57.47611220445183
100
AcDbArc
 50
173.7643824275368
 51
176.9910675148117
  0
ARC
  5
B1A7
330
1F
100
AcDbEntity
  8
freecads.com
100
AcDbCircle
 10
10193.29965224456
 20
30177.50352009063
 30
0.0
 40
33.61714538902023
100
AcDbArc
 50
176.9910461330728
 51
180.9365020633241
  0
ARC
  5
B1A8
330
1F
100
AcDbEntity
  8
freecads.com
100
AcDbCircle
 10
10189.75533367756
 20
30177.44553483209
 30
0.0
 40
30.07235253302064
100
AcDbArc
 50
180.9364105193096
 51
185.2257592260139
  0
ARC
  5
B1A9
330
1F
100
AcDbEntity
  8
freecads.com
100
AcDbCircle
 10
10185.63720089176
 20
30177.06888656016
 30
0.0
 40
25.9370313166838
100
AcDbArc
 50
185.2257548819804
 51
189.4738649374603
  0
ARC
  5
B1AA
330
1F
100
AcDbEntity
  8
freecads.com
100
AcDbCircle
 10
10163.48663313656
 20
30173.37254438644
 30
0.0
 40
3.480170508852442
100
AcDbArc
 50
189.4739567227039
 51
208.1549014222232
  0
ARC
  5
B1AB
330
1F
100
AcDbEntity
  8
freecads.com
100
AcDbCircle
 10
10157.31101996129
 20
30170.06746184374
 30
0.0
 40
3.524240151917807
100
AcDbArc
 50
10.51640631018059
 51
28.1549538786075
  0
ARC
  5
B1AC
330
1F
100
AcDbEntity
  8
freecads.com
100
AcDbCircle
 10
10159.8988238927
 20
30170.547849322
 30
0.0
 40
0.8922254641380813
100
AcDbArc
 50
321.6119104072657
 51
10.51641438384694
  0
ARC
  5
B1AD
330
1F
100
AcDbEntity
  8
freecads.com
100
AcDbCircle
 10
10158.96584374434
 20
30171.28700348352
 30
0.0
 40
2.082519894830246
100
AcDbArc
 50
294.0951261761188
 51
321.6119333646402
  0
ARC
  5
B1AE
330
1F
100
AcDbEntity
  8
freecads.com
100
AcDbCircle
 10
10148.76785276471
 20
30194.09010024254
 30
0.0
 40
27.06211640521911
100
AcDbArc
 50
289.8802375709112
 51
294.0951274015788
  0
ARC
  5
B1AF
330
1F
100
AcDbEntity
  8
freecads.com
100
AcDbCircle
 10
10161.56425637282
 20
30158.702312984
 30
0.0
 40
10.56823613575295
100
AcDbArc
 50
109.8802739574268
 51
123.2713098078351
  0
ARC
  5
B1B0
330
1F
100
AcDbEntity
  8
freecads.com
100
AcDbCircle
 10
10157.64710405514
 20
30164.67212646169
 30
0.0
 40
3.428015184114477
100
AcDbArc
 50
123.2713715433407
 51
154.2592145260237
  0
ARC
  5
B1B1
330
1F
100
AcDbEntity
  8
freecads.com
100
AcDbCircle
 10
10161.86462502744
 20
30162.6386646703
 30
0.0
 40
8.11015678905818
100
AcDbArc
 50
154.2591688124764
 51
171.4654637752656
  0
ARC
  5
B1B2
330
1F
100
AcDbEntity
  8
freecads.com
100
AcDbCircle
 10
10285.26398938002
 20
30144.12059215918
 30
0.0
 40
132.891253643303
100
AcDbArc
 50
171.4655216816406
 51
173.7045695056939
  0
ARC
  5
B1B3
330
1F
100
AcDbEntity
  8
freecads.com
100
AcDbCircle
 10
10086.11572897844
 20
30166.09070670141
 30
0.0
 40
67.46521756233637
100
AcDbArc
 50
350.6978443107146
 51
353.7045543081332
  0
ARC
  5
B1B4
330
1F
100
AcDbEntity
  8
freecads.com
100
AcDbCircle
 10
10150.5739966027
 20
30155.53277321835
 30
0.0
 40
2.148005247717653
100
AcDbArc
 50
314.386718610004
 51
350.6977689496586
  0
ARC
  5
B1B5
330
1F
100
AcDbEntity
  8
freecads.com
100
AcDbCircle
 10
10151.44288415608
 20
30154.6450827154
 30
0.0
 40
0.9058458338528652
100
AcDbArc
 50
247.060684514705
 51
314.3867278812881
  0
ARC
  5
B1B6
330
1F
100
AcDbEntity
  8
freecads.com
100
AcDbCircle
 10
10155.71596882233
 20
30164.74151203406
 30
0.0
 40
11.86929134846231
100
AcDbArc
 50
236.7662046144635
 51
247.0605984697943
  0
ARC
  5
B1B7
330
1F
100
AcDbEntity
  8
freecads.com
100
AcDbCircle
 10
10152.30356532907
 20
30159.53350675613
 30
0.0
 40
5.642910652134261
100
AcDbArc
 50
219.8718541944467
 51
236.7661308534762
  0
ARC
  5
B1B8
330
1F
100
AcDbEntity
  8
freecads.com
100
AcDbCircle
 10
10151.56903101338
 20
30158.91995053153
 30
0.0
 40
4.685835993769779
100
AcDbArc
 50
200.451398801441
 51
219.8718256010895
  0
ARC
  5
B1B9
330
1F
100
AcDbEntity
  8
freecads.com
100
AcDbCircle
 10
10156.29531762721
 20
30160.68246734388
 30
0.0
 40
9.730065436400629
100
AcDbArc
 50
188.1398426742928
 51
200.4513917053441
  0
ARC
  5
B1BA
330
1F
100
AcDbEntity
  8
freecads.com
100
AcDbCircle
 10
10209.78033859141
 20
30168.3324666359
 30
0.0
 40
63.75940891482329
100
AcDbArc
 50
185.0689760092173
 51
188.1398459980094
  0
ARC
  5
B1BB
330
1F
100
AcDbEntity
  8
freecads.com
100
AcDbCircle
 10
10188.96899504311
 20
30166.48645174522
 30
0.0
 40
42.86635286114609
100
AcDbArc
 50
181.3370456244678
 51
185.0689628223231
  0
ARC
  5
B1BC
330
1F
100
AcDbEntity
  8
freecads.com
100
AcDbCircle
 10
10215.40413025127
 20
30167.10340345299
 30
0.0
 40
69.30868639814886
100
AcDbArc
 50
178.7331405680066
 51
181.337007110374
  0
ARC
  5
B1BD
330
1F
100
AcDbEntity
  8
freecads.com
100
AcDbCircle
 10
10212.03415217083
 20
30167.17800938718
 30
0.0
 40
65.93788259175134
100
AcDbArc
 50
176.1032206169763
 51
178.7332106283373
  0
ARC
  5
B1BE
330
1F
100
AcDbEntity
  8
freecads.com
100
AcDbCircle
 10
10171.83456744317
 20
30169.91626933574
 30
0.0
 40
25.64514528312574
100
AcDbArc
 50
170.7797900490735
 51
176.1032146557533
  0
ARC
  5
B1BF
330
1F
100
AcDbEntity
  8
freecads.com
100
AcDbCircle
 10
10112.23051625999
 20
30179.59159139583
 30
0.0
 40
34.73908092218707
100
AcDbArc
 50
350.7797975559249
 51
359.9143219152462
  0
ARC
  5
B1C0
330
1F
100
AcDbEntity
  8
freecads.com
100
AcDbCircle
 10
9419.529660462325
 20
30180.62657859275
 30
0.0
 40
727.4407099236464
100
AcDbArc
 50
359.914389176468
 51
0.9159130270450171
  0
ARC
  5
B1C1
330
1F
100
AcDbEntity
  8
freecads.com
100
AcDbCircle
 10
9398.522801840405
 20
30180.29075095032
 30
0.0
 40
748.4502527403459
100
AcDbArc
 50
0.9159122415387319
 51
1.890851344864611
  0
ARC
  5
B1C2
330
1F
100
AcDbEntity
  8
freecads.com
100
AcDbCircle
 10
10114.69820767571
 20
30203.93424399084
 30
0.0
 40
31.88467535993637
100
AcDbArc
 50
1.890873106262045
 51
11.51777351896023
  0
ARC
  5
B1C3
330
1F
100
AcDbEntity
  8
freecads.com
100
AcDbCircle
 10
10143.03965735098
 20
30209.70953477818
 30
0.0
 40
2.960779471344293
100
AcDbArc
 50
11.51774525489434
 51
35.11412899545348
  0
ARC
  5
B1C4
330
1F
100
AcDbEntity
  8
freecads.com
100
AcDbCircle
 10
10139.87713020409
 20
30207.48571088467
 30
0.0
 40
6.826910698312388
100
AcDbArc
 50
35.11411046989325
 51
47.75310669972696
  0
ARC
  5
B1C5
330
1F
100
AcDbEntity
  8
freecads.com
100
AcDbCircle
 10
10137.53084267634
 20
30204.90236364741
 30
0.0
 40
10.31671701258394
100
AcDbArc
 50
47.75312419004353
 51
57.97638481567652
  0
ARC
  5
B1C6
330
1F
100
AcDbEntity
  8
freecads.com
100
AcDbCircle
 10
10132.11990233719
 20
30196.25093698598
 30
0.0
 40
20.5209053013009
100
AcDbArc
 50
57.97645680603771
 51
64.08778001604986
  0
ARC
  5
B1C7
330
1F
100
AcDbEntity
  8
freecads.com
100
AcDbCircle
 10
10167.18462546756
 20
30268.4247038508
 30
0.0
 40
59.71990371546816
100
AcDbArc
 50
241.2591161033574
 51
244.0877796866895
  0
ARC
  5
B1C8
330
1F
100
AcDbEntity
  8
freecads.com
100
AcDbCircle
 10
10139.86590507518
 20
30218.61045781288
 30
0.0
 40
2.906422989475469
100
AcDbArc
 50
215.79989202759
 51
241.2591080196685
  0
ARC
  5
B1C9
330
1F
100
AcDbEntity
  8
freecads.com
100
AcDbCircle
 10
10138.57714643086
 20
30217.68097784567
 30
0.0
 40
1.317451041096178
100
AcDbArc
 50
171.4031896872745
 51
215.7998352271027
  0
ARC
  5
B1CA
330
1F
100
AcDbEntity
  8
freecads.com
100
AcDbCircle
 10
10144.73029366658
 20
30216.75074658932
 30
0.0
 40
7.540517093668052
100
AcDbArc
 50
159.1832379512549
 51
171.4031475399479
  0
ARC
  5
B1CB
330
1F
100
AcDbEntity
  8
freecads.com
100
AcDbCircle
 10
10132.20320526323
 20
30221.51353207853
 30
0.0
 40
5.861425656605216
100
AcDbArc
 50
339.183266513507
 51
354.8309068650843
  0
ARC
  5
B1CC
330
1F
100
AcDbEntity
  8
freecads.com
100
AcDbCircle
 10
10096.88931172014
 20
30224.70815185692
 30
0.0
 40
41.31952307737845
100
AcDbArc
 50
354.8308933498494
 51
358.5341701952929
  0
ARC
  5
B1CD
330
1F
100
AcDbEntity
  8
freecads.com
100
AcDbCircle
 10
10086.13726763868
 20
30224.98332570086
 30
0.0
 40
52.07508780326915
100
AcDbArc
 50
358.5341280820906
 51
2.097180108929629
  0
ARC
  5
B1CE
330
1F
100
AcDbEntity
  8
freecads.com
100
AcDbCircle
 10
10061.49055483517
 20
30224.08085479766
 30
0.0
 40
76.73831763528038
100
AcDbArc
 50
2.097129090129779
 51
4.761721135121378
  0
ARC
  5
B1CF
330
1F
100
AcDbEntity
  8
freecads.com
100
AcDbCircle
 10
10081.64436194119
 20
30225.75964461864
 30
0.0
 40
56.51471073321688
100
AcDbArc
 50
4.761735137305348
 51
11.33313466396086
  0
ARC
  5
B1D0
330
1F
100
AcDbEntity
  8
freecads.com
100
AcDbCircle
 10
10126.64476693593
 20
30234.77867571227
 30
0.0
 40
10.61940191458011
100
AcDbArc
 50
11.33315311429829
 51
34.00124251032565
  0
ARC
  5
B1D1
330
1F
100
AcDbEntity
  8
freecads.com
100
AcDbCircle
 10
10130.76329856527
 20
30237.55679568292
 30
0.0
 40
5.651479476249988
100
AcDbArc
 50
34.00119746586537
 51
67.82901068706944
  0
ARC
  5
B1D2
330
1F
100
AcDbEntity
  8
freecads.com
100
AcDbCircle
 10
10129.14485936054
 20
30233.58518427848
 30
0.0
 40
9.940190542210627
100
AcDbArc
 50
67.82901076448381
 51
89.99997705128976
  0
ARC
  5
B1D3
330
1F
100
AcDbEntity
  8
freecads.com
100
AcDbCircle
 10
10129.1448675875
 20
30235.66242414139
 30
0.0
 40
7.862950679303604
100
AcDbArc
 50
90.00003093699666
 51
119.2555082694784
  0
ARC
  5
B1D4
330
1F
100
AcDbEntity
  8
freecads.com
100
AcDbCircle
 10
10128.11161946424
 20
30237.50700581891
 30
0.0
 40
5.748693540427594
100
AcDbArc
 50
119.2555101305738
 51
156.239582079052
  0
ARC
  5
B1D5
330
1F
100
AcDbEntity
  8
freecads.com
100
AcDbCircle
 10
10137.58235675866
 20
30233.33771641854
 30
0.0
 40
16.09653577945713
100
AcDbArc
 50
156.2395506315823
 51
175.3777967136328
  0
ARC
  5
B1D6
330
1F
100
AcDbEntity
  8
freecads.com
100
AcDbCircle
 10
10252.94541068688
 20
30224.0109318005
 30
0.0
 40
131.83599803394
100
AcDbArc
 50
175.3778411854991
 51
179.4456434978996
  0
LINE
  5
B1D7
330
1F
100
AcDbEntity
  8
freecads.com
100
AcDbLine
 10
10121.11558334188
 20
30225.28647082069
 30
0.0
 11
10121.04071034188
 21
30217.54756782069
 31
0.0
  0
LINE
  5
B1D8
330
1F
100
AcDbEntity
  8
freecads.com
100
AcDbLine
 10
10121.04071034188
 20
30217.54756782069
 30
0.0
 11
10117.38562134188
 21
30216.08509082069
 31
0.0
  0
ARC
  5
B1D9
330
1F
100
AcDbEntity
  8
freecads.com
100
AcDbCircle
 10
10120.3451239813
 20
30208.6885499316
 30
0.0
 40
7.966647538124132
100
AcDbArc
 50
111.807327702677
 51
137.827325784711
  0
ARC
  5
B1DA
330
1F
100
AcDbEntity
  8
freecads.com
100
AcDbCircle
 10
10122.82229570105
 20
30206.44452797493
 30
0.0
 40
11.30910386111206
100
AcDbArc
 50
137.8272820476744
 51
157.83986783742
  0
ARC
  5
B1DB
330
1F
100
AcDbEntity
  8
freecads.com
100
AcDbCircle
 10
10133.6769965783
 20
30202.02361474429
 30
0.0
 40
23.02955628103084
100
AcDbArc
 50
157.8398673857063
 51
170.9892395512581
  0
ARC
  5
B1DC
330
1F
100
AcDbEntity
  8
freecads.com
100
AcDbCircle
 10
10207.21079022188
 20
30190.36286583898
 30
0.0
 40
97.48217122938559
100
AcDbArc
 50
170.9892492652543
 51
175.4916598523019
  0
ARC
  5
B1DD
330
1F
100
AcDbEntity
  8
freecads.com
100
AcDbCircle
 10
9991.498991966293
 20
30207.37145868561
 30
0.0
 40
118.8991406653598
100
AcDbArc
 50
353.8318911016132
 51
355.4916062273488
  0
ARC
  5
B1DE
330
1F
100
AcDbEntity
  8
freecads.com
100
AcDbCircle
 10
9949.60523010557
 20
30211.89899247057
 30
0.0
 40
161.0368416588513
100
AcDbArc
 50
352.5097459310117
 51
353.8318886714998
  0
ARC
  5
B1DF
330
1F
100
AcDbEntity
  8
freecads.com
100
AcDbCircle
 10
9963.001659869297
 20
30210.13740077683
 30
0.0
 40
147.525086197403
100
AcDbArc
 50
351.1723394733613
 51
352.5098369658118
  0
ARC
  5
B1E0
330
1F
100
AcDbEntity
  8
freecads.com
100
AcDbCircle
 10
10066.20034416075
 20
30194.11033399944
 30
0.0
 40
43.08929104571062
100
AcDbArc
 50
347.8283993190972
 51
351.1724020489862
  0
LINE
  5
B1E1
330
1F
100
AcDbEntity
  8
freecads.com
100
AcDbLine
 10
10108.32101034188
 20
30185.02537482069
 30
0.0
 11
10107.24257134188
 21
30180.02537482069
 31
0.0
  0
LINE
  5
B1E2
330
1F
100
AcDbEntity
  8
freecads.com
100
AcDbLine
 10
10107.24257134188
 20
30180.02537482069
 30
0.0
 11
10105.85461034188
 21
30184.01515282069
 31
0.0
  0
ARC
  5
B1E3
330
1F
100
AcDbEntity
  8
freecads.com
100
AcDbCircle
 10
10129.54267039502
 20
30192.25571934319
 30
0.0
 40
25.08049293161668
100
AcDbArc
 50
195.0444637777667
 51
199.1816863252239
  0
ARC
  5
B1E4
330
1F
100
AcDbEntity
  8
freecads.com
100
AcDbCircle
 10
10112.60008006584
 20
30187.7018743061
 30
0.0
 40
7.536580264134578
100
AcDbArc
 50
184.9140931199557
 51
195.0444887518044
  0
ARC
  5
B1E5
330
1F
100
AcDbEntity
  8
freecads.com
100
AcDbCircle
 10
10108.35929447825
 20
30187.33726072191
 30
0.0
 40
3.280149192719267
100
AcDbArc
 50
169.2794692039569
 51
184.914106868811
  0
ARC
  5
B1E6
330
1F
100
AcDbEntity
  8
freecads.com
100
AcDbCircle
 10
10105.64670163355
 20
30187.85081807719
 30
0.0
 40
0.5193701182119054
100
AcDbArc
 50
108.4349534108872
 51
169.2795604082681
  0
ARC
  5
B1E7
330
1F
100
AcDbEntity
  8
freecads.com
100
AcDbCircle
 10
10105.32402915328
 20
30188.81883270646
 30
0.0
 40
0.5010071904388298
100
AcDbArc
 50
288.4350457445067
 51
343.3806716333497
  0
ARC
  5
B1E8
330
1F
100
AcDbEntity
  8
freecads.com
100
AcDbCircle
 10
10104.32186275547
 20
30189.11795960066
 30
0.0
 40
1.546863006378004
100
AcDbArc
 50
343.3806730968663
 51
7.151649983539322
  0
ARC
  5
B1E9
330
1F
100
AcDbEntity
  8
freecads.com
100
AcDbCircle
 10
10102.05162506736
 20
30188.83310153729
 30
0.0
 40
3.83490218365965
100
AcDbArc
 50
7.151746238962983
 51
21.31987551714216
  0
ARC
  5
B1EA
330
1F
100
AcDbEntity
  8
freecads.com
100
AcDbCircle
 10
10094.36968380748
 20
30185.83496291597
 30
0.0
 40
12.08117750727074
100
AcDbArc
 50
21.31989572341794
 51
27.34441940722216
  0
ARC
  5
B1EB
330
1F
100
AcDbEntity
  8
freecads.com
100
AcDbCircle
 10
10117.5369576003
 20
30197.81522703137
 30
0.0
 40
14.00041184741193
100
AcDbArc
 50
200.3012750244028
 51
207.3443752173983
  0
ARC
  5
B1EC
330
1F
100
AcDbEntity
  8
freecads.com
100
AcDbCircle
 10
10227.06610174411
 20
30238.33409141121
 30
0.0
 40
130.7840228016305
100
AcDbArc
 50
198.9383525495165
 51
200.3012884852114
  0
ARC
  5
B1ED
330
1F
100
AcDbEntity
  8
freecads.com
100
AcDbCircle
 10
10239.70008809905
 20
30242.66906786601
 30
0.0
 40
144.1410296548952
100
AcDbArc
 50
197.4933517153946
 51
198.9383321276381
  0
ARC
  5
B1EE
330
1F
100
AcDbEntity
  8
freecads.com
100
AcDbCircle
 10
10256.41884184631
 20
30247.9380948581
 30
0.0
 40
161.6704156183882
100
AcDbArc
 50
196.1674600024173
 51
197.4932695504575
  0
ARC
  5
B1EF
330
1F
100
AcDbEntity
  8
freecads.com
100
AcDbCircle
 10
9985.694465725092
 20
30169.45221727726
 30
0.0
 40
120.2014006490057
100
AcDbArc
 50
16.16740423690116
 51
17.90755821065427
  0
ARC
  5
B1F0
330
1F
100
AcDbEntity
  8
freecads.com
100
AcDbCircle
 10
10017.67386388457
 20
30179.78593869791
 30
0.0
 40
86.59384636366594
100
AcDbArc
 50
17.90755923316837
 51
20.13262821293279
  0
ARC
  5
B1F1
330
1F
100
AcDbEntity
  8
freecads.com
100
AcDbCircle
 10
10015.46183616213
 20
30178.97498739688
 30
0.0
 40
88.94984056068439
100
AcDbArc
 50
20.13264964114795
 51
21.93880440170108
  0
ARC
  5
B1F2
330
1F
100
AcDbEntity
  8
freecads.com
100
AcDbCircle
 10
10094.43152013545
 20
30210.78273880909
 30
0.0
 40
3.814982619025351
100
AcDbArc
 50
21.93882271677488
 51
39.69014099857586
  0
ARC
  5
B1F3
330
1F
100
AcDbEntity
  8
freecads.com
100
AcDbCircle
 10
10094.11985146386
 20
30210.52407221432
 30
0.0
 40
4.220008257824403
100
AcDbArc
 50
39.69019176867858
 51
53.85489641836233
  0
ARC
  5
B1F4
330
1F
100
AcDbEntity
  8
freecads.com
100
AcDbCircle
 10
10077.11714163572
 20
30187.24616777528
 30
0.0
 40
33.04626324477339
100
AcDbArc
 50
53.85477706480603
 51
56.96368453634168
  0
ARC
  5
B1F5
330
1F
100
AcDbEntity
  8
freecads.com
100
AcDbCircle
 10
10074.66537855148
 20
30183.47615093692
 30
0.0
 40
37.54339223759694
100
AcDbArc
 50
56.96357341097071
 51
60.15451293991313
  0
ARC
  5
B1F6
330
1F
100
AcDbEntity
  8
freecads.com
100
AcDbCircle
 10
10072.81307265079
 20
30180.24791781145
 30
0.0
 40
41.26529044393286
100
AcDbArc
 50
60.15442344533852
 51
63.12699096864966
  0
ARC
  5
B1F7
330
1F
100
AcDbEntity
  8
freecads.com
100
AcDbCircle
 10
10104.02134964325
 20
30241.83455818719
 30
0.0
 40
27.77723866395128
100
AcDbArc
 50
238.7912497388828
 51
243.1268770454334
  0
ARC
  5
B1F8
330
1F
100
AcDbEntity
  8
freecads.com
100
AcDbCircle
 10
10100.93592473372
 20
30236.74168978003
 30
0.0
 40
21.82264753736346
100
AcDbArc
 50
233.595895753392
 51
238.7912744570492
  0
ARC
  5
B1F9
330
1F
100
AcDbEntity
  8
freecads.com
100
AcDbCircle
 10
10099.01113579267
 20
30234.1314135814
 30
0.0
 40
18.57944629482435
100
AcDbArc
 50
228.5151471283769
 51
233.5959918620492
  0
ARC
  5
B1FA
330
1F
100
AcDbEntity
  8
freecads.com
100
AcDbCircle
 10
10087.93663963009
 20
30221.60730419495
 30
0.0
 40
1.861259156898029
100
AcDbArc
 50
200.9936279106285
 51
228.5151788858737
  0
ARC
  5
B1FB
330
1F
100
AcDbEntity
  8
freecads.com
100
AcDbCircle
 10
10088.63648035112
 20
30221.87585639591
 30
0.0
 40
2.610857262191546
100
AcDbArc
 50
180.6064575482747
 51
200.9935831394523
  0
ARC
  5
B1FC
330
1F
100
AcDbEntity
  8
freecads.com
100
AcDbCircle
 10
10117.39378544242
 20
30222.18023552548
 30
0.0
 40
31.36977314523916
100
AcDbArc
 50
177.3061846422302
 51
180.6064225937084
  0
ARC
  5
B1FD
330
1F
100
AcDbEntity
  8
freecads.com
100
AcDbCircle
 10
10120.76048050853
 20
30222.02187556916
 30
0.0
 40
34.74019055886882
100
AcDbArc
 50
173.7523720912789
 51
177.306259003333
  0
ARC
  5
B1FE
330
1F
100
AcDbEntity
  8
freecads.com
100
AcDbCircle
 10
10129.58470924801
 20
30221.05582733696
 30
0.0
 40
43.61714172655899
100
AcDbArc
 50
170.7559634830363
 51
173.7523620089362
  0
ARC
  5
B1FF
330
1F
100
AcDbEntity
  8
freecads.com
100
AcDbCircle
 10
10043.90279033304
 20
30235.00090874826
 30
0.0
 40
43.19216955121691
100
AcDbArc
 50
350.7558991001767
 51
0.9876226253969534
  0
ARC
  5
B200
330
1F
100
AcDbEntity
  8
freecads.com
100
AcDbCircle
 10
10077.73349658497
 20
30235.58412768538
 30
0.0
 40
9.356436518928953
100
AcDbArc
 50
0.9875474848631927
 51
32.81204069019191
  0
ARC
  5
B201
330
1F
100
AcDbEntity
  8
freecads.com
100
AcDbCircle
 10
10081.22732506089
 20
30237.83678685122
 30
0.0
 40
5.199356926637491
100
AcDbArc
 50
32.81203094689649
 51
79.23368786118913
  0
ARC
  5
B202
330
1F
100
AcDbEntity
  8
freecads.com
100
AcDbCircle
 10
10079.96789956192
 20
30231.21348146505
 30
0.0
 40
11.94133933732296
100
AcDbArc
 50
79.23369753376845
 51
104.2006755016895
  0
LINE
  5
B203
330
1F
100
AcDbEntity
  8
freecads.com
100
AcDbLine
 10
10100.12948734188
 20
30173.16048182069
 30
0.0
 11
10103.96242934188
 21
30160.29558882069
 31
0.0
  0
LINE
  5
B204
330
1F
100
AcDbEntity
  8
freecads.com
100
AcDbLine
 10
10103.96242934188
 20
30160.29558882069
 30
0.0
 11
10101.56986134188
 21
30158.35820482069
 31
0.0
  0
LINE
  5
B205
330
1F
100
AcDbEntity
  8
freecads.com
100
AcDbLine
 10
10101.56986134188
 20
30158.35820482069
 30
0.0
 11
10099.17729434188
 21
30156.42082082069
 31
0.0
  0
LINE
  5
B206
330
1F
100
AcDbEntity
  8
freecads.com
100
AcDbLine
 10
10099.17729434188
 20
30156.42082082069
 30
0.0
 11
10097.23229134188
 21
30161.22309782069
 31
0.0
  0
ARC
  5
B207
330
1F
100
AcDbEntity
  8
freecads.com
100
AcDbCircle
 10
10118.35369271552
 20
30169.77761320056
 30
0.0
 40
22.78800845556585
100
AcDbArc
 50
196.1769965447118
 51
202.048758040088
  0
ARC
  5
B208
330
1F
100
AcDbEntity
  8
freecads.com
100
AcDbCircle
 10
10138.91391200979
 20
30175.74198864056
 30
0.0
 40
44.1958666346895
100
AcDbArc
 50
192.6002340848105
 51
196.1770337625953
  0
ARC
  5
B209
330
1F
100
AcDbEntity
  8
freecads.com
100
AcDbCircle
 10
10138.686064674
 20
30175.69106924698
 30
0.0
 40
43.96239887900258
100
AcDbArc
 50
189.0190956133925
 51
192.6002487085277
  0
ARC
  5
B20A
330
1F
100
AcDbEntity
  8
freecads.com
100
AcDbCircle
 10
10116.64273819227
 20
30172.19221331101
 30
0.0
 40
21.64311942735122
100
AcDbArc
 50
182.9340975527556
 51
189.0190833600268
  0
ARC
  5
B20B
330
1F
100
AcDbEntity
  8
freecads.com
100
AcDbCircle
 10
9988.973078256179
 20
30165.6485260539
 30
0.0
 40
106.1941283180394
100
AcDbArc
 50
2.934122302949356
 51
4.229222317350536
  0
ARC
  5
B20C
330
1F
100
AcDbEntity
  8
freecads.com
100
AcDbCircle
 10
9812.13302543346
 20
30152.57155017043
 30
0.0
 40
283.517030337487
100
AcDbArc
 50
4.229216556404733
 51
4.851447193127999
  0
ARC
  5
B20D
330
1F
100
AcDbEntity
  8
freecads.com
100
AcDbCircle
 10
9797.341264384254
 20
30151.31616226765
 30
0.0
 40
298.3619686571978
100
AcDbArc
 50
4.85143044932974
 51
5.468389912721366
  0
ARC
  5
B20E
330
1F
100
AcDbEntity
  8
freecads.com
100
AcDbCircle
 10
9909.94583742998
 20
30162.09614664135
 30
0.0
 40
185.2425718505789
100
AcDbArc
 50
5.468361023294977
 51
6.350024129030715
  0
ARC
  5
B20F
330
1F
100
AcDbEntity
  8
freecads.com
100
AcDbCircle
 10
10313.94164046135
 20
30207.05470707895
 30
0.0
 40
221.2471340751559
100
AcDbArc
 50
185.3700307183887
 51
186.3500117584609
  0
ARC
  5
B210
330
1F
100
AcDbEntity
  8
freecads.com
100
AcDbCircle
 10
10099.07335098677
 20
30186.85705291229
 30
0.0
 40
5.431640990052667
100
AcDbArc
 50
171.211167481177
 51
185.3699360930422
  0
ARC
  5
B211
330
1F
100
AcDbEntity
  8
freecads.com
100
AcDbCircle
 10
10094.01855263751
 20
30187.63856772284
 30
0.0
 40
0.3167850047106432
100
AcDbArc
 50
74.53348277454058
 51
171.2110764460504
  0
ARC
  5
B212
330
1F
100
AcDbEntity
  8
freecads.com
100
AcDbCircle
 10
10093.67587234186
 20
30186.40007449219
 30
0.0
 40
1.601812345811204
100
AcDbArc
 50
44.62928993055741
 51
74.53365450036836
  0
ARC
  5
B213
330
1F
100
AcDbEntity
  8
freecads.com
100
AcDbCircle
 10
10092.35479312126
 20
30185.09597675579
 30
0.0
 40
3.458131610711115
100
AcDbArc
 50
21.81351278046818
 51
44.62933608763608
  0
ARC
  5
B214
330
1F
100
AcDbEntity
  8
freecads.com
100
AcDbCircle
 10
9956.462869908236
 20
30130.70602363099
 30
0.0
 40
149.8305395141497
100
AcDbArc
 50
20.29973837630974
 51
21.81347085870576
  0
ARC
  5
B215
330
1F
100
AcDbEntity
  8
freecads.com
100
AcDbCircle
 10
9977.668175526053
 20
30138.55011276184
 30
0.0
 40
127.2209238468453
100
AcDbArc
 50
18.15826359976108
 51
20.2996883335398
  0
ARC
  5
B216
330
1F
100
AcDbEntity
  8
freecads.com
100
AcDbCircle
 10
9915.21784143676
 20
30118.06816047206
 30
0.0
 40
192.9442423678999
100
AcDbArc
 50
16.59082675808664
 51
18.15818566672183
  0
ARC
  5
B217
330
1F
100
AcDbEntity
  8
freecads.com
100
AcDbCircle
 10
9863.107676187901
 20
30171.8666573603
 30
0.0
 40
200.3172638774413
100
AcDbArc
 50
358.4409036232001
 51
359.9023845562683
  0
ARC
  5
B218
330
1F
100
AcDbEntity
  8
freecads.com
100
AcDbCircle
 10
9973.547380889623
 20
30168.86080187701
 30
0.0
 40
89.83666131859086
100
AcDbArc
 50
355.7792257747609
 51
358.4408388414427
  0
ARC
  5
B219
330
1F
100
AcDbEntity
  8
freecads.com
100
AcDbCircle
 10
9912.311933232976
 20
30173.38023081644
 30
0.0
 40
151.2386587422081
100
AcDbArc
 50
354.4975505047568
 51
355.7791291423481
  0
ARC
  5
B21A
330
1F
100
AcDbEntity
  8
freecads.com
100
AcDbCircle
 10
10062.4652393874
 20
30158.91563304871
 30
0.0
 40
0.3902582280244364
100
AcDbArc
 50
269.9999933168658
 51
354.4975465074081
  0
ARC
  5
B21B
330
1F
100
AcDbEntity
  8
freecads.com
100
AcDbCircle
 10
10062.46523978799
 20
30159.27540979181
 30
0.0
 40
0.7500349711166527
100
AcDbArc
 50
190.3114179972035
 51
269.9999659212789
  0
ARC
  5
B21C
330
1F
100
AcDbEntity
  8
freecads.com
100
AcDbCircle
 10
10085.02773918202
 20
30163.38033408185
 30
0.0
 40
23.68291055034967
100
AcDbArc
 50
183.689130235185
 51
190.3113662715918
  0
ARC
  5
B21D
330
1F
100
AcDbEntity
  8
freecads.com
100
AcDbCircle
 10
10117.68512657547
 20
30165.48596002272
 30
0.0
 40
56.40810897555383
100
AcDbArc
 50
179.1404313558891
 51
183.6891188835301
  0
ARC
  5
B21E
330
1F
100
AcDbEntity
  8
freecads.com
100
AcDbCircle
 10
10502.69224224337
 20
30159.70983893335
 30
0.0
 40
441.4585507227827
100
AcDbArc
 50
178.1416973197884
 51
179.1404710253926
  0
ARC
  5
B21F
330
1F
100
AcDbEntity
  8
freecads.com
100
AcDbCircle
 10
10366.77772113872
 20
30164.11988898826
 30
0.0
 40
305.4725014807954
100
AcDbArc
 50
177.1147946386437
 51
178.1417573170565
  0
ARC
  5
B220
330
1F
100
AcDbEntity
  8
freecads.com
100
AcDbCircle
 10
10091.40989737911
 20
30177.99817262877
 30
0.0
 40
29.75517319166154
100
AcDbArc
 50
171.4396189243224
 51
177.1148660814175
  0
ARC
  5
B221
330
1F
100
AcDbEntity
  8
freecads.com
100
AcDbCircle
 10
10070.7335507386
 20
30181.11055259172
 30
0.0
 40
8.8458877081222
100
AcDbArc
 50
160.4833897561751
 51
171.4396145089265
  0
ARC
  5
B222
330
1F
100
AcDbEntity
  8
freecads.com
100
AcDbCircle
 10
10063.04640739583
 20
30183.83522058247
 30
0.0
 40
0.6901542382185618
100
AcDbArc
 50
90.0000044789766
 51
160.4833521158526
  0
ARC
  5
B223
330
1F
100
AcDbEntity
  8
freecads.com
100
AcDbCircle
 10
10063.04640735126
 20
30184.36235609199
 30
0.0
 40
0.1630187287003085
100
AcDbArc
 50
1.879889925638418
 51
90.00000329638751
  0
ARC
  5
B224
330
1F
100
AcDbEntity
  8
freecads.com
100
AcDbCircle
 10
9079.105838037442
 20
30152.06944873676
 30
0.0
 40
984.6333716632392
100
AcDbArc
 50
1.666631237548373
 51
1.879771475837169
  0
ARC
  5
B225
330
1F
100
AcDbEntity
  8
freecads.com
100
AcDbCircle
 10
9845.349556684569
 20
30174.36443078702
 30
0.0
 40
218.0653690758683
100
AcDbArc
 50
0.5637997797051245
 51
1.666620431780201
  0
ARC
  5
B226
330
1F
100
AcDbEntity
  8
freecads.com
100
AcDbCircle
 10
9631.607641079057
 20
30172.2609560716
 30
0.0
 40
431.8176347774993
100
AcDbArc
 50
359.9023992580384
 51
0.563819900430823
  0
LINE
  5
B227
330
1F
100
AcDbEntity
  8
freecads.com
100
AcDbLine
 10
10113.39962434188
 20
30166.27537482069
 30
0.0
 11
10113.27126834188
 21
30157.02537482069
 31
0.0
  0
LINE
  5
B228
330
1F
100
AcDbEntity
  8
freecads.com
100
AcDbLine
 10
10113.27126834188
 20
30157.02537482069
 30
0.0
 11
10112.28709334188
 21
30162.76876582069
 31
0.0
  0
ARC
  5
B229
330
1F
100
AcDbEntity
  8
freecads.com
100
AcDbCircle
 10
10143.46272542917
 20
30168.11095067424
 30
0.0
 40
31.63003280193713
100
AcDbArc
 50
182.4330293029619
 51
189.7236342310427
  0
ARC
  5
B22A
330
1F
100
AcDbEntity
  8
freecads.com
100
AcDbCircle
 10
10153.21054699658
 20
30168.52512867547
 30
0.0
 40
41.38664946585297
100
AcDbArc
 50
176.4733116679545
 51
182.4330208564142
  0
ARC
  5
B22B
330
1F
100
AcDbEntity
  8
freecads.com
100
AcDbCircle
 10
10162.68024034775
 20
30167.94149957938
 30
0.0
 40
50.87431066801862
100
AcDbArc
 50
172.2203789170478
 51
176.4733001627485
  0
ARC
  5
B22C
330
1F
100
AcDbEntity
  8
freecads.com
100
AcDbCircle
 10
10113.07329388816
 20
30174.71883193729
 30
0.0
 40
0.8065428833972044
100
AcDbArc
 50
90.0000388068887
 51
172.2204020358113
  0
ARC
  5
B22D
330
1F
100
AcDbEntity
  8
freecads.com
100
AcDbCircle
 10
10113.07329359166
 20
30175.34349852643
 30
0.0
 40
0.1818762942602358
100
AcDbArc
 50
2.560216632504567
 51
90.00007868787301
  0
ARC
  5
B22E
330
1F
100
AcDbEntity
  8
freecads.com
100
AcDbCircle
 10
9843.188931190312
 20
30163.27675787795
 30
0.0
 40
270.335860715485
100
AcDbArc
 50
2.020538141341851
 51
2.560034204770295
  0
ARC
  5
B22F
330
1F
100
AcDbEntity
  8
freecads.com
100
AcDbCircle
 10
10016.18065069061
 20
30169.3798215265
 30
0.0
 40
97.23651813566434
100
AcDbArc
 50
0.260691473638717
 51
2.020554046304521
  0
ARC
  5
B230
330
1F
100
AcDbEntity
  8
freecads.com
100
AcDbCircle
 10
9920.898733960463
 20
30168.94642129868
 30
0.0
 40
192.5194205448579
100
AcDbArc
 50
359.2050433150578
 51
0.2606532918861518
  0
ARC
  5
B231
330
1F
100
AcDbEntity
  8
freecads.com
100
AcDbCircle
 10
10098.65120826849
 20
30152.99884659293
 30
0.0
 40
13.77746538538647
100
AcDbArc
 50
352.503340198726
 51
356.9899432316912
  0
ARC
  5
B232
330
1F
100
AcDbEntity
  8
freecads.com
100
AcDbCircle
 10
10072.93133087372
 20
30156.38336863602
 30
0.0
 40
39.71907448470341
100
AcDbArc
 50
350.4666987566551
 51
352.5033955091444
  0
ARC
  5
B233
330
1F
100
AcDbEntity
  8
freecads.com
100
AcDbCircle
 10
10070.22884140957
 20
30156.83720205649
 30
0.0
 40
42.45940550063774
100
AcDbArc
 50
348.4536367527232
 51
350.4667294868815
  0
ARC
  5
B234
330
1F
100
AcDbEntity
  8
freecads.com
100
AcDbCircle
 10
10084.12367751044
 20
30153.99857432663
 30
0.0
 40
28.27757636408908
100
AcDbArc
 50
345.7236977755408
 51
348.4535979622914
  0
ARC
  5
B235
330
1F
100
AcDbEntity
  8
freecads.com
100
AcDbCircle
 10
10084.71637253042
 20
30153.84778346304
 30
0.0
 40
27.66600030938149
100
AcDbArc
 50
342.4669472132744
 51
345.7236492826965
  0
ARC
  5
B236
330
1F
100
AcDbEntity
  8
freecads.com
100
AcDbCircle
 10
10110.98744497547
 20
30145.54788123315
 30
0.0
 40
0.1149998840143937
100
AcDbArc
 50
201.3981937630959
 51
342.466939118892
  0
ARC
  5
B237
330
1F
100
AcDbEntity
  8
freecads.com
100
AcDbCircle
 10
10112.91330167567
 20
30146.30254743717
 30
0.0
 40
2.18344014402381
100
AcDbArc
 50
181.8979328801605
 51
201.3982243482121
  0
ARC
  5
B238
330
1F
100
AcDbEntity
  8
freecads.com
100
AcDbCircle
 10
10398.18109121685
 20
30155.75539171144
 30
0.0
 40
287.607804931935
100
AcDbArc
 50
181.2910255980803
 51
181.8979010763223
  0
ARC
  5
B239
330
1F
100
AcDbEntity
  8
freecads.com
100
AcDbCircle
 10
10139.28413384857
 20
30149.92077132875
 30
0.0
 40
28.64511007114395
100
AcDbArc
 50
177.2404085472473
 51
181.291027517474
  0
ARC
  5
B23A
330
1F
100
AcDbEntity
  8
freecads.com
100
AcDbCircle
 10
10125.06300948847
 20
30150.60626746308
 30
0.0
 40
14.40747392553352
100
AcDbArc
 50
170.4666638150743
 51
177.2404895174398
  0
ARC
  5
B23B
330
1F
100
AcDbEntity
  8
freecads.com
100
AcDbCircle
 10
10121.26807543222
 20
30151.24360752321
 30
0.0
 40
10.55939299561255
100
AcDbArc
 50
163.5328671596431
 51
170.4667486246739
  0
ARC
  5
B23C
330
1F
100
AcDbEntity
  8
freecads.com
100
AcDbCircle
 10
10111.52798035275
 20
30154.12267949621
 30
0.0
 40
0.40269532448394
100
AcDbArc
 50
90.00000154683942
 51
163.5329886167352
  0
ARC
  5
B23D
330
1F
100
AcDbEntity
  8
freecads.com
100
AcDbCircle
 10
10111.52798070656
 20
30154.0299879805
 30
0.0
 40
0.4953868401909382
100
AcDbArc
 50
41.13143984094485
 51
90.00004217841915
  0
ARC
  5
B23E
330
1F
100
AcDbEntity
  8
freecads.com
100
AcDbCircle
 10
10110.63758830407
 20
30153.25239721529
 30
0.0
 40
1.677523054226862
100
AcDbArc
 50
21.3981800269443
 51
41.1312123114117
  0
ARC
  5
B23F
330
1F
100
AcDbEntity
  8
freecads.com
100
AcDbCircle
 10
10109.46491301192
 20
30152.79287031593
 30
0.0
 40
2.937019902993377
100
AcDbArc
 50
6.726306195885482
 51
21.39824264510758
  0
ARC
  5
B240
330
1F
100
AcDbEntity
  8
freecads.com
100
AcDbCircle
 10
10107.338278451
 20
30152.54205613782
 30
0.0
 40
5.078393832891574
100
AcDbArc
 50
356.9898464447631
 51
6.726329776095412
  0
ARC
  5
B241
330
1F
100
AcDbEntity
  8
freecads.com
100
AcDbCircle
 10
10011.58109336741
 20
30142.46509775454
 30
0.0
 40
97.88537194115813
100
AcDbArc
 50
358.7859650049609
 51
0.7669745388912152
  0
ARC
  5
B242
330
1F
100
AcDbEntity
  8
freecads.com
100
AcDbCircle
 10
10106.87607074984
 20
30140.44560043857
 30
0.0
 40
2.568998301959294
100
AcDbArc
 50
331.4505371835344
 51
358.7859332698087
  0
ARC
  5
B243
330
1F
100
AcDbEntity
  8
freecads.com
100
AcDbCircle
 10
10108.19349502322
 20
30139.72882449626
 30
0.0
 40
1.069206827263342
100
AcDbArc
 50
279.638808853922
 51
331.450519912314
  0
ARC
  5
B244
330
1F
100
AcDbEntity
  8
freecads.com
100
AcDbCircle
 10
10106.60130433811
 20
30149.10381194327
 30
0.0
 40
10.57843712257864
100
AcDbArc
 50
270.0000000204272
 51
279.6387969138826
  0
ARC
  5
B245
330
1F
100
AcDbEntity
  8
freecads.com
100
AcDbCircle
 10
10106.60130747941
 20
30146.56870102062
 30
0.0
 40
8.043326199930037
100
AcDbArc
 50
260.6265760230566
 51
269.9999776501403
  0
ARC
  5
B246
330
1F
100
AcDbEntity
  8
freecads.com
100
AcDbCircle
 10
10105.83946251121
 20
30141.95346779347
 30
0.0
 40
3.365636011755575
100
AcDbArc
 50
242.6547077428284
 51
260.6265304816137
  0
ARC
  5
B247
330
1F
100
AcDbEntity
  8
freecads.com
100
AcDbCircle
 10
10105.31059565554
 20
30140.93079238897
 30
0.0
 40
2.214304116081533
100
AcDbArc
 50
219.7156857315108
 51
242.6547195533766
  0
ARC
  5
B248
330
1F
100
AcDbEntity
  8
freecads.com
100
AcDbCircle
 10
10105.12023216981
 20
30140.77266285735
 30
0.0
 40
1.966830470068249
100
AcDbArc
 50
194.6454706507048
 51
219.7157156585841
  0
ARC
  5
B249
330
1F
100
AcDbEntity
  8
freecads.com
100
AcDbCircle
 10
10095.73200224163
 20
30138.31925317279
 30
0.0
 40
7.736678187355088
100
AcDbArc
 50
14.64547903437574
 51
20.25728095483104
  0
ARC
  5
B24A
330
1F
100
AcDbEntity
  8
freecads.com
100
AcDbCircle
 10
10102.89332397151
 20
30140.96223858252
 30
0.0
 40
0.1032057930249461
100
AcDbArc
 50
20.25707305658934
 51
138.0969793947597
  0
ARC
  5
B24B
330
1F
100
AcDbEntity
  8
freecads.com
100
AcDbCircle
 10
10103.27021854437
 20
30140.62403766359
 30
0.0
 40
0.6095943598604249
100
AcDbArc
 50
138.0971968291976
 51
173.1675541054261
  0
ARC
  5
B24C
330
1F
100
AcDbEntity
  8
freecads.com
100
AcDbCircle
 10
10137.88732666741
 20
30136.47624483079
 30
0.0
 40
35.47430947680576
100
AcDbArc
 50
173.1674430055677
 51
175.0691608712203
  0
LINE
  5
B24D
330
1F
100
AcDbEntity
  8
freecads.com
100
AcDbLine
 10
10102.54430134188
 20
30139.52537482069
 30
0.0
 11
10102.32862034188
 21
30137.02537482069
 31
0.0
  0
LINE
  5
B24E
330
1F
100
AcDbEntity
  8
freecads.com
100
AcDbLine
 10
10102.32862034188
 20
30137.02537482069
 30
0.0
 11
10101.52798034188
 21
30139.52537482069
 31
0.0
  0
ARC
  5
B24F
330
1F
100
AcDbEntity
  8
freecads.com
100
AcDbCircle
 10
10126.14147050669
 20
30147.40797958599
 30
0.0
 40
25.84490967249382
100
AcDbArc
 50
190.302959990925
 51
197.7579481528674
  0
ARC
  5
B250
330
1F
100
AcDbEntity
  8
freecads.com
100
AcDbCircle
 10
10109.23861584492
 20
30144.3353074445
 30
0.0
 40
8.665043264214439
100
AcDbArc
 50
173.4633849244082
 51
190.3029550184386
  0
ARC
  5
B251
330
1F
100
AcDbEntity
  8
freecads.com
100
AcDbCircle
 10
10103.98160066267
 20
30144.93767131396
 30
0.0
 40
3.373630328375559
100
AcDbArc
 50
144.1661845603958
 51
173.4633726579593
  0
ARC
  5
B252
330
1F
100
AcDbEntity
  8
freecads.com
100
AcDbCircle
 10
10102.44464649979
 20
30146.04753745022
 30
0.0
 40
1.477837370471178
100
AcDbArc
 50
89.99996735191254
 51
144.1661944052282
  0
ARC
  5
B253
330
1F
100
AcDbEntity
  8
freecads.com
100
AcDbCircle
 10
10102.44464562258
 20
30144.34565264228
 30
0.0
 40
3.179722178413167
100
AcDbArc
 50
76.09418451721726
 51
89.99996901975185
  0
ARC
  5
B254
330
1F
100
AcDbEntity
  8
freecads.com
100
AcDbCircle
 10
10102.46838532126
 20
30144.44156154306
 30
0.0
 40
3.080918886410825
100
AcDbArc
 50
61.85517836311837
 51
76.09408187715756
  0
ARC
  5
B255
330
1F
100
AcDbEntity
  8
freecads.com
100
AcDbCircle
 10
10102.7352516531
 20
30144.94042144529
 30
0.0
 40
2.515163779389647
100
AcDbArc
 50
46.12583874659779
 51
61.85514278429379
  0
ARC
  5
B256
330
1F
100
AcDbEntity
  8
freecads.com
100
AcDbCircle
 10
10103.65488786372
 20
30145.89692607398
 30
0.0
 40
1.188275741686594
100
AcDbArc
 50
18.57136682822343
 51
46.12589775979871
  0
ARC
  5
B257
330
1F
100
AcDbEntity
  8
freecads.com
100
AcDbCircle
 10
10104.96274783475
 20
30146.33634190236
 30
0.0
 40
0.1914285650574253
100
AcDbArc
 50
198.5713146566934
 51
300.4677575659517
  0
ARC
  5
B258
330
1F
100
AcDbEntity
  8
freecads.com
100
AcDbCircle
 10
10104.44973528197
 20
30147.20838832654
 30
0.0
 40
1.203182905418473
100
AcDbArc
 50
300.4677057453565
 51
327.5545376383914
  0
ARC
  5
B259
330
1F
100
AcDbEntity
  8
freecads.com
100
AcDbCircle
 10
10100.06126795264
 20
30149.9982632701
 30
0.0
 40
6.403379796038102
100
AcDbArc
 50
327.5546740852078
 51
337.6461843694711
  0
ARC
  5
B25A
330
1F
100
AcDbEntity
  8
freecads.com
100
AcDbCircle
 10
10085.77767401458
 20
30155.87205488862
 30
0.0
 40
21.8475529291393
100
AcDbArc
 50
337.6462229254439
 51
341.6927178864685
  0
ARC
  5
B25B
330
1F
100
AcDbEntity
  8
freecads.com
100
AcDbCircle
 10
10181.03986326722
 20
30124.3537400856
 30
0.0
 40
78.49331047769974
100
AcDbArc
 50
159.9665948804154
 51
161.6927694834987
  0
ARC
  5
B25C
330
1F
100
AcDbEntity
  8
freecads.com
100
AcDbCircle
 10
10108.9742065194
 20
30150.63108710361
 30
0.0
 40
1.786349588871924
100
AcDbArc
 50
133.6973233830059
 51
159.9666087358852
  0
ARC
  5
B25D
330
1F
100
AcDbEntity
  8
freecads.com
100
AcDbCircle
 10
10107.92547877326
 20
30151.7286213284
 30
0.0
 40
0.2683208473416745
100
AcDbArc
 50
34.97132446005006
 51
133.6974237670398
  0
ARC
  5
B25E
330
1F
100
AcDbEntity
  8
freecads.com
100
AcDbCircle
 10
10104.72863704904
 20
30149.49255469493
 30
0.0
 40
4.169575901681106
100
AcDbArc
 50
21.33383115072439
 51
34.97129670748997
  0
ARC
  5
B25F
330
1F
100
AcDbEntity
  8
freecads.com
100
AcDbCircle
 10
10103.4112479961
 20
30148.9780193825
 30
0.0
 40
5.58388156329553
100
AcDbArc
 50
9.608164205358413
 51
21.33393113798872
  0
ARC
  5
B260
330
1F
100
AcDbEntity
  8
freecads.com
100
AcDbCircle
 10
10073.17045784934
 20
30143.85875382503
 30
0.0
 40
36.2549146164557
100
AcDbArc
 50
6.66398931086814
 51
9.608142862623333
  0
ARC
  5
B261
330
1F
100
AcDbEntity
  8
freecads.com
100
AcDbCircle
 10
10068.17250672169
 20
30143.27485364784
 30
0.0
 40
41.28685806705175
100
AcDbArc
 50
3.688388062085013
 51
6.663934464302734
  0
ARC
  5
B262
330
1F
100
AcDbEntity
  8
freecads.com
100
AcDbCircle
 10
10067.15199001075
 20
30143.20901857004
 30
0.0
 40
42.30949613227319
100
AcDbArc
 50
0.7669860195908008
 51
3.688454158016429
  0
ARC
  5
B263
330
1F
100
AcDbEntity
  8
freecads.com
100
AcDbCircle
 10
10099.97946248282
 20
30134.44127220239
 30
0.0
 40
77.32746704456537
100
AcDbArc
 50
3.17010690199126
 51
5.442383059141853
  0
ARC
  5
B264
330
1F
100
AcDbEntity
  8
freecads.com
100
AcDbCircle
 10
10153.40000278503
 20
30137.39997629067
 30
0.0
 40
23.82505536003343
100
AcDbArc
 50
357.7076697276274
 51
3.170131467020091
  0
ARC
  5
B265
330
1F
100
AcDbEntity
  8
freecads.com
100
AcDbCircle
 10
10161.76893457199
 20
30137.06498305781
 30
0.0
 40
15.44942166934627
100
AcDbArc
 50
351.8163822892788
 51
357.7076115231391
  0
ARC
  5
B266
330
1F
100
AcDbEntity
  8
freecads.com
100
AcDbCircle
 10
10176.66812645296
 20
30134.92232483346
 30
0.0
 40
0.3969500127665447
100
AcDbArc
 50
269.9999839669397
 51
351.8164121054041
  0
ARC
  5
B267
330
1F
100
AcDbEntity
  8
freecads.com
100
AcDbCircle
 10
10176.66812662069
 20
30135.41119005166
 30
0.0
 40
0.8858152309681356
100
AcDbArc
 50
188.8141409582681
 51
269.9999819663246
  0
ARC
  5
B268
330
1F
100
AcDbEntity
  8
freecads.com
100
AcDbCircle
 10
10329.61546163681
 20
30159.1274393083
 30
0.0
 40
155.6609675240166
100
AcDbArc
 50
186.7197297861968
 51
188.8141759931983
  0
ARC
  5
B269
330
1F
100
AcDbEntity
  8
freecads.com
100
AcDbCircle
 10
10283.75493073853
 20
30153.72421198611
 30
0.0
 40
109.4832330653783
100
AcDbArc
 50
183.7992601035174
 51
186.7198116582745
  0
ARC
  5
B26A
330
1F
100
AcDbEntity
  8
freecads.com
100
AcDbCircle
 10
10177.95559602564
 20
30146.6984036159
 30
0.0
 40
3.450873811501564
100
AcDbArc
 50
148.2824967387932
 51
183.7993165670834
  0
ARC
  5
B26B
330
1F
100
AcDbEntity
  8
freecads.com
100
AcDbCircle
 10
10175.9943889792
 20
30147.91049918339
 30
0.0
 40
1.145335101407925
100
AcDbArc
 50
108.2349955210986
 51
148.2825643613554
  0
ARC
  5
B26C
330
1F
100
AcDbEntity
  8
freecads.com
100
AcDbCircle
 10
10175.74911103874
 20
30148.65498359212
 30
0.0
 40
0.3614867085906938
100
AcDbArc
 50
16.04996530302292
 51
108.2350039647011
  0
ARC
  5
B26D
330
1F
100
AcDbEntity
  8
freecads.com
100
AcDbCircle
 10
10166.56235686457
 20
30146.01206550476
 30
0.0
 40
9.920852182986706
100
AcDbArc
 50
6.024714898892418
 51
16.04989001437537
  0
ARC
  5
B26E
330
1F
100
AcDbEntity
  8
freecads.com
100
AcDbCircle
 10
9657.417116839646
 20
30092.27675263896
 30
0.0
 40
521.8938585894075
100
AcDbArc
 50
5.442354479805763
 51
6.02470752961192
  0
ARC
  5
B26F
330
1F
100
AcDbEntity
  8
freecads.com
100
AcDbCircle
 10
10106.60310165868
 20
30134.21139845088
 30
0.0
 40
13.16186163137885
100
AcDbArc
 50
357.6509842318176
 51
5.447535105777565
  0
ARC
  5
B270
330
1F
100
AcDbEntity
  8
freecads.com
100
AcDbCircle
 10
10098.26334394953
 20
30134.55349713254
 30
0.0
 40
21.50863287272028
100
AcDbArc
 50
352.25427949113
 51
357.6510025869102
  0
ARC
  5
B271
330
1F
100
AcDbEntity
  8
freecads.com
100
AcDbCircle
 10
10099.14868447778
 20
30134.43310224996
 30
0.0
 40
20.61514376928879
100
AcDbArc
 50
346.7938039799419
 51
352.2542042423547
  0
ARC
  5
B272
330
1F
100
AcDbEntity
  8
freecads.com
100
AcDbCircle
 10
10110.42910975742
 20
30131.78602503623
 30
0.0
 40
9.028297249857679
100
AcDbArc
 50
336.6722693290302
 51
346.7937442561473
  0
ARC
  5
B273
330
1F
100
AcDbEntity
  8
freecads.com
100
AcDbCircle
 10
10127.13636639702
 20
30124.58114782628
 30
0.0
 40
9.166281064355569
100
AcDbArc
 50
156.6722245964033
 51
169.8455817152819
  0
ARC
  5
B274
330
1F
100
AcDbEntity
  8
freecads.com
100
AcDbCircle
 10
10277.87076837395
 20
30097.58360888687
 30
0.0
 40
162.2993181534402
100
AcDbArc
 50
169.8456092694104
 51
171.469344492365
  0
ARC
  5
B275
330
1F
100
AcDbEntity
  8
freecads.com
100
AcDbCircle
 10
10280.77663203502
 20
30097.14774729963
 30
0.0
 40
165.2376882696487
100
AcDbArc
 50
171.4693486936997
 51
173.3717540613036
  0
ARC
  5
B276
330
1F
100
AcDbEntity
  8
freecads.com
100
AcDbCircle
 10
10331.94267073826
 20
30091.20199856604
 30
0.0
 40
216.7480313531565
100
AcDbArc
 50
173.3717349319674
 51
174.9239684553398
  0
ARC
  5
B277
330
1F
100
AcDbEntity
  8
freecads.com
100
AcDbCircle
 10
9818.367722658162
 20
30136.821249314
 30
0.0
 40
298.8490432452526
100
AcDbArc
 50
353.8201444060574
 51
354.9238817693715
  0
ARC
  5
B278
330
1F
100
AcDbEntity
  8
freecads.com
100
AcDbCircle
 10
9927.852925136186
 20
30124.96662158449
 30
0.0
 40
188.723924584279
100
AcDbArc
 50
352.2625417702916
 51
353.8200462627024
  0
ARC
  5
B279
330
1F
100
AcDbEntity
  8
freecads.com
100
AcDbCircle
 10
9859.361991392729
 20
30134.27234747918
 30
0.0
 40
257.8441426065444
100
AcDbArc
 50
351.3069002847688
 51
352.2625883475306
  0
ARC
  5
B27A
330
1F
100
AcDbEntity
  8
freecads.com
100
AcDbCircle
 10
10110.74398198732
 20
30095.83648284809
 30
0.0
 40
3.540739394470969
100
AcDbArc
 50
330.7674036384807
 51
351.306860988527
  0
ARC
  5
B27B
330
1F
100
AcDbEntity
  8
freecads.com
100
AcDbCircle
 10
10113.48454925919
 20
30094.30278462577
 30
0.0
 40
0.4002077183437641
100
AcDbArc
 50
231.8638971063236
 51
330.7674224229717
  0
ARC
  5
B27C
330
1F
100
AcDbEntity
  8
freecads.com
100
AcDbCircle
 10
10114.75410376381
 20
30095.91980543301
 30
0.0
 40
2.456059106751938
100
AcDbArc
 50
205.2350043804163
 51
231.8638590426552
  0
ARC
  5
B27D
330
1F
100
AcDbEntity
  8
freecads.com
100
AcDbCircle
 10
10129.95508644759
 20
30103.08417011088
 30
0.0
 40
19.26076070451597
100
AcDbArc
 50
197.6176434480484
 51
205.2349468010925
  0
ARC
  5
B27E
330
1F
100
AcDbEntity
  8
freecads.com
100
AcDbCircle
 10
10292.65894395231
 20
30154.75233411545
 30
0.0
 40
189.9714645824891
100
AcDbArc
 50
196.1995657243758
 51
197.6177327579149
  0
ARC
  5
B27F
330
1F
100
AcDbEntity
  8
freecads.com
100
AcDbCircle
 10
10202.13736138231
 20
30128.4542739376
 30
0.0
 40
95.70723552365421
100
AcDbArc
 50
193.9812267378909
 51
196.1996500318358
  0
ARC
  5
B280
330
1F
100
AcDbEntity
  8
freecads.com
100
AcDbCircle
 10
10157.02506174569
 20
30117.22222551157
 30
0.0
 40
49.21768303765942
100
AcDbArc
 50
190.3322661855655
 51
193.9812406058845
  0
ARC
  5
B281
330
1F
100
AcDbEntity
  8
freecads.com
100
AcDbCircle
 10
10172.38040533538
 20
30120.021629733
 30
0.0
 40
64.82611796076588
100
AcDbArc
 50
188.1004919291489
 51
190.3322065910417
  0
ARC
  5
B282
330
1F
100
AcDbEntity
  8
freecads.com
100
AcDbCircle
 10
10108.61465835412
 20
30110.94586107116
 30
0.0
 40
0.4177329097349755
100
AcDbArc
 50
108.5117756769075
 51
188.1004390181778
  0
ARC
  5
B283
330
1F
100
AcDbEntity
  8
freecads.com
100
AcDbCircle
 10
10107.6725203319
 20
30113.75967859084
 30
0.0
 40
2.549621650633882
100
AcDbArc
 50
288.5118769841245
 51
301.3261151647159
  0
ARC
  5
B284
330
1F
100
AcDbEntity
  8
freecads.com
100
AcDbCircle
 10
10095.00976549063
 20
30134.5649536339
 30
0.0
 40
26.90541828690733
100
AcDbArc
 50
301.3260372461811
 51
303.5999175272491
  0
ARC
  5
B285
330
1F
100
AcDbEntity
  8
freecads.com
100
AcDbCircle
 10
10093.51408592349
 20
30136.81605260208
 30
0.0
 40
29.6081028652477
100
AcDbArc
 50
303.6000104633659
 51
306.035447781177
  0
ARC
  5
B286
330
1F
100
AcDbEntity
  8
freecads.com
100
AcDbCircle
 10
10090.4031917149
 20
30141.09215920353
 30
0.0
 40
34.89608456347168
100
AcDbArc
 50
306.0355500942867
 51
308.1886621409533
  0
ARC
  5
B287
330
1F
100
AcDbEntity
  8
freecads.com
100
AcDbCircle
 10
10106.31213077411
 20
30120.86727566567
 30
0.0
 40
9.163998443037424
100
AcDbArc
 50
308.1886396988965
 51
319.5221229834272
  0
ARC
  5
B288
330
1F
100
AcDbEntity
  8
freecads.com
100
AcDbCircle
 10
10110.00192434144
 20
30117.71835212188
 30
0.0
 40
4.313194792698972
100
AcDbArc
 50
319.5221761695855
 51
339.4340021551587
  0
ARC
  5
B289
330
1F
100
AcDbEntity
  8
freecads.com
100
AcDbCircle
 10
10108.1565038866
 20
30118.41074440686
 30
0.0
 40
6.284231000235166
100
AcDbArc
 50
339.4340537913639
 51
355.1277730263127
  0
ARC
  5
B28A
330
1F
100
AcDbEntity
  8
freecads.com
100
AcDbCircle
 10
10084.09843143484
 20
30120.46148250008
 30
0.0
 40
30.4295489070462
100
AcDbArc
 50
355.1278093566726
 51
359.9999667115823
  0
ARC
  5
B28B
330
1F
100
AcDbEntity
  8
freecads.com
100
AcDbCircle
 10
10076.3164117053
 20
30120.46145356344
 30
0.0
 40
38.21156863658525
100
AcDbArc
 50
0.0000168795385433
 51
5.789096804410466
  0
ARC
  5
B28C
330
1F
100
AcDbEntity
  8
freecads.com
100
AcDbCircle
 10
10008.68146584845
 20
30113.60424986079
 30
0.0
 40
106.1932363395346
100
AcDbArc
 50
5.789150314145105
 51
8.489260876649971
  0
ARC
  5
B28D
330
1F
100
AcDbEntity
  8
freecads.com
100
AcDbCircle
 10
10009.07424474593
 20
30113.66282032706
 30
0.0
 40
105.7961144957613
100
AcDbArc
 50
8.489290589023877
 51
11.17954764012606
  0
ARC
  5
B28E
330
1F
100
AcDbEntity
  8
freecads.com
100
AcDbCircle
 10
10079.60188370122
 20
30127.60154357444
 30
0.0
 40
33.90428003335373
100
AcDbArc
 50
11.1794888054132
 51
17.46211567365695
  0
ARC
  5
B28F
330
1F
100
AcDbEntity
  8
freecads.com
100
AcDbCircle
 10
10113.96592600729
 20
30138.41150659058
 30
0.0
 40
2.119916057939625
100
AcDbArc
 50
173.0924528478481
 51
197.4620500183799
  0
ARC
  5
B290
330
1F
100
AcDbEntity
  8
freecads.com
100
AcDbCircle
 10
10112.54931187302
 20
30138.58312417053
 30
0.0
 40
0.6929443696527434
100
AcDbArc
 50
117.1540937147075
 51
173.0923787680479
  0
ARC
  5
B291
330
1F
100
AcDbEntity
  8
freecads.com
100
AcDbCircle
 10
10113.34803690412
 20
30137.02590779597
 30
0.0
 40
2.443054226928048
100
AcDbArc
 50
93.21922836052342
 51
117.1541162102281
  0
ARC
  5
B292
330
1F
100
AcDbEntity
  8
freecads.com
100
AcDbCircle
 10
10115.35552569661
 20
30101.33516912688
 30
0.0
 40
38.19020569382648
100
AcDbArc
 50
89.99995252343179
 51
93.21930520113973
  0
ARC
  5
B293
330
1F
100
AcDbEntity
  8
freecads.com
100
AcDbCircle
 10
10115.35556937552
 20
30106.60451217325
 30
0.0
 40
32.92086264744163
100
AcDbArc
 50
85.63850526709627
 51
90.00002094350945
  0
ARC
  5
B294
330
1F
100
AcDbEntity
  8
freecads.com
100
AcDbCircle
 10
10117.73484156063
 20
30137.79993918037
 30
0.0
 40
1.634833780117865
100
AcDbArc
 50
46.94329226352349
 51
85.63859692140946
  0
ARC
  5
B295
330
1F
100
AcDbEntity
  8
freecads.com
100
AcDbCircle
 10
10117.68519982048
 20
30137.74681421036
 30
0.0
 40
1.707542547104957
100
AcDbArc
 50
9.469681767607823
 51
46.94320618038285
  0
ARC
  5
B296
330
1F
100
AcDbEntity
  8
freecads.com
100
AcDbCircle
 10
10082.98826744955
 20
30131.95938353519
 30
0.0
 40
36.88383384923533
100
AcDbArc
 50
5.447515509297586
 51
9.469724587063131
  0
ARC
  5
B297
330
1F
100
AcDbEntity
  8
freecads.com
100
AcDbCircle
 10
10077.06589227008
 20
30110.40074689026
 30
0.0
 40
46.03381732257497
100
AcDbArc
 50
344.3469706676983
 51
347.612379932419
  0
ARC
  5
B298
330
1F
100
AcDbEntity
  8
freecads.com
100
AcDbCircle
 10
10121.13162289088
 20
30098.05339911375
 30
0.0
 40
0.270888960655427
100
AcDbArc
 50
224.9999617218046
 51
344.3468758256853
  0
ARC
  5
B299
330
1F
100
AcDbEntity
  8
freecads.com
100
AcDbCircle
 10
10121.60233683364
 20
30098.52411285053
 30
0.0
 40
0.9365788568565884
100
AcDbArc
 50
171.5469574158943
 51
224.9999800184951
  0
ARC
  5
B29A
330
1F
100
AcDbEntity
  8
freecads.com
100
AcDbCircle
 10
10175.82702694532
 20
30090.46558634922
 30
0.0
 40
55.75680201473623
100
AcDbArc
 50
168.6900885345196
 51
171.5469373044556
  0
ARC
  5
B29B
330
1F
100
AcDbEntity
  8
freecads.com
100
AcDbCircle
 10
10140.18933634408
 20
30097.59309294685
 30
0.0
 40
19.41335223781546
100
AcDbArc
 50
165.0733689172617
 51
168.6900366366915
  0
ARC
  5
B29C
330
1F
100
AcDbEntity
  8
freecads.com
100
AcDbCircle
 10
10129.10973993562
 20
30100.54665401063
 30
0.0
 40
7.94683665845303
100
AcDbArc
 50
158.0249560049079
 51
165.0733224293699
  0
ARC
  5
B29D
330
1F
100
AcDbEntity
  8
freecads.com
100
AcDbCircle
 10
10125.40187406344
 20
30102.04285086716
 30
0.0
 40
3.948477700130872
100
AcDbArc
 50
148.506500547722
 51
158.0249575778306
  0
ARC
  5
B29E
330
1F
100
AcDbEntity
  8
freecads.com
100
AcDbCircle
 10
10122.15531816202
 20
30104.03183602051
 30
0.0
 40
0.141091830367687
100
AcDbArc
 50
44.99989097648275
 51
148.5064192946044
  0
ARC
  5
B29F
330
1F
100
AcDbEntity
  8
freecads.com
100
AcDbCircle
 10
10121.90322548128
 20
30103.77974227343
 30
0.0
 40
0.4976054724617699
100
AcDbArc
 50
0.9089247177767353
 51
45.0000559069885
  0
ARC
  5
B2A0
330
1F
100
AcDbEntity
  8
freecads.com
100
AcDbCircle
 10
10110.88686556598
 20
30103.60495427285
 30
0.0
 40
11.51535191302241
100
AcDbArc
 50
356.3964976092238
 51
0.908988353181774
  0
ARC
  5
B2A1
330
1F
100
AcDbEntity
  8
freecads.com
100
AcDbCircle
 10
10109.8252944654
 20
30103.67180150073
 30
0.0
 40
12.57902561929799
100
AcDbArc
 50
351.2721583663509
 51
356.3965263105358
  0
ARC
  5
B2A2
330
1F
100
AcDbEntity
  8
freecads.com
100
AcDbCircle
 10
10102.77332336075
 20
30104.75440392863
 30
0.0
 40
19.71361211591209
100
AcDbArc
 50
347.6124381788385
 51
351.2721814673098
  0
ENDSEC
  0
SECTION
  2
OBJECTS
  0
DICTIONARY
  5
C
330
0
100
AcDbDictionary
281
     1
  3
ACAD_CIP_PREVIOUS_PRODUCT_INFO
350
1A5
  3
ACAD_COLOR
350
73
  3
ACAD_DETAILVIEWSTYLE
350
1AB
  3
ACAD_GROUP
350
D
  3
ACAD_LAYOUT
350
1A
  3
ACAD_MATERIAL
350
72
  3
ACAD_MLEADERSTYLE
350
D7
  3
ACAD_MLINESTYLE
350
17
  3
ACAD_PLOTSETTINGS
350
19
  3
ACAD_PLOTSTYLENAME
350
E
  3
ACAD_SCALELIST
350
B6
  3
ACAD_SECTIONVIEWSTYLE
350
1A8
  3
ACAD_TABLESTYLE
350
86
  3
ACAD_VISUALSTYLE
350
99
  3
ACDB_RECOMPOSE_DATA
350
B2FA
  3
AcDbVariableDictionary
350
66
  3
AEC_PROPERTY_SET_DEFS
350
268B
  0
DICTIONARY
  5
18E
330
2
100
AcDbDictionary
280
     1
281
     1
  3
ACAD_LAYERSTATES
360
18F
  0
DICTIONARY
  5
E6
330
10
100
AcDbDictionary
280
     1
281
     1
  0
DICTIONARY
  5
15D
330
1F
100
AcDbDictionary
280
     1
281
     1
  3
ACAD_SORTENTS
360
28E
  0
XRECORD
  5
1A5
102
{ACAD_REACTORS
330
C
102
}
330
C
100
AcDbXrecord
280
     1
300
ACD
300
2022
300

  0
DICTIONARY
  5
73
102
{ACAD_REACTORS
330
C
102
}
330
C
100
AcDbDictionary
281
     1
  0
DICTIONARY
  5
1AB
102
{ACAD_REACTORS
330
C
102
}
330
C
100
AcDbDictionary
281
     1
  3
Imperial24
350
1AC
  3
Metric50
350
224
  0
DICTIONARY
  5
D
102
{ACAD_REACTORS
330
C
102
}
330
C
100
AcDbDictionary
281
     1
  0
DICTIONARY
  5
1A
102
{ACAD_REACTORS
330
C
102
}
330
C
100
AcDbDictionary
281
     1
  3
Layout1
350
59
  3
Layout2
350
5E
  3
Model
350
22
  0
DICTIONARY
  5
72
102
{ACAD_REACTORS
330
C
102
}
330
C
100
AcDbDictionary
281
     1
  3
ByBlock
350
97
  3
ByLayer
350
96
  3
Global
350
98
  0
DICTIONARY
  5
D7
102
{ACAD_REACTORS
330
C
102
}
330
C
100
AcDbDictionary
281
     1
  3
Standard
350
D8
  0
DICTIONARY
  5
17
102
{ACAD_REACTORS
330
C
102
}
330
C
100
AcDbDictionary
281
     1
  3
Standard
350
18
  0
DICTIONARY
  5
19
102
{ACAD_REACTORS
330
C
102
}
330
C
100
AcDbDictionary
281
     1
  0
ACDBDICTIONARYWDFLT
  5
E
102
{ACAD_REACTORS
330
C
102
}
330
C
100
AcDbDictionary
281
     1
  3
Normal
350
F
100
AcDbDictionaryWithDefault
340
F
  0
DICTIONARY
  5
B6
102
{ACAD_REACTORS
330
C
102
}
330
C
100
AcDbDictionary
281
     1
  3
*A1
350
47D1
  3
*A2
350
8BD6
  3
A0
350
B7
  3
A1
350
124
  3
A2
350
125
  3
A3
350
126
  3
A4
350
127
  3
A5
350
128
  3
A6
350
129
  3
A7
350
12A
  3
A8
350
12B
  3
A9
350
12C
  3
B0
350
12D
  3
B1
350
12E
  3
B2
350
12F
  3
B3
350
130
  3
B4
350
131
  3
B5
350
132
  3
B6
350
133
  3
B7
350
134
  3
B8
350
135
  3
B9
350
136
  3
C0
350
137
  3
C1
350
138
  3
C2
350
139
  3
C3
350
13A
  3
C4
350
13B
  3
C5
350
13C
  3
C6
350
13D
  3
C7
350
13E
  3
C8
350
13F
  3
C9
350
140
  3
D0
350
141
  3
D1
350
142
  3
D2
350
143
  0
DICTIONARY
  5
1A8
102
{ACAD_REACTORS
330
C
102
}
330
C
100
AcDbDictionary
281
     1
  3
Imperial24
350
1AA
  3
Metric50
350
223
  0
DICTIONARY
  5
86
102
{ACAD_REACTORS
330
C
102
}
330
C
100
AcDbDictionary
281
     1
  3
Standard
350
87
  0
DICTIONARY
  5
99
102
{ACAD_REACTORS
330
C
102
}
330
C
100
AcDbDictionary
281
     1
  3
2dWireframe
350
9F
  3
3dWireframe
350
2684
  3
Basic
350
9E
  3
Brighten
350
A5
  3
ColorChange
350
A9
  3
Conceptual
350
A2
  3
Dim
350
A4
  3
EdgeColorOff
350
175
  3
Facepattern
350
A8
  3
Flat
350
9A
  3
FlatWithEdges
350
9B
  3
Gouraud
350
9C
  3
GouraudWithEdges
350
9D
  3
Hidden
350
A1
  3
JitterOff
350
173
  3
Linepattern
350
A7
  3
OverhangOff
350
174
  3
Realistic
350
A3
  3
Shaded
350
182
  3
Shaded with edges
350
181
  3
Shades of Gray
350
17E
  3
Sketchy
350
17F
  3
Thicken
350
A6
  3
Wireframe
350
A0
  3
X-Ray
350
180
  0
XRECORD
  5
B2FA
102
{ACAD_REACTORS
330
C
102
}
330
C
100
AcDbXrecord
280
     1
 90
        1
330
87
  0
DICTIONARY
  5
66
102
{ACAD_REACTORS
330
C
102
}
330
C
100
AcDbDictionary
281
     1
  3
CANNOSCALE
350
F0
  3
CMLEADERSTYLE
350
EF
  3
CTABLESTYLE
350
89
  3
CVIEWDETAILSTYLE
350
1B7
  3
CVIEWSECTIONSTYLE
350
1B8
  3
DIMASSOC
350
67
  3
HIDETEXT
350
6B
  3
LAYEREVAL
350
14D
  3
LAYERNOTIFY
350
14E
  0
DICTIONARY
  5
268B
102
{ACAD_REACTORS
330
C
102
}
330
C
100
AcDbDictionary
281
     1
  0
DICTIONARY
  5
18F
102
{ACAD_REACTORS
330
18E
102
}
330
18E
100
AcDbDictionary
281
     1
  0
SORTENTSTABLE
  5
28E
102
{ACAD_REACTORS
330
15D
102
}
330
15D
100
AcDbSortentsTable
330
1F
  0
ACDBDETAILVIEWSTYLE
  5
1AC
102
{ACAD_REACTORS
330
1AB
102
}
330
1AB
100
AcDbModelDocViewStyle
 70
     0
  3
Imperial24
290
     0
300
Imperial24
 90
        0
100
AcDbDetailViewStyle
 70
     0
 71
     0
 90
        3
 71
     1
340
11
 62
   256
 40
0.24
340
0
 62
   256
 40
0.24
300

 40
0.36
280
     3
 71
     2
340
16
 90
       25
 62
   256
 71
     3
340
11
 62
   256
 40
0.24
 90
        1
 40
0.75
 90
        1
300
%<\AcVar ViewType \f "%tc1">% %<\AcVar ViewDetailId>%\PSCALE %<\AcVar ViewScale \f "%sn">%
 71
     4
340
16
 90
       25
 62
   256
340
16
 90
       25
 62
   256
280
     0
  0
ACDBDETAILVIEWSTYLE
  5
224
102
{ACAD_REACTORS
330
1AB
102
}
330
1AB
100
AcDbModelDocViewStyle
 70
     0
  3
Metric50
290
     0
300
Metric50
 90
        0
100
AcDbDetailViewStyle
 70
     0
 71
     0
 90
        3
 71
     1
340
11
 62
   256
 40
5.0
340
0
 62
   256
 40
5.0
300

 40
0.0
280
     1
 71
     2
340
16
 90
       25
 62
   256
 71
     3
340
11
 62
   256
 40
5.0
 90
        0
 40
15.0
 90
        1
300
%<\AcVar ViewDetailId>% (%<\AcVar ViewScale \f "%sn">%)
 71
     4
340
16
 90
       25
 62
   256
340
16
 90
       25
 62
   256
280
     0
  0
LAYOUT
  5
59
102
{ACAD_REACTORS
330
1A
102
}
330
1A
100
AcDbPlotSettings
  1

  2
None
  4

  6

 40
0.0
 41
0.0
 42
0.0
 43
0.0
 44
0.0
 45
0.0
 46
0.0
 47
0.0
 48
0.0
 49
0.0
140
0.0
141
0.0
142
1.0
143
1.0
 70
   688
 72
     0
 73
     0
 74
     5
  7

 75
    16
147
1.0
 76
     0
 77
     2
 78
   300
148
0.0
149
0.0
100
AcDbLayout
  1
Layout1
 70
     1
 71
     1
 10
0.0
 20
0.0
 11
12.0
 21
9.0
 12
0.0
 22
0.0
 32
0.0
 14
0.0
 24
0.0
 34
0.0
 15
0.0
 25
0.0
 35
0.0
146
0.0
 13
0.0
 23
0.0
 33
0.0
 16
1.0
 26
0.0
 36
0.0
 17
0.0
 27
1.0
 37
0.0
 76
     0
330
58
  0
LAYOUT
  5
5E
102
{ACAD_REACTORS
330
1A
102
}
330
1A
100
AcDbPlotSettings
  1

  2
None
  4

  6

 40
0.0
 41
0.0
 42
0.0
 43
0.0
 44
0.0
 45
0.0
 46
0.0
 47
0.0
 48
0.0
 49
0.0
140
0.0
141
0.0
142
1.0
143
1.0
 70
   688
 72
     0
 73
     0
 74
     5
  7

 75
    16
147
1.0
 76
     0
 77
     2
 78
   300
148
0.0
149
0.0
100
AcDbLayout
  1
Layout2
 70
     1
 71
     2
 10
0.0
 20
0.0
 11
12.0
 21
9.0
 12
0.0
 22
0.0
 32
0.0
 14
0.0
 24
0.0
 34
0.0
 15
0.0
 25
0.0
 35
0.0
146
0.0
 13
0.0
 23
0.0
 33
0.0
 16
1.0
 26
0.0
 36
0.0
 17
0.0
 27
1.0
 37
0.0
 76
     0
330
5D
  0
LAYOUT
  5
22
102
{ACAD_XDICTIONARY
360
194
102
}
102
{ACAD_REACTORS
330
1A
102
}
330
1A
100
AcDbPlotSettings
  1

  2
none_device
  4
ANSI_A_(8.50_x_11.00_Inches)
  6

 40
6.349999904632568
 41
19.04999923706055
 42
6.350006103515625
 43
19.04998779296875
 44
215.8999938964844
 45
279.3999938964844
 46
0.0
 47
0.0
 48
0.0
 49
0.0
140
0.0
141
0.0
142
1.0
143
2.584895464708373
 70
 11952
 72
     0
 73
     1
 74
     0
  7

 75
     0
147
0.3868628397755418
 76
     0
 77
     2
 78
   300
148
0.0
149
0.0
100
AcDbLayout
  1
Model
 70
     1
 71
     0
 10
0.0
 20
0.0
 11
12.0
 21
9.0
 12
0.0
 22
0.0
 32
0.0
 14
0.0
 24
0.0
 34
0.0
 15
0.0
 25
0.0
 35
0.0
146
0.0
 13
0.0
 23
0.0
 33
0.0
 16
1.0
 26
0.0
 36
0.0
 17
0.0
 27
1.0
 37
0.0
 76
     0
330
1F
331
94
  0
MATERIAL
  5
97
102
{ACAD_XDICTIONARY
360
188
102
}
102
{ACAD_REACTORS
330
72
102
}
330
72
100
AcDbMaterial
  1
ByBlock
 94
       63
  0
MATERIAL
  5
96
102
{ACAD_XDICTIONARY
360
186
102
}
102
{ACAD_REACTORS
330
72
102
}
330
72
100
AcDbMaterial
  1
ByLayer
 94
       63
  0
MATERIAL
  5
98
102
{ACAD_XDICTIONARY
360
110
102
}
102
{ACAD_REACTORS
330
72
102
}
330
72
100
AcDbMaterial
  1
Global
 43
0.0208000000566244
 43
0.0
 43
0.0
 43
0.0
 43
0.0
 43
0.0208000000566244
 43
0.0
 43
0.0
 43
0.0
 43
0.0
 43
1.0
 43
0.0
 43
0.0
 43
0.0
 43
0.0
 43
1.0
 49
0.0208000000566244
 49
0.0
 49
0.0
 49
0.0
 49
0.0
 49
0.0208000000566244
 49
0.0
 49
0.0
 49
0.0
 49
0.0
 49
1.0
 49
0.0
 49
0.0
 49
0.0
 49
0.0
 49
1.0
142
0.0208000000566244
142
0.0
142
0.0
142
0.0
142
0.0
142
0.0208000000566244
142
0.0
142
0.0
142
0.0
142
0.0
142
1.0
142
0.0
142
0.0
142
0.0
142
0.0
142
1.0
144
0.0208000000566244
144
0.0
144
0.0
144
0.0
144
0.0
144
0.0208000000566244
144
0.0
144
0.0
144
0.0
144
0.0
144
1.0
144
0.0
144
0.0
144
0.0
144
0.0
144
1.0
 94
       63
1001
ACAD
1070
    -1
1070
     3
1070
     0
1000

1071
        0
1070
     0
  0
MLEADERSTYLE
  5
D8
102
{ACAD_REACTORS
330
D7
102
}
330
D7
100
AcDbMLeaderStyle
179
     2
170
     2
171
     1
172
     0
 90
        2
 40
0.0
 41
0.0
173
     1
 91
-1056964608
340
14
 92
       -2
290
     1
 42
0.09
291
     1
 43
0.36
  3
Standard
 44
0.18
300

342
11
174
     1
178
     1
175
     1
176
     0
 93
-1056964608
 45
0.18
292
     0
297
     0
 46
0.18
 94
-1056964608
 47
1.0
 49
1.0
140
1.0
293
     1
141
0.0
294
     1
177
     0
142
1.0
295
     0
296
     0
143
0.125
271
     0
272
     9
273
     9
298
     0
  0
MLINESTYLE
  5
18
102
{ACAD_REACTORS
330
17
102
}
330
17
100
AcDbMlineStyle
  2
STANDARD
 70
     0
  3

 62
   256
 51
90.0
 52
90.0
 71
     2
 49
0.5
 62
   256
  6
BYLAYER
 49
-0.5
 62
   256
  6
BYLAYER
  0
ACDBPLACEHOLDER
  5
F
102
{ACAD_REACTORS
330
E
102
}
330
E
  0
SCALE
  5
47D1
102
{ACAD_REACTORS
330
B6
102
}
330
B6
100
AcDbScale
 70
     0
300
1:100_1_XREF_XREF_XREF_XREF
140
1.0
141
0.1
290
     0
  0
SCALE
  5
8BD6
102
{ACAD_REACTORS
330
B6
102
}
330
B6
100
AcDbScale
 70
     0
300
1:100_1_XREF_XREF_XREF_XREF_XREF_XREF_XREF_XREF_XREF
140
1.0
141
0.1
290
     0
1001
ACAD
1000
AcRTDxfName
1000
SCALE
1000
AcRTDxfName
1000
SCALE
1000
AcRTDxfName
1000
SCALE
1000
AcRTDxfName
1000
SCALE
  0
SCALE
  5
B7
102
{ACAD_REACTORS
330
B6
102
}
330
B6
100
AcDbScale
 70
     0
300
1:1
140
1.0
141
1.0
290
     1
  0
SCALE
  5
124
102
{ACAD_REACTORS
330
B6
102
}
330
B6
100
AcDbScale
 70
     0
300
1:2
140
1.0
141
2.0
290
     0
  0
SCALE
  5
125
102
{ACAD_REACTORS
330
B6
102
}
330
B6
100
AcDbScale
 70
     0
300
1:4
140
1.0
141
4.0
290
     0
  0
SCALE
  5
126
102
{ACAD_REACTORS
330
B6
102
}
330
B6
100
AcDbScale
 70
     0
300
1:5
140
1.0
141
5.0
290
     0
  0
SCALE
  5
127
102
{ACAD_REACTORS
330
B6
102
}
330
B6
100
AcDbScale
 70
     0
300
1:8
140
1.0
141
8.0
290
     0
  0
SCALE
  5
128
102
{ACAD_REACTORS
330
B6
102
}
330
B6
100
AcDbScale
 70
     0
300
1:10
140
1.0
141
10.0
290
     0
  0
SCALE
  5
129
102
{ACAD_REACTORS
330
B6
102
}
330
B6
100
AcDbScale
 70
     0
300
1:16
140
1.0
141
16.0
290
     0
  0
SCALE
  5
12A
102
{ACAD_REACTORS
330
B6
102
}
330
B6
100
AcDbScale
 70
     0
300
1:20
140
1.0
141
20.0
290
     0
  0
SCALE
  5
12B
102
{ACAD_REACTORS
330
B6
102
}
330
B6
100
AcDbScale
 70
     0
300
1:30
140
1.0
141
30.0
290
     0
  0
SCALE
  5
12C
102
{ACAD_REACTORS
330
B6
102
}
330
B6
100
AcDbScale
 70
     0
300
1:40
140
1.0
141
40.0
290
     0
  0
SCALE
  5
12D
102
{ACAD_REACTORS
330
B6
102
}
330
B6
100
AcDbScale
 70
     0
300
1:50
140
1.0
141
50.0
290
     0
  0
SCALE
  5
12E
102
{ACAD_REACTORS
330
B6
102
}
330
B6
100
AcDbScale
 70
     0
300
1:100
140
1.0
141
100.0
290
     0
  0
SCALE
  5
12F
102
{ACAD_REACTORS
330
B6
102
}
330
B6
100
AcDbScale
 70
     0
300
2:1
140
2.0
141
1.0
290
     0
  0
SCALE
  5
130
102
{ACAD_REACTORS
330
B6
102
}
330
B6
100
AcDbScale
 70
     0
300
4:1
140
4.0
141
1.0
290
     0
  0
SCALE
  5
131
102
{ACAD_REACTORS
330
B6
102
}
330
B6
100
AcDbScale
 70
     0
300
8:1
140
8.0
141
1.0
290
     0
  0
SCALE
  5
132
102
{ACAD_REACTORS
330
B6
102
}
330
B6
100
AcDbScale
 70
     0
300
10:1
140
10.0
141
1.0
290
     0
  0
SCALE
  5
133
102
{ACAD_REACTORS
330
B6
102
}
330
B6
100
AcDbScale
 70
     0
300
100:1
140
100.0
141
1.0
290
     0
  0
SCALE
  5
134
102
{ACAD_REACTORS
330
B6
102
}
330
B6
100
AcDbScale
 70
     0
300
1/128" = 1'-0"
140
0.0078125
141
12.0
290
     0
  0
SCALE
  5
135
102
{ACAD_REACTORS
330
B6
102
}
330
B6
100
AcDbScale
 70
     0
300
1/64" = 1'-0"
140
0.015625
141
12.0
290
     0
  0
SCALE
  5
136
102
{ACAD_REACTORS
330
B6
102
}
330
B6
100
AcDbScale
 70
     0
300
1/32" = 1'-0"
140
0.03125
141
12.0
290
     0
  0
SCALE
  5
137
102
{ACAD_REACTORS
330
B6
102
}
330
B6
100
AcDbScale
 70
     0
300
1/16" = 1'-0"
140
0.0625
141
12.0
290
     0
  0
SCALE
  5
138
102
{ACAD_REACTORS
330
B6
102
}
330
B6
100
AcDbScale
 70
     0
300
3/32" = 1'-0"
140
0.09375
141
12.0
290
     0
  0
SCALE
  5
139
102
{ACAD_REACTORS
330
B6
102
}
330
B6
100
AcDbScale
 70
     0
300
1/8" = 1'-0"
140
0.125
141
12.0
290
     0
  0
SCALE
  5
13A
102
{ACAD_REACTORS
330
B6
102
}
330
B6
100
AcDbScale
 70
     0
300
3/16" = 1'-0"
140
0.1875
141
12.0
290
     0
  0
SCALE
  5
13B
102
{ACAD_REACTORS
330
B6
102
}
330
B6
100
AcDbScale
 70
     0
300
1/4" = 1'-0"
140
0.25
141
12.0
290
     0
  0
SCALE
  5
13C
102
{ACAD_REACTORS
330
B6
102
}
330
B6
100
AcDbScale
 70
     0
300
3/8" = 1'-0"
140
0.375
141
12.0
290
     0
  0
SCALE
  5
13D
102
{ACAD_REACTORS
330
B6
102
}
330
B6
100
AcDbScale
 70
     0
300
1/2" = 1'-0"
140
0.5
141
12.0
290
     0
  0
SCALE
  5
13E
102
{ACAD_REACTORS
330
B6
102
}
330
B6
100
AcDbScale
 70
     0
300
3/4" = 1'-0"
140
0.75
141
12.0
290
     0
  0
SCALE
  5
13F
102
{ACAD_REACTORS
330
B6
102
}
330
B6
100
AcDbScale
 70
     0
300
1" = 1'-0"
140
1.0
141
12.0
290
     0
  0
SCALE
  5
140
102
{ACAD_REACTORS
330
B6
102
}
330
B6
100
AcDbScale
 70
     0
300
1-1/2" = 1'-0"
140
1.5
141
12.0
290
     0
  0
SCALE
  5
141
102
{ACAD_REACTORS
330
B6
102
}
330
B6
100
AcDbScale
 70
     0
300
3" = 1'-0"
140
3.0
141
12.0
290
     0
  0
SCALE
  5
142
102
{ACAD_REACTORS
330
B6
102
}
330
B6
100
AcDbScale
 70
     0
300
6" = 1'-0"
140
6.0
141
12.0
290
     0
  0
SCALE
  5
143
102
{ACAD_REACTORS
330
B6
102
}
330
B6
100
AcDbScale
 70
     0
300
1'-0" = 1'-0"
140
12.0
141
12.0
290
     0
  0
ACDBSECTIONVIEWSTYLE
  5
1AA
102
{ACAD_REACTORS
330
1A8
102
}
330
1A8
100
AcDbModelDocViewStyle
 70
     0
  3
Imperial24
290
     0
300
Imperial24
 90
        0
100
AcDbSectionViewStyle
 70
     0
 71
     0
 90
       78
 71
     1
340
11
 62
   256
 40
0.24
340
0
340
0
 62
   256
 40
0.24
300
I, O, Q, S, X, Z
 40
0.48
 90
        3
 40
0.18
 90
        1
 71
     2
340
16
 90
       25
 62
   256
340
16
 90
       50
 62
   256
 40
0.24
 40
0.0
 40
0.24
 71
     3
340
11
 62
   256
 40
0.24
 90
        1
 40
0.75
 90
        1
300
%<\AcVar ViewType \f "%tc1">% %<\AcVar ViewSectionStartId>%-%<\AcVar ViewSectionEndId>%\PSCALE %<\AcVar ViewScale \f "%sn">%
 71
     4
 62
   256
 62
   257
300
ANSI31
 40
1.0
 90
        0
290
     0
290
     0
 90
        6
 40
0.0
 40
1.570796326794896
 40
0.2617993877991494
 40
1.308996938995747
 40
-0.2617993877991494
 40
1.832595714594046
  0
ACDBSECTIONVIEWSTYLE
  5
223
102
{ACAD_REACTORS
330
1A8
102
}
330
1A8
100
AcDbModelDocViewStyle
 70
     0
  3
Metric50
290
     0
300
Metric50
 90
        0
100
AcDbSectionViewStyle
 70
     0
 71
     0
 90
      102
 71
     1
340
11
 62
   256
 40
5.0
340
0
340
0
 62
   256
 40
5.0
300
I, O, Q, S, X, Z
 40
10.0
 90
        0
 40
2.5
 90
        0
 71
     2
340
16
 90
       25
 62
   256
340
16
 90
       50
 62
   256
 40
5.0
 40
2.5
 40
5.0
 71
     3
340
11
 62
   256
 40
5.0
 90
        0
 40
15.0
 90
        1
300
%<\AcVar ViewSectionStartId>%-%<\AcVar ViewSectionEndId>% (%<\AcVar ViewScale \f "%sn">%)
 71
     4
 62
   256
 62
   257
300
ANSI31
 40
1.0
 90
        0
290
     0
290
     0
 90
        6
 40
0.0
 40
1.570796326794896
 40
0.2617993877991494
 40
1.308996938995747
 40
-0.2617993877991494
 40
1.832595714594046
  0
TABLESTYLE
  5
87
102
{ACAD_XDICTIONARY
360
104
102
}
102
{ACAD_REACTORS
330
86
102
}
330
86
100
AcDbTableStyle
280
     0
  3
Standard
 70
     0
 71
     0
 40
0.06
 41
0.06
280
     0
281
     0
  7
Standard
140
0.18
170
     2
 62
     0
 63
     7
283
     0
 90
      512
 91
        0
  1

274
    -2
284
     1
 64
     0
275
    -2
285
     1
 65
     0
276
    -2
286
     1
 66
     0
277
    -2
287
     1
 67
     0
278
    -2
288
     1
 68
     0
279
    -2
289
     1
 69
     0
  7
Standard
140
0.25
170
     5
 62
     0
 63
     7
283
     0
 90
      512
 91
        0
  1

274
    -2
284
     1
 64
     0
275
    -2
285
     1
 65
     0
276
    -2
286
     1
 66
     0
277
    -2
287
     1
 67
     0
278
    -2
288
     1
 68
     0
279
    -2
289
     1
 69
     0
  7
Standard
140
0.18
170
     5
 62
     0
 63
     7
283
     0
 90
      512
 91
        0
  1

274
    -2
284
     1
 64
     0
275
    -2
285
     1
 65
     0
276
    -2
286
     1
 66
     0
277
    -2
287
     1
 67
     0
278
    -2
288
     1
 68
     0
279
    -2
289
     1
 69
     0
  0
VISUALSTYLE
  5
9F
102
{ACAD_REACTORS
330
99
102
}
330
99
100
AcDbVisualStyle
  2
2dWireframe
 70
     4
177
     3
291
     0
 70
    58
 90
        0
176
     1
 90
        2
176
     1
 90
        1
176
     1
 90
        0
176
     1
 40
0.6
176
     1
 40
30.0
176
     1
 62
     7
420
 16777215
176
     1
 90
        1
176
     1
 90
        4
176
     1
 62
     7
176
     1
 62
   257
176
     1
 90
        1
176
     1
 90
        1
176
     1
 40
1.0
176
     1
 90
        0
176
     1
 62
   257
176
     1
 40
1.0
176
     1
 90
        1
176
     1
 90
        6
176
     1
 90
        2
176
     1
 62
     7
176
     1
 90
        5
176
     1
 90
        0
176
     1
 90
        0
176
     1
290
     0
176
     1
 90
        1
176
     1
 40
0.0
176
     1
 90
        0
176
     1
290
     1
176
     1
290
     1
176
     1
290
     0
176
     1
290
     0
176
     1
290
     0
176
     1
290
     0
176
     1
290
     0
176
     1
290
     0
176
     1
290
     0
176
     1
 90
       50
176
     1
 40
0.0
176
     1
 40
1.0
176
     1
 90
        0
176
     1
 62
    18
420
        0
176
     1
 90
       50
176
     1
 90
        3
176
     1
 62
     5
420
      255
176
     1
290
     0
176
     1
 90
       50
176
     1
 90
       50
176
     1
 90
       50
176
     1
290
     0
176
     1
 90
       50
176
     1
 62
   256
176
     0
 40
1.0
176
     0
 90
        2
176
     1
  1
strokes_ogs.tif
176
     1
290
     0
176
     1
 40
1.0
176
     1
 40
1.0
176
     1
  0
VISUALSTYLE
  5
2684
102
{ACAD_REACTORS
330
99
102
}
330
99
100
AcDbVisualStyle
  2
3dWireframe
 70
     5
177
     3
291
     0
 70
    58
 90
        0
176
     1
 90
        2
176
     1
 90
        0
176
     1
 90
        0
176
     1
 40
0.6
176
     1
 40
30.0
176
     1
 62
     7
176
     1
 90
        1
176
     1
 90
        4
176
     1
 62
     7
176
     1
 62
   257
176
     1
 90
        1
176
     1
 90
        1
176
     1
 40
1.0
176
     1
 90
        0
176
     1
 62
   257
176
     1
 40
1.0
176
     1
 90
        1
176
     1
 90
        6
176
     1
 90
        2
176
     1
 62
     7
176
     1
 90
        5
176
     1
 90
        0
176
     1
 90
        0
176
     1
290
     0
176
     1
 90
        1
176
     1
 40
0.0
176
     1
 90
        0
176
     1
290
     0
176
     1
290
     1
176
     1
290
     1
176
     1
290
     0
176
     1
290
     0
176
     1
290
     0
176
     1
290
     0
176
     1
290
     0
176
     1
290
     0
176
     1
 90
       50
176
     1
 40
0.0
176
     1
 40
1.0
176
     1
 90
        0
176
     1
 62
    18
420
        0
176
     1
 90
       50
176
     1
 90
        3
176
     1
 62
     5
420
      255
176
     1
290
     0
176
     1
 90
       50
176
     1
 90
       50
176
     1
 90
       50
176
     1
290
     0
176
     1
 90
       50
176
     1
 62
   256
176
     0
 40
1.0
176
     0
 90
        2
176
     1
  1
strokes_ogs.tif
176
     1
290
     0
176
     1
 40
1.0
176
     1
 40
1.0
176
     1
1001
ACAD
1000
AcRTDxfName
1000
VISUALSTYLE
  0
VISUALSTYLE
  5
9E
102
{ACAD_REACTORS
330
99
102
}
330
99
100
AcDbVisualStyle
  2
Basic
 70
     7
177
     3
291
     1
 70
    58
 90
        1
176
     1
 90
        0
176
     1
 90
        1
176
     1
 90
        0
176
     1
 40
0.6
176
     1
 40
30.0
176
     1
 62
     7
420
 16777215
176
     1
 90
        0
176
     1
 90
        4
176
     1
 62
     7
176
     1
 62
   257
176
     1
 90
        1
176
     1
 90
        1
176
     1
 40
1.0
176
     1
 90
        8
176
     1
 62
     7
176
     1
 40
1.0
176
     1
 90
        1
176
     1
 90
        6
176
     1
 90
        2
176
     1
 62
     7
176
     1
 90
        5
176
     1
 90
        0
176
     1
 90
        0
176
     1
290
     0
176
     1
 90
        1
176
     1
 40
0.0
176
     1
 90
        0
176
     1
290
     0
176
     1
290
     1
176
     1
290
     1
176
     1
290
     0
176
     1
290
     0
176
     1
290
     0
176
     1
290
     0
176
     1
290
     0
176
     1
290
     0
176
     1
 90
       50
176
     1
 40
0.0
176
     1
 40
1.0
176
     1
 90
        0
176
     1
 62
    18
420
        0
176
     1
 90
       50
176
     1
 90
        3
176
     1
 62
     5
420
      255
176
     1
290
     0
176
     1
 90
       50
176
     1
 90
       50
176
     1
 90
       50
176
     1
290
     0
176
     1
 90
       50
176
     1
 62
   256
176
     0
 40
1.0
176
     0
 90
        2
176
     1
  1
strokes_ogs.tif
176
     1
290
     0
176
     1
 40
1.0
176
     1
 40
1.0
176
     1
  0
VISUALSTYLE
  5
A5
102
{ACAD_REACTORS
330
99
102
}
330
99
100
AcDbVisualStyle
  2
Brighten
 70
    12
177
     3
291
     1
 70
    58
 90
        2
176
     1
 90
        2
176
     1
 90
        1
176
     1
 90
        0
176
     1
 40
0.6
176
     1
 40
30.0
176
     1
 62
     7
420
 16777215
176
     1
 90
        1
176
     1
 90
        4
176
     1
 62
     7
176
     1
 62
   257
176
     1
 90
        1
176
     1
 90
        1
176
     1
 40
1.0
176
     1
 90
        8
176
     1
 62
     7
176
     1
 40
1.0
176
     1
 90
        1
176
     1
 90
        6
176
     1
 90
        2
176
     1
 62
     7
176
     1
 90
        5
176
     1
 90
        0
176
     1
 90
        0
176
     1
290
     0
176
     1
 90
        1
176
     1
 40
50.0
176
     1
 90
        0
176
     1
290
     0
176
     1
290
     1
176
     1
290
     1
176
     1
290
     0
176
     1
290
     0
176
     1
290
     0
176
     1
290
     0
176
     1
290
     0
176
     1
290
     0
176
     1
 90
       50
176
     1
 40
0.0
176
     1
 40
1.0
176
     1
 90
        0
176
     1
 62
    18
420
        0
176
     1
 90
       50
176
     1
 90
        3
176
     1
 62
     5
420
      255
176
     1
290
     0
176
     1
 90
       50
176
     1
 90
       50
176
     1
 90
       50
176
     1
290
     0
176
     1
 90
       50
176
     1
 62
   256
176
     0
 40
1.0
176
     0
 90
        2
176
     1
  1
strokes_ogs.tif
176
     1
290
     0
176
     1
 40
1.0
176
     1
 40
1.0
176
     1
  0
VISUALSTYLE
  5
A9
102
{ACAD_REACTORS
330
99
102
}
330
99
100
AcDbVisualStyle
  2
ColorChange
 70
    16
177
     3
291
     1
 70
    58
 90
        2
176
     1
 90
        2
176
     1
 90
        3
176
     1
 90
        0
176
     1
 40
0.6
176
     1
 40
30.0
176
     1
 62
     8
420
  8421504
176
     1
 90
        1
176
     1
 90
        4
176
     1
 62
     7
176
     1
 62
   257
176
     1
 90
        1
176
     1
 90
        1
176
     1
 40
1.0
176
     1
 90
        8
176
     1
 62
     8
420
  8421504
176
     1
 40
1.0
176
     1
 90
        1
176
     1
 90
        6
176
     1
 90
        2
176
     1
 62
     7
176
     1
 90
        5
176
     1
 90
        0
176
     1
 90
        0
176
     1
290
     0
176
     1
 90
        1
176
     1
 40
0.0
176
     1
 90
        0
176
     1
290
     0
176
     1
290
     1
176
     1
290
     1
176
     1
290
     0
176
     1
290
     0
176
     1
290
     0
176
     1
290
     0
176
     1
290
     0
176
     1
290
     0
176
     1
 90
       50
176
     1
 40
0.0
176
     1
 40
1.0
176
     1
 90
        0
176
     1
 62
    18
420
        0
176
     1
 90
       50
176
     1
 90
        3
176
     1
 62
     5
420
      255
176
     1
290
     0
176
     1
 90
       50
176
     1
 90
       50
176
     1
 90
       50
176
     1
290
     0
176
     1
 90
       50
176
     1
 62
   256
176
     0
 40
1.0
176
     0
 90
        2
176
     1
  1
strokes_ogs.tif
176
     1
290
     0
176
     1
 40
1.0
176
     1
 40
1.0
176
     1
  0
VISUALSTYLE
  5
A2
102
{ACAD_REACTORS
330
99
102
}
330
99
100
AcDbVisualStyle
  2
Conceptual
 70
     9
177
     3
291
     0
 70
    58
 90
        3
176
     1
 90
        2
176
     1
 90
        1
176
     1
 90
        0
176
     1
 40
0.6
176
     1
 40
30.0
176
     1
 62
     7
420
 16777215
176
     1
 90
        2
176
     1
 90
        2
176
     1
 62
     7
176
     1
 62
   257
176
     1
 90
        1
176
     1
 90
        1
176
     1
 40
40.0
176
     1
 90
        8
176
     1
 62
     7
176
     1
 40
1.0
176
     1
 90
        1
176
     1
 90
        6
176
     1
 90
        2
176
     1
 62
     7
176
     1
 90
        3
176
     1
 90
        0
176
     1
 90
        0
176
     1
290
     0
176
     1
 90
        1
176
     1
 40
0.0
176
     1
 90
        0
176
     1
290
     0
176
     1
290
     1
176
     1
290
     1
176
     1
290
     0
176
     1
290
     0
176
     1
290
     0
176
     1
290
     0
176
     1
290
     0
176
     1
290
     0
176
     1
 90
       50
176
     1
 40
0.0
176
     1
 40
1.0
176
     1
 90
        0
176
     1
 62
    18
420
        0
176
     1
 90
       50
176
     1
 90
        3
176
     1
 62
     5
420
      255
176
     1
290
     0
176
     1
 90
       50
176
     1
 90
       50
176
     1
 90
       50
176
     1
290
     0
176
     1
 90
       50
176
     1
 62
   256
176
     0
 40
1.0
176
     0
 90
        2
176
     1
  1
strokes_ogs.tif
176
     1
290
     0
176
     1
 40
1.0
176
     1
 40
1.0
176
     1
  0
VISUALSTYLE
  5
A4
102
{ACAD_REACTORS
330
99
102
}
330
99
100
AcDbVisualStyle
  2
Dim
 70
    11
177
     3
291
     1
 70
    58
 90
        2
176
     1
 90
        2
176
     1
 90
        1
176
     1
 90
        0
176
     1
 40
0.6
176
     1
 40
30.0
176
     1
 62
     7
420
 16777215
176
     1
 90
        1
176
     1
 90
        4
176
     1
 62
     7
176
     1
 62
   257
176
     1
 90
        1
176
     1
 90
        1
176
     1
 40
1.0
176
     1
 90
        8
176
     1
 62
     7
176
     1
 40
1.0
176
     1
 90
        1
176
     1
 90
        6
176
     1
 90
        2
176
     1
 62
     7
176
     1
 90
        5
176
     1
 90
        0
176
     1
 90
        0
176
     1
290
     0
176
     1
 90
        1
176
     1
 40
-50.0
176
     1
 90
        0
176
     1
290
     0
176
     1
290
     1
176
     1
290
     1
176
     1
290
     0
176
     1
290
     0
176
     1
290
     0
176
     1
290
     0
176
     1
290
     0
176
     1
290
     0
176
     1
 90
       50
176
     1
 40
0.0
176
     1
 40
1.0
176
     1
 90
        0
176
     1
 62
    18
420
        0
176
     1
 90
       50
176
     1
 90
        3
176
     1
 62
     5
420
      255
176
     1
290
     0
176
     1
 90
       50
176
     1
 90
       50
176
     1
 90
       50
176
     1
290
     0
176
     1
 90
       50
176
     1
 62
   256
176
     0
 40
1.0
176
     0
 90
        2
176
     1
  1
strokes_ogs.tif
176
     1
290
     0
176
     1
 40
1.0
176
     1
 40
1.0
176
     1
  0
VISUALSTYLE
  5
175
102
{ACAD_REACTORS
330
99
102
}
330
99
100
AcDbVisualStyle
  2
EdgeColorOff
 70
    22
177
     3
291
     1
 70
    58
 90
        2
176
     0
 90
        2
176
     0
 90
        0
176
     0
 90
        0
176
     0
 40
0.6
176
     0
 40
30.0
176
     0
 62
     7
420
 16777215
176
     0
 90
        1
176
     0
 90
        4
176
     0
 62
     7
176
     0
 62
   257
176
     0
 90
        1
176
     0
 90
        1
176
     0
 40
1.0
176
     0
 90
        8
176
     2
 62
     7
176
     0
 40
1.0
176
     0
 90
        1
176
     0
 90
        6
176
     0
 90
        2
176
     0
 62
     7
176
     0
 90
        5
176
     0
 90
        0
176
     0
 90
        0
176
     0
290
     0
176
     0
 90
        1
176
     0
 40
0.0
176
     0
 90
        0
176
     0
290
     0
176
     1
290
     1
176
     1
290
     1
176
     1
290
     0
176
     1
290
     0
176
     1
290
     0
176
     1
290
     0
176
     1
290
     0
176
     1
290
     0
176
     1
 90
       50
176
     1
 40
0.0
176
     1
 40
1.0
176
     1
 90
        0
176
     1
 62
    18
420
        0
176
     1
 90
       50
176
     1
 90
        3
176
     1
 62
     5
420
      255
176
     1
290
     0
176
     1
 90
       50
176
     1
 90
       50
176
     1
 90
       50
176
     1
290
     0
176
     1
 90
       50
176
     1
 62
   256
176
     0
 40
1.0
176
     0
 90
        2
176
     1
  1
strokes_ogs.tif
176
     1
290
     0
176
     1
 40
1.0
176
     1
 40
1.0
176
     1
  0
VISUALSTYLE
  5
A8
102
{ACAD_REACTORS
330
99
102
}
330
99
100
AcDbVisualStyle
  2
Facepattern
 70
    15
177
     3
291
     1
 70
    58
 90
        2
176
     1
 90
        2
176
     1
 90
        1
176
     1
 90
        0
176
     1
 40
0.6
176
     1
 40
30.0
176
     1
 62
     7
420
 16777215
176
     1
 90
        1
176
     1
 90
        4
176
     1
 62
     7
176
     1
 62
   257
176
     1
 90
        1
176
     1
 90
        1
176
     1
 40
1.0
176
     1
 90
        8
176
     1
 62
     7
176
     1
 40
1.0
176
     1
 90
        1
176
     1
 90
        6
176
     1
 90
        2
176
     1
 62
     7
176
     1
 90
        5
176
     1
 90
        0
176
     1
 90
        0
176
     1
290
     0
176
     1
 90
        1
176
     1
 40
0.0
176
     1
 90
        0
176
     1
290
     0
176
     1
290
     1
176
     1
290
     1
176
     1
290
     0
176
     1
290
     0
176
     1
290
     0
176
     1
290
     0
176
     1
290
     0
176
     1
290
     0
176
     1
 90
       50
176
     1
 40
0.0
176
     1
 40
1.0
176
     1
 90
        0
176
     1
 62
    18
420
        0
176
     1
 90
       50
176
     1
 90
        3
176
     1
 62
     5
420
      255
176
     1
290
     0
176
     1
 90
       50
176
     1
 90
       50
176
     1
 90
       50
176
     1
290
     0
176
     1
 90
       50
176
     1
 62
   256
176
     0
 40
1.0
176
     0
 90
        2
176
     1
  1
strokes_ogs.tif
176
     1
290
     0
176
     1
 40
1.0
176
     1
 40
1.0
176
     1
  0
VISUALSTYLE
  5
9A
102
{ACAD_REACTORS
330
99
102
}
330
99
100
AcDbVisualStyle
  2
Flat
 70
     0
177
     3
291
     1
 70
    58
 90
        2
176
     1
 90
        1
176
     1
 90
        1
176
     1
 90
        2
176
     1
 40
0.6
176
     1
 40
30.0
176
     1
 62
     7
420
 16777215
176
     1
 90
        0
176
     1
 90
        0
176
     1
 62
     7
176
     1
 62
   257
176
     1
 90
        1
176
     1
 90
        1
176
     1
 40
1.0
176
     1
 90
        8
176
     1
 62
     7
176
     1
 40
1.0
176
     1
 90
        1
176
     1
 90
        6
176
     1
 90
        2
176
     1
 62
     7
176
     1
 90
        5
176
     1
 90
        0
176
     1
 90
        0
176
     1
290
     0
176
     1
 90
       13
176
     1
 40
0.0
176
     1
 90
        0
176
     1
290
     0
176
     1
290
     1
176
     1
290
     1
176
     1
290
     0
176
     1
290
     0
176
     1
290
     0
176
     1
290
     0
176
     1
290
     0
176
     1
290
     0
176
     1
 90
       50
176
     1
 40
0.0
176
     1
 40
1.0
176
     1
 90
        0
176
     1
 62
    18
420
        0
176
     1
 90
       50
176
     1
 90
        3
176
     1
 62
     5
420
      255
176
     1
290
     0
176
     1
 90
       50
176
     1
 90
       50
176
     1
 90
       50
176
     1
290
     0
176
     1
 90
       50
176
     1
 62
   256
176
     0
 40
1.0
176
     0
 90
        2
176
     1
  1
strokes_ogs.tif
176
     1
290
     0
176
     1
 40
1.0
176
     1
 40
1.0
176
     1
  0
VISUALSTYLE
  5
9B
102
{ACAD_REACTORS
330
99
102
}
330
99
100
AcDbVisualStyle
  2
FlatWithEdges
 70
     1
177
     3
291
     1
 70
    58
 90
        2
176
     1
 90
        1
176
     1
 90
        1
176
     1
 90
        2
176
     1
 40
0.6
176
     1
 40
30.0
176
     1
 62
     7
420
 16777215
176
     1
 90
        1
176
     1
 90
        0
176
     1
 62
     7
176
     1
 62
   257
176
     1
 90
        1
176
     1
 90
        1
176
     1
 40
1.0
176
     1
 90
        0
176
     1
 62
   257
176
     1
 40
1.0
176
     1
 90
        1
176
     1
 90
        6
176
     1
 90
        2
176
     1
 62
     7
176
     1
 90
        5
176
     1
 90
        0
176
     1
 90
        0
176
     1
290
     0
176
     1
 90
       13
176
     1
 40
0.0
176
     1
 90
        0
176
     1
290
     0
176
     1
290
     1
176
     1
290
     1
176
     1
290
     0
176
     1
290
     0
176
     1
290
     0
176
     1
290
     0
176
     1
290
     0
176
     1
290
     0
176
     1
 90
       50
176
     1
 40
0.0
176
     1
 40
1.0
176
     1
 90
        0
176
     1
 62
    18
420
        0
176
     1
 90
       50
176
     1
 90
        3
176
     1
 62
     5
420
      255
176
     1
290
     0
176
     1
 90
       50
176
     1
 90
       50
176
     1
 90
       50
176
     1
290
     0
176
     1
 90
       50
176
     1
 62
   256
176
     0
 40
1.0
176
     0
 90
        2
176
     1
  1
strokes_ogs.tif
176
     1
290
     0
176
     1
 40
1.0
176
     1
 40
1.0
176
     1
  0
VISUALSTYLE
  5
9C
102
{ACAD_REACTORS
330
99
102
}
330
99
100
AcDbVisualStyle
  2
Gouraud
 70
     2
177
     3
291
     1
 70
    58
 90
        2
176
     1
 90
        2
176
     1
 90
        1
176
     1
 90
        2
176
     1
 40
0.6
176
     1
 40
30.0
176
     1
 62
     7
420
 16777215
176
     1
 90
        0
176
     1
 90
        0
176
     1
 62
     7
176
     1
 62
   257
176
     1
 90
        1
176
     1
 90
        1
176
     1
 40
1.0
176
     1
 90
        0
176
     1
 62
     7
176
     1
 40
1.0
176
     1
 90
        1
176
     1
 90
        6
176
     1
 90
        2
176
     1
 62
     7
176
     1
 90
        5
176
     1
 90
        0
176
     1
 90
        0
176
     1
290
     0
176
     1
 90
       13
176
     1
 40
0.0
176
     1
 90
        0
176
     1
290
     0
176
     1
290
     1
176
     1
290
     1
176
     1
290
     0
176
     1
290
     0
176
     1
290
     0
176
     1
290
     0
176
     1
290
     0
176
     1
290
     0
176
     1
 90
       50
176
     1
 40
0.0
176
     1
 40
1.0
176
     1
 90
        0
176
     1
 62
    18
420
        0
176
     1
 90
       50
176
     1
 90
        3
176
     1
 62
     5
420
      255
176
     1
290
     0
176
     1
 90
       50
176
     1
 90
       50
176
     1
 90
       50
176
     1
290
     0
176
     1
 90
       50
176
     1
 62
   256
176
     0
 40
1.0
176
     0
 90
        2
176
     1
  1
strokes_ogs.tif
176
     1
290
     0
176
     1
 40
1.0
176
     1
 40
1.0
176
     1
  0
VISUALSTYLE
  5
9D
102
{ACAD_REACTORS
330
99
102
}
330
99
100
AcDbVisualStyle
  2
GouraudWithEdges
 70
     3
177
     3
291
     1
 70
    58
 90
        2
176
     1
 90
        2
176
     1
 90
        1
176
     1
 90
        2
176
     1
 40
0.6
176
     1
 40
30.0
176
     1
 62
     7
420
 16777215
176
     1
 90
        1
176
     1
 90
        0
176
     1
 62
     7
176
     1
 62
   257
176
     1
 90
        1
176
     1
 90
        1
176
     1
 40
1.0
176
     1
 90
        0
176
     1
 62
   257
176
     1
 40
1.0
176
     1
 90
        1
176
     1
 90
        6
176
     1
 90
        2
176
     1
 62
     7
176
     1
 90
        5
176
     1
 90
        0
176
     1
 90
        0
176
     1
290
     0
176
     1
 90
       13
176
     1
 40
0.0
176
     1
 90
        0
176
     1
290
     0
176
     1
290
     1
176
     1
290
     1
176
     1
290
     0
176
     1
290
     0
176
     1
290
     0
176
     1
290
     0
176
     1
290
     0
176
     1
290
     0
176
     1
 90
       50
176
     1
 40
0.0
176
     1
 40
1.0
176
     1
 90
        0
176
     1
 62
    18
420
        0
176
     1
 90
       50
176
     1
 90
        3
176
     1
 62
     5
420
      255
176
     1
290
     0
176
     1
 90
       50
176
     1
 90
       50
176
     1
 90
       50
176
     1
290
     0
176
     1
 90
       50
176
     1
 62
   256
176
     0
 40
1.0
176
     0
 90
        2
176
     1
  1
strokes_ogs.tif
176
     1
290
     0
176
     1
 40
1.0
176
     1
 40
1.0
176
     1
  0
VISUALSTYLE
  5
A1
102
{ACAD_REACTORS
330
99
102
}
330
99
100
AcDbVisualStyle
  2
Hidden
 70
     6
177
     3
291
     0
 70
    58
 90
        1
176
     1
 90
        2
176
     1
 90
        2
176
     1
 90
        0
176
     1
 40
0.6
176
     1
 40
30.0
176
     1
 62
     7
420
 16777215
176
     1
 90
        2
176
     1
 90
        2
176
     1
 62
     7
176
     1
 62
   257
176
     1
 90
        2
176
     1
 90
        1
176
     1
 40
40.0
176
     1
 90
        0
176
     1
 62
   257
176
     1
 40
1.0
176
     1
 90
        1
176
     1
 90
        6
176
     1
 90
        2
176
     1
 62
     7
176
     1
 90
        3
176
     1
 90
        0
176
     1
 90
        0
176
     1
290
     0
176
     1
 90
        1
176
     1
 40
0.0
176
     1
 90
        0
176
     1
290
     0
176
     1
290
     1
176
     1
290
     1
176
     1
290
     0
176
     1
290
     0
176
     1
290
     0
176
     1
290
     0
176
     1
290
     0
176
     1
290
     0
176
     1
 90
       50
176
     1
 40
0.0
176
     1
 40
1.0
176
     1
 90
        0
176
     1
 62
    18
420
        0
176
     1
 90
       50
176
     1
 90
        3
176
     1
 62
     5
420
      255
176
     1
290
     0
176
     1
 90
       50
176
     1
 90
       50
176
     1
 90
       50
176
     1
290
     0
176
     1
 90
       50
176
     1
 62
   256
176
     0
 40
1.0
176
     0
 90
        2
176
     1
  1
strokes_ogs.tif
176
     1
290
     0
176
     1
 40
1.0
176
     1
 40
1.0
176
     1
  0
VISUALSTYLE
  5
173
102
{ACAD_REACTORS
330
99
102
}
330
99
100
AcDbVisualStyle
  2
JitterOff
 70
    20
177
     3
291
     1
 70
    58
 90
        2
176
     0
 90
        2
176
     0
 90
        0
176
     0
 90
        0
176
     0
 40
0.6
176
     0
 40
30.0
176
     0
 62
     7
420
 16777215
176
     0
 90
        1
176
     0
 90
        4
176
     0
 62
     7
176
     0
 62
   257
176
     0
 90
        1
176
     0
 90
        1
176
     0
 40
1.0
176
     0
 90
       10
176
     2
 62
     7
176
     0
 40
1.0
176
     0
 90
        1
176
     0
 90
        6
176
     0
 90
        2
176
     0
 62
     7
176
     0
 90
        5
176
     0
 90
        0
176
     0
 90
        0
176
     0
290
     0
176
     0
 90
        1
176
     0
 40
0.0
176
     0
 90
        0
176
     0
290
     0
176
     1
290
     1
176
     1
290
     1
176
     1
290
     0
176
     1
290
     0
176
     1
290
     0
176
     1
290
     0
176
     1
290
     0
176
     1
290
     0
176
     1
 90
       50
176
     1
 40
0.0
176
     1
 40
1.0
176
     1
 90
        0
176
     1
 62
    18
420
        0
176
     1
 90
       50
176
     1
 90
        3
176
     1
 62
     5
420
      255
176
     1
290
     0
176
     1
 90
       50
176
     1
 90
       50
176
     1
 90
       50
176
     1
290
     0
176
     1
 90
       50
176
     1
 62
   256
176
     0
 40
1.0
176
     0
 90
        2
176
     1
  1
strokes_ogs.tif
176
     1
290
     0
176
     1
 40
1.0
176
     1
 40
1.0
176
     1
  0
VISUALSTYLE
  5
A7
102
{ACAD_REACTORS
330
99
102
}
330
99
100
AcDbVisualStyle
  2
Linepattern
 70
    14
177
     3
291
     1
 70
    58
 90
        2
176
     1
 90
        2
176
     1
 90
        1
176
     1
 90
        0
176
     1
 40
0.6
176
     1
 40
30.0
176
     1
 62
     7
420
 16777215
176
     1
 90
        1
176
     1
 90
        4
176
     1
 62
     7
176
     1
 62
   257
176
     1
 90
        7
176
     1
 90
        7
176
     1
 40
1.0
176
     1
 90
        8
176
     1
 62
     7
176
     1
 40
1.0
176
     1
 90
        1
176
     1
 90
        6
176
     1
 90
        2
176
     1
 62
     7
176
     1
 90
        5
176
     1
 90
        0
176
     1
 90
        0
176
     1
290
     0
176
     1
 90
        1
176
     1
 40
0.0
176
     1
 90
        0
176
     1
290
     0
176
     1
290
     1
176
     1
290
     1
176
     1
290
     0
176
     1
290
     0
176
     1
290
     0
176
     1
290
     0
176
     1
290
     0
176
     1
290
     0
176
     1
 90
       50
176
     1
 40
0.0
176
     1
 40
1.0
176
     1
 90
        0
176
     1
 62
    18
420
        0
176
     1
 90
       50
176
     1
 90
        3
176
     1
 62
     5
420
      255
176
     1
290
     0
176
     1
 90
       50
176
     1
 90
       50
176
     1
 90
       50
176
     1
290
     0
176
     1
 90
       50
176
     1
 62
   256
176
     0
 40
1.0
176
     0
 90
        2
176
     1
  1
strokes_ogs.tif
176
     1
290
     0
176
     1
 40
1.0
176
     1
 40
1.0
176
     1
  0
VISUALSTYLE
  5
174
102
{ACAD_REACTORS
330
99
102
}
330
99
100
AcDbVisualStyle
  2
OverhangOff
 70
    21
177
     3
291
     1
 70
    58
 90
        2
176
     0
 90
        2
176
     0
 90
        0
176
     0
 90
        0
176
     0
 40
0.6
176
     0
 40
30.0
176
     0
 62
     7
420
 16777215
176
     0
 90
        1
176
     0
 90
        4
176
     0
 62
     7
176
     0
 62
   257
176
     0
 90
        1
176
     0
 90
        1
176
     0
 40
1.0
176
     0
 90
        9
176
     2
 62
     7
176
     0
 40
1.0
176
     0
 90
        1
176
     0
 90
        6
176
     0
 90
        2
176
     0
 62
     7
176
     0
 90
        5
176
     0
 90
        0
176
     0
 90
        0
176
     0
290
     0
176
     0
 90
        1
176
     0
 40
0.0
176
     0
 90
        0
176
     0
290
     0
176
     1
290
     1
176
     1
290
     1
176
     1
290
     0
176
     1
290
     0
176
     1
290
     0
176
     1
290
     0
176
     1
290
     0
176
     1
290
     0
176
     1
 90
       50
176
     1
 40
0.0
176
     1
 40
1.0
176
     1
 90
        0
176
     1
 62
    18
420
        0
176
     1
 90
       50
176
     1
 90
        3
176
     1
 62
     5
420
      255
176
     1
290
     0
176
     1
 90
       50
176
     1
 90
       50
176
     1
 90
       50
176
     1
290
     0
176
     1
 90
       50
176
     1
 62
   256
176
     0
 40
1.0
176
     0
 90
        2
176
     1
  1
strokes_ogs.tif
176
     1
290
     0
176
     1
 40
1.0
176
     1
 40
1.0
176
     1
  0
VISUALSTYLE
  5
A3
102
{ACAD_REACTORS
330
99
102
}
330
99
100
AcDbVisualStyle
  2
Realistic
 70
     8
177
     3
291
     0
 70
    58
 90
        2
176
     1
 90
        2
176
     1
 90
        0
176
     1
 90
        2
176
     1
 40
0.6
176
     1
 40
30.0
176
     1
 62
     7
420
 16777215
176
     1
 90
        0
176
     1
 90
        0
176
     1
 62
     7
176
     1
 62
   257
176
     1
 90
        1
176
     1
 90
        1
176
     1
 40
1.0
176
     1
 90
        8
176
     1
 62
   257
176
     1
 40
1.0
176
     1
 90
        1
176
     1
 90
        6
176
     1
 90
        2
176
     1
 62
     7
176
     1
 90
        3
176
     1
 90
        0
176
     1
 90
        0
176
     1
290
     0
176
     1
 90
       13
176
     1
 40
0.0
176
     1
 90
        0
176
     1
290
     0
176
     1
290
     1
176
     1
290
     1
176
     1
290
     0
176
     1
290
     0
176
     1
290
     0
176
     1
290
     0
176
     1
290
     0
176
     1
290
     0
176
     1
 90
       50
176
     1
 40
0.0
176
     1
 40
1.0
176
     1
 90
        0
176
     1
 62
    18
420
        0
176
     1
 90
       50
176
     1
 90
        3
176
     1
 62
     5
420
      255
176
     1
290
     0
176
     1
 90
       50
176
     1
 90
       50
176
     1
 90
       50
176
     1
290
     0
176
     1
 90
       50
176
     1
 62
   256
176
     0
 40
1.0
176
     0
 90
        2
176
     1
  1
strokes_ogs.tif
176
     1
290
     0
176
     1
 40
1.0
176
     1
 40
1.0
176
     1
  0
VISUALSTYLE
  5
182
102
{ACAD_REACTORS
330
99
102
}
330
99
100
AcDbVisualStyle
  2
Shaded
 70
    27
177
     3
291
     0
 70
    58
 90
        2
176
     1
 90
        2
176
     1
 90
        1
176
     1
 90
        2
176
     1
 40
0.6
176
     1
 40
30.0
176
     1
 62
     7
420
 16777215
176
     1
 90
        0
176
     1
 90
        4
176
     1
 62
     7
176
     1
 62
   257
176
     1
 90
        1
176
     1
 90
        1
176
     1
 40
1.0
176
     1
 90
        8
176
     1
 62
   257
176
     1
 40
1.0
176
     1
 90
        1
176
     1
 90
        6
176
     1
 90
        2
176
     1
 62
     8
420
  7895160
176
     1
 90
        3
176
     1
 90
        0
176
     1
 90
        0
176
     1
290
     0
176
     1
 90
        5
176
     1
 40
0.0
176
     1
 90
        0
176
     1
290
     0
176
     1
290
     1
176
     1
290
     1
176
     1
290
     0
176
     1
290
     0
176
     1
290
     0
176
     1
290
     0
176
     1
290
     0
176
     1
290
     0
176
     1
 90
       50
176
     1
 40
0.0
176
     1
 40
1.0
176
     1
 90
        0
176
     1
 62
    18
420
        0
176
     1
 90
       50
176
     1
 90
        3
176
     1
 62
     5
420
      255
176
     1
290
     0
176
     1
 90
       50
176
     1
 90
       50
176
     1
 90
       50
176
     1
290
     0
176
     1
 90
       50
176
     1
 62
   256
176
     0
 40
1.0
176
     0
 90
        2
176
     1
  1
strokes_ogs.tif
176
     1
290
     0
176
     1
 40
1.0
176
     1
 40
1.0
176
     1
  0
VISUALSTYLE
  5
181
102
{ACAD_REACTORS
330
99
102
}
330
99
100
AcDbVisualStyle
  2
Shaded with edges
 70
    26
177
     3
291
     0
 70
    58
 90
        2
176
     1
 90
        2
176
     1
 90
        1
176
     1
 90
        2
176
     1
 40
0.6
176
     1
 40
30.0
176
     1
 62
     7
420
 16777215
176
     1
 90
        1
176
     1
 90
        2
176
     1
 62
     7
176
     1
 62
   257
176
     1
 90
        2
176
     1
 90
        1
176
     1
 40
1.0
176
     1
 90
        8
176
     1
 62
   257
176
     1
 40
1.0
176
     1
 90
        1
176
     1
 90
        6
176
     1
 90
        2
176
     1
 62
     7
176
     1
 90
        3
176
     1
 90
        0
176
     1
 90
        0
176
     1
290
     0
176
     1
 90
        5
176
     1
 40
0.0
176
     1
 90
        0
176
     1
290
     0
176
     1
290
     1
176
     1
290
     1
176
     1
290
     0
176
     1
290
     0
176
     1
290
     0
176
     1
290
     0
176
     1
290
     0
176
     1
290
     0
176
     1
 90
       50
176
     1
 40
0.0
176
     1
 40
1.0
176
     1
 90
        0
176
     1
 62
    18
420
        0
176
     1
 90
       50
176
     1
 90
        3
176
     1
 62
     5
420
      255
176
     1
290
     0
176
     1
 90
       50
176
     1
 90
       50
176
     1
 90
       50
176
     1
290
     0
176
     1
 90
       50
176
     1
 62
   256
176
     0
 40
1.0
176
     0
 90
        2
176
     1
  1
strokes_ogs.tif
176
     1
290
     0
176
     1
 40
1.0
176
     1
 40
1.0
176
     1
  0
VISUALSTYLE
  5
17E
102
{ACAD_REACTORS
330
99
102
}
330
99
100
AcDbVisualStyle
  2
Shades of Gray
 70
    23
177
     3
291
     0
 70
    58
 90
        2
176
     1
 90
        2
176
     1
 90
        3
176
     1
 90
        0
176
     1
 40
0.6
176
     1
 40
30.0
176
     1
 62
     7
420
 16777215
176
     1
 90
        2
176
     1
 90
        2
176
     1
 62
     7
176
     1
 62
     7
176
     1
 90
        1
176
     1
 90
        1
176
     1
 40
40.0
176
     1
 90
        8
176
     1
 62
     7
176
     1
 40
1.0
176
     1
 90
        1
176
     1
 90
        6
176
     1
 90
        2
176
     1
 62
     7
176
     1
 90
        3
176
     1
 90
        0
176
     1
 90
        0
176
     1
290
     0
176
     1
 90
        1
176
     1
 40
0.0
176
     1
 90
        0
176
     1
290
     0
176
     1
290
     1
176
     1
290
     1
176
     1
290
     0
176
     1
290
     0
176
     1
290
     0
176
     1
290
     0
176
     1
290
     0
176
     1
290
     0
176
     1
 90
       50
176
     1
 40
0.0
176
     1
 40
1.0
176
     1
 90
        0
176
     1
 62
    18
420
        0
176
     1
 90
       50
176
     1
 90
        3
176
     1
 62
     5
420
      255
176
     1
290
     0
176
     1
 90
       50
176
     1
 90
       50
176
     1
 90
       50
176
     1
290
     0
176
     1
 90
       50
176
     1
 62
   256
176
     0
 40
1.0
176
     0
 90
        2
176
     1
  1
strokes_ogs.tif
176
     1
290
     0
176
     1
 40
1.0
176
     1
 40
1.0
176
     1
  0
VISUALSTYLE
  5
17F
102
{ACAD_REACTORS
330
99
102
}
330
99
100
AcDbVisualStyle
  2
Sketchy
 70
    24
177
     3
291
     0
 70
    58
 90
        1
176
     1
 90
        2
176
     1
 90
        2
176
     1
 90
        0
176
     1
 40
0.6
176
     1
 40
30.0
176
     1
 62
     7
420
 16777215
176
     1
 90
        2
176
     1
 90
        2
176
     1
 62
     7
176
     1
 62
     7
176
     1
 90
        1
176
     1
 90
        1
176
     1
 40
40.0
176
     1
 90
       11
176
     1
 62
     7
176
     1
 40
1.0
176
     1
 90
        1
176
     1
 90
        6
176
     1
 90
        2
176
     1
 62
     7
176
     1
 90
        6
176
     1
 90
        0
176
     1
 90
        0
176
     1
290
     0
176
     1
 90
        1
176
     1
 40
0.0
176
     1
 90
        0
176
     1
290
     0
176
     1
290
     1
176
     1
290
     1
176
     1
290
     0
176
     1
290
     0
176
     1
290
     0
176
     1
290
     0
176
     1
290
     0
176
     1
290
     0
176
     1
 90
       50
176
     1
 40
0.0
176
     1
 40
1.0
176
     1
 90
        0
176
     1
 62
    18
420
        0
176
     1
 90
       50
176
     1
 90
        3
176
     1
 62
     5
420
      255
176
     1
290
     0
176
     1
 90
       50
176
     1
 90
       50
176
     1
 90
       50
176
     1
290
     0
176
     1
 90
       50
176
     1
 62
   256
176
     0
 40
1.0
176
     0
 90
        2
176
     1
  1
strokes_ogs.tif
176
     1
290
     0
176
     1
 40
1.0
176
     1
 40
1.0
176
     1
  0
VISUALSTYLE
  5
A6
102
{ACAD_REACTORS
330
99
102
}
330
99
100
AcDbVisualStyle
  2
Thicken
 70
    13
177
     3
291
     1
 70
    58
 90
        2
176
     1
 90
        2
176
     1
 90
        1
176
     1
 90
        0
176
     1
 40
0.6
176
     1
 40
30.0
176
     1
 62
     7
420
 16777215
176
     1
 90
        1
176
     1
 90
        4
176
     1
 62
     7
176
     1
 62
   257
176
     1
 90
        1
176
     1
 90
        1
176
     1
 40
1.0
176
     1
 90
       12
176
     1
 62
     7
176
     1
 40
1.0
176
     1
 90
        1
176
     1
 90
        6
176
     1
 90
        2
176
     1
 62
     7
176
     1
 90
        5
176
     1
 90
        0
176
     1
 90
        0
176
     1
290
     0
176
     1
 90
        1
176
     1
 40
0.0
176
     1
 90
        0
176
     1
290
     0
176
     1
290
     1
176
     1
290
     1
176
     1
290
     0
176
     1
290
     0
176
     1
290
     0
176
     1
290
     0
176
     1
290
     0
176
     1
290
     0
176
     1
 90
       50
176
     1
 40
0.0
176
     1
 40
1.0
176
     1
 90
        0
176
     1
 62
    18
420
        0
176
     1
 90
       50
176
     1
 90
        3
176
     1
 62
     5
420
      255
176
     1
290
     0
176
     1
 90
       50
176
     1
 90
       50
176
     1
 90
       50
176
     1
290
     0
176
     1
 90
       50
176
     1
 62
   256
176
     0
 40
1.0
176
     0
 90
        2
176
     1
  1
strokes_ogs.tif
176
     1
290
     0
176
     1
 40
1.0
176
     1
 40
1.0
176
     1
  0
VISUALSTYLE
  5
A0
102
{ACAD_REACTORS
330
99
102
}
330
99
100
AcDbVisualStyle
  2
Wireframe
 70
     5
177
     3
291
     0
 70
    58
 90
        0
176
     1
 90
        2
176
     1
 90
        0
176
     1
 90
        0
176
     1
 40
0.6
176
     1
 40
30.0
176
     1
 62
     7
420
 16777215
176
     1
 90
        1
176
     1
 90
        4
176
     1
 62
     7
176
     1
 62
   257
176
     1
 90
        1
176
     1
 90
        1
176
     1
 40
1.0
176
     1
 90
        0
176
     1
 62
   257
176
     1
 40
1.0
176
     1
 90
        1
176
     1
 90
        6
176
     1
 90
        2
176
     1
 62
     7
176
     1
 90
        3
176
     1
 90
        0
176
     1
 90
        0
176
     1
290
     0
176
     1
 90
        1
176
     1
 40
0.0
176
     1
 90
        0
176
     1
290
     0
176
     1
290
     1
176
     1
290
     1
176
     1
290
     0
176
     1
290
     0
176
     1
290
     0
176
     1
290
     0
176
     1
290
     0
176
     1
290
     0
176
     1
 90
       50
176
     1
 40
0.0
176
     1
 40
1.0
176
     1
 90
        0
176
     1
 62
    18
420
        0
176
     1
 90
       50
176
     1
 90
        3
176
     1
 62
     5
420
      255
176
     1
290
     0
176
     1
 90
       50
176
     1
 90
       50
176
     1
 90
       50
176
     1
290
     0
176
     1
 90
       50
176
     1
 62
   256
176
     0
 40
1.0
176
     0
 90
        2
176
     1
  1
strokes_ogs.tif
176
     1
290
     0
176
     1
 40
1.0
176
     1
 40
1.0
176
     1
  0
VISUALSTYLE
  5
180
102
{ACAD_REACTORS
330
99
102
}
330
99
100
AcDbVisualStyle
  2
X-Ray
 70
    25
177
     3
291
     0
 70
    58
 90
        2
176
     1
 90
        2
176
     1
 90
        1
176
     1
 90
        1
176
     1
 40
0.5
176
     1
 40
30.0
176
     1
 62
     7
420
 16777215
176
     1
 90
        1
176
     1
 90
        0
176
     1
 62
     7
176
     1
 62
   257
176
     1
 90
        1
176
     1
 90
        1
176
     1
 40
1.0
176
     1
 90
        8
176
     1
 62
     7
176
     1
 40
1.0
176
     1
 90
        1
176
     1
 90
        6
176
     1
 90
        2
176
     1
 62
     7
176
     1
 90
        3
176
     1
 90
        0
176
     1
 90
        0
176
     1
290
     0
176
     1
 90
       13
176
     1
 40
0.0
176
     1
 90
        0
176
     1
290
     0
176
     1
290
     1
176
     1
290
     1
176
     1
290
     0
176
     1
290
     0
176
     1
290
     0
176
     1
290
     0
176
     1
290
     0
176
     1
290
     0
176
     1
 90
       50
176
     1
 40
0.0
176
     1
 40
1.0
176
     1
 90
        0
176
     1
 62
    18
420
        0
176
     1
 90
       50
176
     1
 90
        3
176
     1
 62
     5
420
      255
176
     1
290
     0
176
     1
 90
       50
176
     1
 90
       50
176
     1
 90
       50
176
     1
290
     0
176
     1
 90
       50
176
     1
 62
   256
176
     0
 40
1.0
176
     0
 90
        2
176
     1
  1
strokes_ogs.tif
176
     1
290
     0
176
     1
 40
1.0
176
     1
 40
1.0
176
     1
  0
DICTIONARYVAR
  5
F0
102
{ACAD_REACTORS
330
66
102
}
330
66
100
DictionaryVariables
280
     0
  1
1:1
  0
DICTIONARYVAR
  5
EF
102
{ACAD_REACTORS
330
66
102
}
330
66
100
DictionaryVariables
280
     0
  1
STANDARD
  0
DICTIONARYVAR
  5
89
102
{ACAD_REACTORS
330
66
102
}
330
66
100
DictionaryVariables
280
     0
  1
STANDARD
  0
DICTIONARYVAR
  5
1B7
102
{ACAD_REACTORS
330
66
102
}
330
66
100
DictionaryVariables
280
     0
  1
Imperial24
  0
DICTIONARYVAR
  5
1B8
102
{ACAD_REACTORS
330
66
102
}
330
66
100
DictionaryVariables
280
     0
  1
Imperial24
  0
DICTIONARYVAR
  5
67
102
{ACAD_REACTORS
330
66
102
}
330
66
100
DictionaryVariables
280
     0
  1
2
  0
DICTIONARYVAR
  5
6B
102
{ACAD_REACTORS
330
66
102
}
330
66
100
DictionaryVariables
280
     0
  1
1
  0
DICTIONARYVAR
  5
14D
102
{ACAD_REACTORS
330
66
102
}
330
66
100
DictionaryVariables
280
     0
  1
0
  0
DICTIONARYVAR
  5
14E
102
{ACAD_REACTORS
330
66
102
}
330
66
100
DictionaryVariables
280
     0
  1
0
  0
DICTIONARY
  5
194
330
22
100
AcDbDictionary
280
     1
281
     1
  0
DICTIONARY
  5
188
330
97
100
AcDbDictionary
280
     1
281
     1
  3
FBXASSET
360
189
  0
DICTIONARY
  5
186
330
96
100
AcDbDictionary
280
     1
281
     1
  3
FBXASSET
360
187
  0
DICTIONARY
  5
110
330
98
100
AcDbDictionary
280
     1
281
     1
  3
BUMPTILE
360
112
  3
DIFFUSETILE
360
111
  3
FBXASSET
360
18A
  3
OPACITYTILE
360
113
  3
REFLECTIONTILE
360
114
  0
DICTIONARY
  5
104
330
87
100
AcDbDictionary
280
     1
281
     1
  3
ACAD_ROUNDTRIP_2008_TABLESTYLE_CELLSTYLEMAP
360
B2F9
  0
XRECORD
  5
189
102
{ACAD_REACTORS
330
188
102
}
330
188
100
AcDbXrecord
280
     1
 70
     1
 90
429727718
  1
508B35C9-AEE7-456F-BE74-D52651303AC6
310
504B03040A0000080000B670623B3DEE336E79000000790000001B0000006175746F6465736B2D64657369676E2D7061636B6167652E786D6C3C3F786D6C2076657273696F6E3D22312E302220656E636F64696E673D227574662D3822203F3E3C666F726D6174733E3C666F726D61743E687474703A2F2F736368656D612E
310
6175746F6465736B2E636F6D2F64657369676E2D7061636B6167652F323030393C2F666F726D61743E3C2F666F726D6174733E504B0304140006080800B670623BD486FD9CA0000000F4000000130000005B436F6E74656E745F54797065735D2E786D6C7D8EC10E82300C865F65E91D8A1E8C310C0EEA1BF002731658846E
310
D98AC1B77784ABF1D8FE5FBFBF75BBCE937A534CCEB38643598122B6FEE978D0B0485F9C41B54DDD7D022595594E1A469170414C76A4D9A4D207E29CF43ECE46F218070CC6BECC4078ACAA135ACF422C856C0E68EA1BF5669944DDD7BCDE7B1F8E415D77AECB980613C2E4AC91FC167A2B244592486606FC29C8FD7F045B9A
310
EF7053A7E60B504B0304140006080800B670623B28ED286BEB0000007C01000008000000636F72652E786D6C8D90416EC3201045AF82665B6183218D6D61A254764FD00B204C5C94182C03558F5F9C3852BBEB6A467FFE9B197D71FA9E6FE8CBACC17AD7012D0820E3B41FAD9B3A48F1826B40272956EFE32F1B20A766D3C1
310
268314D3EAD3B24BDABB685CCCAAF3A3D94515828980F42D371D04FD696655A814B3235C8B45E9AB9A4C419F5D8653B2237A1CB163DE672FD6AC209BF3C08E0D1B30EB19C3FC9D72FCC6EB231EFA33EDE96BDD341517E5064B11EDFCBCAF57A3A2194156843498524CAA0FCA5B7268F9E185D42D21A2DCEC7FA0B48CFF8492
310
759155FBBB0F2C80A4F991FB408A72CB22977B50B96EB9C91F504B0304140006080800B670623B55019EA25F0000007C00000007000000636E782E786D6C4DCB3B0E80201045D1AD90E915ED2CF8AC45050C11660C8261F98AB1B07AC9C97D42D718D865D3E909258CFD00CCE24AC6E326A164D74DC0B4128928FF32603847
310
2BA13128B1252AC747C6BAB984FC68F0B87FE8960A5C09FE86CFB69FBA01504B0304140006080800B670623B7BC41AC871010000D40300000C0000006662782F636F72652E786D6CC553ED6E8320147D15C2DF4501B56B6D90A64BBB27D80B50A5CE54C120983EFEAE1F4DD7A56BBA5FF3879273EEE59E7310BE393735EA95
310
ED2AA333CC428A91D2B9292A5D66D8BB63B0C26823B835C67D2BC348CB46657880B1E0A535BE9DA1DC68A7B403549B42CDA0EC3AE530CA6B5864B8CB3F552343E91D5474A7B095F949962A6421D0502778E72C0840D390E18DC5F170E664C205F7BE2A66B62A605A75AC94C522DDEEE3651AEF837817C741F2CE92E02D592D
310
83FD6ECB76EC7595A651C2C9D02CB8AB9A8BBADC2AE954814544691A3016D0E883256BBA58278B17BA5A53CAC9507ED3E4DBE2C9265F691747B3DCA9ADC382819091F8E1162272A8933DE82182932144F88C09DF060D8140C84E1EEA8B8F1340BDCA9DB1093085F157AA97B557309586747CD0EF0B4EA64E983A6E0EAEEFCE
310
889E9EF17847386AA94B30211D2C0FDE0D3AF9A4610EAD5536E8DD1969631B593F67E381C33F5157F17725E5A636F6BF1491F980C8FC7B90E13E8A2F504B0304140006080800B670623B70102A487D0000009D0000000B0000006662782F636E782E786D6C4DCCD10A83201886E15B91FFDC95A5C30335ACCDFB886521330D
310
A76397BF1A1DECE883878F57749FD5A3B74D2F17830472A901D9F088930B8B849267CC01754AA418F3DF0D5018572BE160506249B16C274D761E8BCFBB7A179E27F65CB39A0F14D396184C9921B81F34C3ACA1B4B99ABB6E6F062A25AA5F69DF23ACBE504B0304140006080800B670623B3610CA3329010000120200003100
310
00006662782F42384135303843342D343331462D343546312D424341352D3532343432364645413344462F636F72652E786D6C8D515B6EC32010BC0AE22B55850D0E446E848992B43E412FE000495162B07854397EA176A4F62F3F2C9A9D991D58BEBB8F37F0AD7D30CE76905418026DA553C65E3A98E219B510EC04F7CEC5
310
3F3408EC30EA0E16180A7EF12E4D0B249D8DDAC68C5AA7F4020E21E80881BCE54B0783FCD2E3500D296646B856D320AFC34557A4CAEDCC133C449F0380794839A138B47B86DB2345744D7A44594FD0E1B867883594369BFE63BF7EEF793D0B054FC9A8456E548E63CE46FB674D8A58F068C6477CE9F510B582A2C1F80D1182
310
70F349E816B32D65AFB8DD62CCEB42FF274A937A52948C8DEB66893BCB021484D7734370E5D2E9F608A3EF93F3119479ABA0E50B14B8C298119A43CCC4FCFCECB8A18B6388CEE7EF5D5D4F994BD86CBBA182D76543B9FCAE2FD7B24DF103504B0304140006080800B670623B1B8617914E0100003303000030000000666278
310
2F42384135303843342D343331462D343546312D424341352D3532343432364645413344462F636E782E786D6CD593C16EC32010447F0571AD6CE3D489D20813A9877E410FBD62D82434182CC055F3F75D1292E692438FBD206B7698593D61BEFD1E2DF982108D773D6D6B460938E5B571FB9ECE6957AD29D90A1EBC4F7736
310
4A9C1CA1A759A682EF839FA72269D8C9D92654AD71C72206887E0E0A22CAF926B15E498B01E0AA19451807D01A34B919F16B070157417138917400F2F6FA41FCF0092A45DEE414C19BDC21783E4BD39D891265658C3D8DEA00A3ACE59CBC8678ACB54CB26EEB6BD7839D7E9348BE70AD9C8321B9BCA7F9A4A26C542347DEE0
310
50F09802D22BA6749A800A394DD62899107273365E3C82CFC6A55557BC06C10774B7ABE7AEC3B0F34CF06446280E154026D0542C187BA9DAB6628BF7B6DBB0E5A65B3EB1F58631DE64BBE083F7B65CC218087E22CABB042E51D1F2268F1FE12B3EA24D40D63E9CFE00120194D60B9D5BC67FE6D39CDF37E20AF817881F504B
310
0304140006080800B670623BBFEF2E3B690500003C100000340000006662782F42384135303843342D343331462D343546312D424341352D3532343432364645413344462F6F626A656374732E786D6CAD575D739B3814FD2B0CFB0C98D84E931D4227B6938EA793B6534F3BFB90198F0099B001899144EAECAFDF231018B0
310
D37A3FFC609090EEE7B94757C1FB7D915B2F54C88CB31BDB7727B64559CC938CA53776A576CE956DBD0F03C1B9EA2DB32D460A7A63EB693B0C52C1ABD24C257447AA5C8D66EF177F5832A68CDA569C13296F6C193FD182B8A4523CA1F2D94D88226EBADBBBBEDB2C1C8A4D05299F46424B222853B014F30C52ACC6287F389C
310
D85E1878FA7B18E87FB36AFAF62AAFF667A83F635211161F291B8999FAB3D5DDC5FCDA99CF6653677679E13B8BFBC5CAF1DF4D27CBCBE5F2FAF6EE1A8AA51290642C117467871F101B91C581D77CEA2C36869F3229E68CD1B8F61F1ED6361B89092D294B90C78C4A68EB793D190E7D1D9BDEE7A91E1B95FDE9F3BCEAEFE809
310
6A6D6F9F7D4B79F4275C90E7A04248AA51D5C4C738DAE06F72885AC4796EBE65D22A88A22223B995679120E2D50EB1542F098381188D4EA111AE3DB043FF20AF6F2B4AE3D7D83D65E5AECA730D4D3BAC91BD05FEA992B565D95F549CD6069B90AB2A63EACA38A45E4B6A87D781574F86817E4C2FCCC72690D62E2729520E37
310
9BAF234797BAF6D62B3BFC781FED37BA1E4F2B2F052FA9501A3E80569BB8F6A9A364D4FA67654E6F803383981F82F21591FF84F23D9882BC896C3FDBCF8C162508933B2E0AE4C69DD43F6BD2BE38DDDBF10BF86CB4FA784D37F3AF16075E67EC9030DECA1FC0A55373F5DFF3378C591FA9BDF485C10B0A8C8BA909E5262639
310
A8E72163488806A595734C81CB77D1DE0ED7604A303B76913CEC0272F412782FF88EFF4636D8AA56DF7B322474C4B767303F625997056C7B032C473C592B36CEBD15F3F9FF5233B7ABCDC74D257624A60F8658567497B14CE1EC3C80B76FD02011038F9EE9EB0F2E12387A9C844D3F09855125116D1D731DF8B43D2CF4E0A0
310
79A020C6BE946BCE0B7EA1E1219331CD73C228AF5A2DDD31A4B1DA918CE91350854D40A71723140BFA92E94E62B0626016CEFA5864A50E5977E8753CEDBEE1CBB7F52780D20E17AF0BA0F5F9B02A3AD07DCC732EB6D1EBB661421BE0C39E21BABF0FE16D22EA6929407C8DE596724C88B749B6DB5512BC7B228ADFD7CB7EA6
310
3A22397E690BA8D5D8D4E40CEC8CDA23C2C0B7D5898640101CEC9C6D331CE328CB93CAFBBAC70A642DF70DF95155945B52F08AA973C23469FD69ADEF84F7BB18F983A8F8C90E37F5D35980B2139A1C523540813E824EF83448CF7C72B598CE97D7CEEDDDDD3B6736BFBC771677EF66CE6A7E7139F7A793E9EDF2B2B3A8B624
310
0CDA13AA5F8388264EC4A0129909F3B7F5A16CEDF08128E97D680ACA4B9BE7B7B58BB638F0B00700EF36AE8B32A705658A68F83EE897FC2B41573190D1CCAF0B92D233A47CFEB019D9809933F67DD1A5467F8CF69AD9A5AE859342D45355448C64F968A371DC2D596ADC6E43D93D1B466F877A64E2893E54F23C4B40388995
310
525E5005DA3983ED45412510D3EFCA13737B3863F74BD30F2A12E5B4B5E489A025CE25500DB855B11ACE5BBFA185D35DD48D8DC3CE7DC69F2944DB42AA6F6CF09BCA622ADD08C7A36E7C6AE18000BAB08E040135C2D21C9D75B3A91B77BB746C403F38018DFE6EC939DD92F16B40BC05294B9CDA035AAD6D330AE27FE4786B
310
8E45145EA34A75BE1C263A676A35A8ACC6297337400BF16C54EF515F3F77CB77EB3583889C754FFA29081AA98E2222ADEF05DA3E63D2EDEA8B8756C05A7FB6CABC4A91CBF325398202CC952E70A008A830324BA200D5E5EF8F5F04C75DB4B0EE3340E071C98B823333B83577596BF3849B69F2085AA0FAFA212F26BEFF5877
310
FDE622B28D88A42E49E43326DA82D31E8CB006401E1DA726059ECEC168F97A6599036306A135688F9AD2E61A6EA178F4CD51974A9F2CCB9F36FE5EBD14601068D9C3BF01504B0304140006080000B670623B000000000000000000000000350000006662782F42384135303843342D343331462D343546312D424341352D35
310
32343432364645413344462F76657274696365732E62696E504B0304140006080800B670623BF270F1330600000004000000360000006662782F42384135303843342D343331462D343546312D424341352D3532343432364645413344462F747269616E676C65732E62696E636660600000504B0304140006080000B67062
310
3B000000000000000000000000370000006662782F42384135303843342D343331462D343546312D424341352D3532343432364645413344462F617474726962757465732E62696E504B0304140006080800B670623B08DA0BD19000000041010000360000006662782F42384135303843342D343331462D343546312D4243
310
41352D3532343432364645413344462F6469726563746F72792E786D6C858F410AC3201045AF22B36F53E9A60B35CBEEBAE80D244E44489C6234F4F835464A48035D0DF398FF9F8AF63D0E6CC63039F212F8F9020C7D47C6792B21C5FE7403D62A1188E2E60C98D7234A5830286103A55745067B9D86B8A3CF9C7F90C11DE6
310
07FB144396D7B6A82D282E9A152AD114D5EF2CB866EEE831B8EEA07A7BB5A8D7D61A2BAAEB7FD5F70921FF497D00504B0304140006080800B670623B3B4606F3FE000000A00100003B0000006662782F42384135303843342D343331462D343546312D424341352D3532343432364645413344462F7265736F75726365732F
310
636F72652E786D6C8D504B6E833010BD0A9A6D65B08134808CA354A427E8052C332156828DFCA97AFC9A40A576D7CDCCE87D344F8F9FBEE647F689CE6B6B7A6039850C8DB2A336530F315C4903D94970676DF82583CCC8197B5861107C72362E3BA4AC096842428D1D7107A5F71820538F74F4E0D50D6799CB1892C2DFF345
310
AABB9C306779A2934E701F5C0A906D4FD609C2A1B7D129F4BCD858C163D4E3AED163FAA9AF1A1D88F67CA98E6D35906AA82A52BFB39ABCD5CD915C86331BD86BD3B665CD8BD52C78D0F34F46E550061C419494B6843142CB0F5677F4D0D58717DA7494F26295FF31C565FCA7296A13AA728FBBD93C0896823C09C18BB5AFB4
310
9E65A6BD762BBE01504B010214000A0000080000B670623B3DEE336E79000000790000001B00000000000000000000000000000000006175746F6465736B2D64657369676E2D7061636B6167652E786D6C504B01021400140006080800B670623BD486FD9CA0000000F40000001300000000000000000000000000B2000000
310
5B436F6E74656E745F54797065735D2E786D6C504B01021400140006080800B670623B28ED286BEB0000007C010000080000000000000000000000000083010000636F72652E786D6C504B01021400140006080800B670623B55019EA25F0000007C000000070000000000000000000000000094020000636E782E786D6C50
310
4B01021400140006080800B670623B7BC41AC871010000D40300000C00000000000000000000000000180300006662782F636F72652E786D6C504B01021400140006080800B670623B70102A487D0000009D0000000B00000000000000000000000000B30400006662782F636E782E786D6C504B01021400140006080800B6
310
70623B3610CA3329010000120200003100000000000000000000000000590500006662782F42384135303843342D343331462D343546312D424341352D3532343432364645413344462F636F72652E786D6C504B01021400140006080800B670623B1B8617914E010000330300003000000000000000000000000000D10600
310
006662782F42384135303843342D343331462D343546312D424341352D3532343432364645413344462F636E782E786D6C504B01021400140006080800B670623BBFEF2E3B690500003C10000034000000000000000000000000006D0800006662782F42384135303843342D343331462D343546312D424341352D35323434
310
32364645413344462F6F626A656374732E786D6C504B01021400140006080000B670623B0000000000000000000000003500000000000000000000000000280E00006662782F42384135303843342D343331462D343546312D424341352D3532343432364645413344462F76657274696365732E62696E504B010214001400
310
06080800B670623BF270F133060000000400000036000000000000000000000000007B0E00006662782F42384135303843342D343331462D343546312D424341352D3532343432364645413344462F747269616E676C65732E62696E504B01021400140006080000B670623B00000000000000000000000037000000000000
310
00000000000000D50E00006662782F42384135303843342D343331462D343546312D424341352D3532343432364645413344462F617474726962757465732E62696E504B01021400140006080800B670623B08DA0BD1900000004101000036000000000000000000000000002A0F00006662782F42384135303843342D3433
310
31462D343546312D424341352D3532343432364645413344462F6469726563746F72792E786D6C504B01021400140006080800B670623B3B4606F3FE000000A00100003B000000000000000000000000000E1000006662782F42384135303843342D343331462D343546312D424341352D3532343432364645413344462F72
310
65736F75726365732F636F72652E786D6C504B0506000000000E000E0080040000651100000000
  0
XRECORD
  5
187
102
{ACAD_REACTORS
330
186
102
}
330
186
100
AcDbXrecord
280
     1
 70
     1
 90
429727718
  1
887D55A9-D0DD-414E-B741-A7DCD4DA2B4C
310
504B03040A0000080000B670623B3DEE336E79000000790000001B0000006175746F6465736B2D64657369676E2D7061636B6167652E786D6C3C3F786D6C2076657273696F6E3D22312E302220656E636F64696E673D227574662D3822203F3E3C666F726D6174733E3C666F726D61743E687474703A2F2F736368656D612E
310
6175746F6465736B2E636F6D2F64657369676E2D7061636B6167652F323030393C2F666F726D61743E3C2F666F726D6174733E504B0304140006080800B670623BD486FD9CA0000000F4000000130000005B436F6E74656E745F54797065735D2E786D6C7D8EC10E82300C865F65E91D8A1E8C310C0EEA1BF002731658846E
310
D98AC1B77784ABF1D8FE5FBFBF75BBCE937A534CCEB38643598122B6FEE978D0B0485F9C41B54DDD7D022595594E1A469170414C76A4D9A4D207E29CF43ECE46F218070CC6BECC4078ACAA135ACF422C856C0E68EA1BF5669944DDD7BCDE7B1F8E415D77AECB980613C2E4AC91FC167A2B244592486606FC29C8FD7F045B9A
310
EF7053A7E60B504B0304140006080800B670623BBC1638F5EC0000007C01000008000000636F72652E786D6C8D90416EC3201045AF82665B61836BE2D8C24471DB9CA01740401C94182C03558F5F9C3852BBEB6A467FFE9B197D7EF89E6EE8CB2CC17AD7032D0820E394D7D68D3DA478C67B4007C117EFE32F1B202727D3C3
310
2A83E0E3E2D3BC49CABB685CCCAAF3DA6CA20CC14440EA969B1E82BA98491632C5EC08D76296EA2A4753D06797E194AC468F2356E77DF66CCD02825543D50CACC62D39ED70FDC68EB8FD68F6F8787A6784342D1DDA1D2F5758F068A7E77DB518198D065111D2624A31A93E69DD11D6D5EC85EC3B4278B9DAFF4069D6FF8492
310
75F1B5DADE7D600104CD8FDC0782976B16B9DC83CA75CD4DFC00504B0304140006080800B670623B55019EA25F0000007C00000007000000636E782E786D6C4DCB3B0E80201045D1AD90E915ED2CF8AC45050C11660C8261F98AB1B07AC9C97D42D718D865D3E909258CFD00CCE24AC6E326A164D74DC0B4128928FF326038
310
472BA13128B1252AC747C6BAB984FC68F0B87FE8960A5C09FE86CFB69FBA01504B0304140006080800B670623B3586FFB671010000D40300000C0000006662782F636F72652E786D6CC553ED6E8320147D15C2DF4541A76D6D90A6DDD627D80B50A4CE54C120983EFEAE1F4DD7A55BBA5FF3879273EEE59E7310B6393735EA
310
95ED2AA3731C851423A5A5292A5DE6D8BB63B0C268C39935C67D29C3488B46E578803167A535BE9D2169B453DA01AA4DA16650749D7218C91A1639EEE4876A4428BC838AEE14B6429E44A9C228041AEA38EB9C0501681A32BC313F1ECE8C4C3867DE57C5CC56054CAB8E95B298A7F12E5EEED224C8E87E11242FE936C8DE96
310
AB60BB7F4D295D66D12E5B30323473E6AAE6A24E5A259C2A308F29CD82280A68FC1E256B9AAE93F489AED694323294DF34F9B678B0C957DA3DC7B3DCA9ADC33C022123F1CD2D44E450277AD04338234388F01913BE0D1A0281909D38D4171F27807A259DB1093085F157AA17B557309586747CD0CF0B46A64E983A6E0EAEEF
310
CE881F9EF1FB8E70D44297604238581EBC1B74B249C31C5AAB6CD0BB33D2C636A27ECCC62F0EFF445DC5DF95244D6DEC7F2922F30191F9F720C37DE49F504B0304140006080800B670623B4220A0FF7D0000009D0000000B0000006662782F636E782E786D6C4DCCD10A83201886E15B91FFDCE542CB0335D0EC3E6259C84A
310
C3E9D8E5AF46073BFAE0E1E315DD675BD1DBA5978F41C2FD4600B9F088930F8B849267CC01754AA418F3DF0D50183727E164506249B1EC174D6E1ECB9A0F5D7D785E68DB8151CD286E5A5363CA6B8A39E90D36D40E96B086F55A43A544F52B1D7B86D517504B0304140006080800B670623B2FA3FEDE290100001202000031
310
0000006662782F45374635344235342D363743322D343832342D383044432D4334454645303536354442422F636F72652E786D6C8D515B6EC32010BC0AE22B55850D2E386E848994D7097A0117488A1283C5A3CAF10BB523B57FF961D1ECCCECC0F2ED7DBC816FED8371B687A4C210682B9D32F6D2C314CFA883602BB8772E
310
FEA141608751F7B0C050F08B77695A20E96CD43666D43AA5177008414708E42D5F7A18E4971E876A483133C2B59A06791D2EBA22556E679EE021FA1C00CC43CA09C5717D6274C7286AD7FB06D1AEA1A8C3873DDAD3E3E98859CB0EBB1DAF67A1E02919B5C88DCA71CCD968FFAC49110B1ECDF8882FBD1EA256503418BF2342
310
106E3E08DD60B6A1EC15771B8C795DE8FF4469524F8A92B1F1AD59E2CEB20005E1F5DC105CB9F4797B84D1F7C9F908CABC55D0F2050A5C61CC1AD2F27A26E6E767C7962E8E213A9FBF7775FDCC5CC266DB960A5E970DE5F2BBBE5CCB36C50F504B0304140006080800B670623B1B8617914E01000033030000300000006662
310
782F45374635344235342D363743322D343832342D383044432D4334454645303536354442422F636E782E786D6CD593C16EC32010447F0571AD6CE3D489D20813A9877E410FBD62D82434182CC055F3F75D1292E692438FBD206B7698593D61BEFD1E2DF982108D773D6D6B460938E5B571FB9ECE6957AD29D90A1EBC4F77
310
364A9C1CA1A759A682EF839FA72269D8C9D92654AD71C72206887E0E0A22CAF926B15E498B01E0AA19451807D01A34B919F16B070157417138917400F2F6FA41FCF0092A45DEE414C19BDC21783E4BD39D891265658C3D8DEA00A3ACE59CBC8678ACB54CB26EEB6BD7839D7E9348BE70AD9C8321B9BCA7F9A4A26C542347DE
310
E050F09802D22BA6749A800A394DD62899107273365E3C82CFC6A55557BC06C10774B7ABE7AEC3B0F34CF06446280E154026D0542C187BA9DAB6628BF7B6DBB0E5A65B3EB1F58631DE64BBE083F7B65CC218087E22CABB042E51D1F2268F1FE12B3EA24D40D63E9CFE00120194D60B9D5BC67FE6D39CDF37E20AF817881F50
310
4B0304140006080800B670623B29652116630500003C100000340000006662782F45374635344235342D363743322D343832342D383044432D4334454645303536354442422F6F626A656374732E786D6CAD575D739B3814FD2B0CFB0C989834C90EA1639B24E3E9A6EDD4D3CE3E64C623834CD8006224913AFDF57B040203
310
B65BEF871F0C12D2FD3CF7E8CA7FBFCB33E3957291B2E2D674ED8969D02262715A24B76625B7D6B569BC0F7CCE98EC2D338D82E4F4D654D366E0279C55A59E8AE99654991CCDDECFFF3444440B6A1A514684B83545F44C7362934AB2988A173B2692D8C97667BB76B3702836E1A47C1E092D09A78584A5982F20C5688C7287
310
C389E904BEA3BE07BEFAD7ABA6A75739B53F43FD69212429A20365233153D70BEF2E2E6FAC4BCF9B5ADEBB0BD79ADFCF43CBBD9A4E16EF168B9BD9DD0D140BC921495BC2E9D60C1E101B9E46BED37CEA2CD6861F3329624541A3DA7F7858DBAC25C6B4A4458C3CA654405BCFEBC970E8AAD8F43E4FD558ABEC4F9FE7557F47
310
4F506B7BFBEC5BCA367FC105710E2AB8A00A554D7CB4A30DFE26FBA86D18CBF4B75418399194A72433B274C3097F33032C554B027F2046A1932B842B0FCCC0DDCBEBDB8AD2F835768F59B9ADB24C41D30C6A64AF817F2A456D59FA83F2E3DA60137255A585BCD60EC9B7929AC18DEFD49381AF1ED30BFDB109A4B1CD488294
310
C3CDE6EBC8D185AABD6568061FEE37BB95AAC7E3CA4BCE4ACAA5820FA0D526AE7DAA2869B5EE5999531BE0CC20E6FBA07C41E43FA27CF7A6206F3CDD793B4F6B919C1462CB788EDCD893FA674CDA17AB7B3B7C019F8D561FAEE966FED562DFE98C1D12C6A9FC015C2A35D7FF3D7FC398F591DA4B5FE0BFA2C0189FEA50AE22
310
92817A1ED3020951A03432862970F976B33383259812CC8E5D240BBA801CBCF8CE2BBEE3BF910DB6AAD5F79E05123AE2DB33981FB1ACCB02B69D00CB014FD68AB573A7627EF9BFD4CC2C5C7D58557C4B22FAA88925A4DBB44825CECE3D78FB060D1231F0E885BE7D673C86A3874958F593906B5502D1563157814FDAC3420D
310
F69A070A22EC4B98E23CFF171A1E5311D12C23056555ABA53B8614563B92D17D02AAB009E8F46284624E5F53D5490C560CCCC2591FF1B45421EB0EBD8EA7ED13BE7C5D7E0428CD60FEF60779EB13E6664FF711CB185F6FDED60D139A001FF60CD1FD6D086F1D51474901E26B2CB794A343BC8ED3EDB612E0DD2351FCB65CF4
310
33D511C9E14B5B40ADC6A6263DB0336A8F700DDF56271A024E70B0B3629DE21847591E55DED73D56206AB927E46FAABC5C939C55853C274C93D69FD6FA4E78BF8B11DF898C9ECD60553FAD39283BA6F18984AA23E8884F83F45C5F5F859797B31B2B9C84A1E5B9DE9D35BFF25C6B76152E422F9C5DCC3D847F5801ED09D5AF
310
41441327A25FF15487F9EB725FB666F048A4701E9A827292E6F97569A32DF61DEC01C0BB8DCBBCCC684E0B49147C1FD54BF685A0AB18C868E6973949E819523E3DAC463660E68C7D9F55A9D1EFA3BD7A76A16AE1A810F95CE59B82A4D968A376DC2E8B44BBDD86B27B368CDE0ED548C7137DA860591A83706223A12CA712B4
310
7306DBF39C0A20A6DF95C7FAF670C6EED7A61F946493D1D6926782963813403548A78AE470DEF80D2D9CEAA26E4D1C76F60BFE74219A06527D6B82DF641A51616F703CAAC6A7160E08A00BEB4810A0274592A1B36E3675E36E978A0DE80727A0D6DF2D39A75BD27E0D8837276589537B40ABB56D5A41F48F1C6FCD3188C4EB
310
A6929D2FFB89CE995A4D00AE813BDD032DC48B56BD437DFDDC2DD7AED70C2272D63DE9A72068A45A92F0A4BE17A8A06B9366E16707AD80B1FC649459952097E74BB23805982B55E0401150A165964402AA8BDF9F3E7386BB686EDCA780C0D382E5392BF460A6EFB2C6EA1937D3F809B440D5F5435C4C5CF7A9EEFAF54564BD
310
2182DA24162F98680B4E7930C21A0079709CEAEB99A372305ABE0C0D7D6078105A83F6A0296DAEE1068A47DD1C55A9F4C9B2FC69E3EFD44B81028E963DF81B504B0304140006080000B670623B000000000000000000000000350000006662782F45374635344235342D363743322D343832342D383044432D433445464530
310
3536354442422F76657274696365732E62696E504B0304140006080800B670623BF270F1330600000004000000360000006662782F45374635344235342D363743322D343832342D383044432D4334454645303536354442422F747269616E676C65732E62696E636660600000504B0304140006080000B670623B00000000
310
0000000000000000370000006662782F45374635344235342D363743322D343832342D383044432D4334454645303536354442422F617474726962757465732E62696E504B0304140006080800B670623B08DA0BD19000000041010000360000006662782F45374635344235342D363743322D343832342D383044432D4334
310
454645303536354442422F6469726563746F72792E786D6C858F410AC3201045AF22B36F53E9A60B35CBEEBAE80D244E44489C6234F4F835464A48035D0DF398FF9F8AF63D0E6CC63039F212F8F9020C7D47C6792B21C5FE7403D62A1188E2E60C98D7234A5830286103A55745067B9D86B8A3CF9C7F90C11DE607FB144396
310
D7B6A82D282E9A152AD114D5EF2CB866EEE831B8EEA07A7BB5A8D7D61A2BAAEB7FD5F70921FF497D00504B0304140006080800B670623B6378F24DFF000000A00100003B0000006662782F45374635344235342D363743322D343832342D383044432D4334454645303536354442422F7265736F75726365732F636F72652E
310
786D6C8D504B6E833010BD0A9A6D65B0094E42641C85B639412F6099496225D8C89FAAC7AF09546A77DDCC8CDE47F3F4C4F16B7C149FE88371B603565228D06A37187BED20C50BD9437194C23B177FC9A0B06AC40E6618A4B87A97A615D2CE46B431A3D60DB8822A048C50E8473E3A08FA86A32A558A5911EEE5A4F45D5DB1
310
6465A6B34E8A107D0E502C4FE609D26370C96B0CA25A58295232C3AA3143FE692E063D485EF7F5AEE71BD2D2F39634AFFC44DAF7DD9E9CCE6F9CD25DCBFA762BAAD92C4534E34F46ED51451C40D694B6843142EB0FD61C283F34FC85EE0F948A6A96FF31A569F8A729191B37F51A77B105902C0779125254735F793DCBCC7B
310
EE567E03504B010214000A0000080000B670623B3DEE336E79000000790000001B00000000000000000000000000000000006175746F6465736B2D64657369676E2D7061636B6167652E786D6C504B01021400140006080800B670623BD486FD9CA0000000F40000001300000000000000000000000000B20000005B436F6E
310
74656E745F54797065735D2E786D6C504B01021400140006080800B670623BBC1638F5EC0000007C010000080000000000000000000000000083010000636F72652E786D6C504B01021400140006080800B670623B55019EA25F0000007C000000070000000000000000000000000095020000636E782E786D6C504B010214
310
00140006080800B670623B3586FFB671010000D40300000C00000000000000000000000000190300006662782F636F72652E786D6C504B01021400140006080800B670623B4220A0FF7D0000009D0000000B00000000000000000000000000B40400006662782F636E782E786D6C504B01021400140006080800B670623B2F
310
A3FEDE290100001202000031000000000000000000000000005A0500006662782F45374635344235342D363743322D343832342D383044432D4334454645303536354442422F636F72652E786D6C504B01021400140006080800B670623B1B8617914E010000330300003000000000000000000000000000D2060000666278
310
2F45374635344235342D363743322D343832342D383044432D4334454645303536354442422F636E782E786D6C504B01021400140006080800B670623B29652116630500003C10000034000000000000000000000000006E0800006662782F45374635344235342D363743322D343832342D383044432D4334454645303536
310
354442422F6F626A656374732E786D6C504B01021400140006080000B670623B0000000000000000000000003500000000000000000000000000230E00006662782F45374635344235342D363743322D343832342D383044432D4334454645303536354442422F76657274696365732E62696E504B01021400140006080800
310
B670623BF270F13306000000040000003600000000000000000000000000760E00006662782F45374635344235342D363743322D343832342D383044432D4334454645303536354442422F747269616E676C65732E62696E504B01021400140006080000B670623B0000000000000000000000003700000000000000000000
310
000000D00E00006662782F45374635344235342D363743322D343832342D383044432D4334454645303536354442422F617474726962757465732E62696E504B01021400140006080800B670623B08DA0BD190000000410100003600000000000000000000000000250F00006662782F45374635344235342D363743322D34
310
3832342D383044432D4334454645303536354442422F6469726563746F72792E786D6C504B01021400140006080800B670623B6378F24DFF000000A00100003B00000000000000000000000000091000006662782F45374635344235342D363743322D343832342D383044432D4334454645303536354442422F7265736F75
310
726365732F636F72652E786D6C504B0506000000000E000E0080040000611100000000
  0
XRECORD
  5
112
102
{ACAD_REACTORS
330
110
102
}
330
110
100
AcDbXrecord
280
     1
270
     1
271
     1
  0
XRECORD
  5
111
102
{ACAD_REACTORS
330
110
102
}
330
110
100
AcDbXrecord
280
     1
270
     1
271
     1
  0
XRECORD
  5
18A
102
{ACAD_REACTORS
330
110
102
}
330
110
100
AcDbXrecord
280
     1
 70
     0
 90
1778669749
  1
9BF507EE-FAF7-4A99-A33D-4EE51894BC40
310
504B03040A0000080000B670623B3DEE336E79000000790000001B0000006175746F6465736B2D64657369676E2D7061636B6167652E786D6C3C3F786D6C2076657273696F6E3D22312E302220656E636F64696E673D227574662D3822203F3E3C666F726D6174733E3C666F726D61743E687474703A2F2F736368656D612E
310
6175746F6465736B2E636F6D2F64657369676E2D7061636B6167652F323030393C2F666F726D61743E3C2F666F726D6174733E504B0304140006080800B670623BD486FD9CA0000000F4000000130000005B436F6E74656E745F54797065735D2E786D6C7D8EC10E82300C865F65E91D8A1E8C310C0EEA1BF002731658846E
310
D98AC1B77784ABF1D8FE5FBFBF75BBCE937A534CCEB38643598122B6FEE978D0B0485F9C41B54DDD7D022595594E1A469170414C76A4D9A4D207E29CF43ECE46F218070CC6BECC4078ACAA135ACF422C856C0E68EA1BF5669944DDD7BCDE7B1F8E415D77AECB980613C2E4AC91FC167A2B244592486606FC29C8FD7F045B9A
310
EF7053A7E60B504B0304140006080800B670623BCA089DFFEC0000007C01000008000000636F72652E786D6C8D90416E83301045AF62CDB632D8402020E32882F604BD80653BC44AB011B6AB1EBF262152BBEB6A467FFE9B197D76FA9EEFE84BAFDE38DB03CD08206DA553C64E3DC470C1474027CE56E7C22F1B202B66DDC3
310
260367D3EAE2B24BD2D9A06D48AA754AEFA2F05E0740F29E9A1EBCBCEA59642286E4F0B76C11F226269DD15797E0188D42CF2346A57DE662F40ABCAEC77628C6120F654571D50C04B7F5B9C1E3997CD4F550BE3745C3F20DE62C98F9755FAE5A04AD801784B498524C8A4F5A75E4D055873772EC0861F966FF03C545FD138A
310
C686B2D8DF7D621E384D8F3C069CE55B16A93C824A75CB8DFF00504B0304140006080800B670623B55019EA25F0000007C00000007000000636E782E786D6C4DCB3B0E80201045D1AD90E915ED2CF8AC45050C11660C8261F98AB1B07AC9C97D42D718D865D3E909258CFD00CCE24AC6E326A164D74DC0B4128928FF326038
310
472BA13128B1252AC747C6BAB984FC68F0B87FE8960A5C09FE86CFB69FBA01504B0304140006080800B670623B68FC0B7272010000D40300000C0000006662782F636F72652E786D6CC5535B6E833010BC8AE5DF0A6C1E8124328E22D29EA01770C0A128602363A31CBFCB234A53A555FA553EC09AD9F5CE8C31DB5DDA060D
310
D2F4B556190E7C8A9154852E6B5565D8D993B7C668C799D1DA7E29C3488956667884316795D1AE5BA0422B2B950554E9522EA0E87B69312A1A5864B82F3E642B7CE12C54F467BF13C55954D20F7CA0A18EB3DE1A1080E621E31BF3D3F1C2C88C73E65C5D2E6C5DC2B4FA544B8379921C36797888BC3C8A032F4E73EA6D927D
310
EA1DF6F42D49F2E8350D5346C666CE6CDD5ED515460A2B4BCC434A375E1078347C0FE22D5D6DE3D50B5D6F2965642CBF6B725DF96493AB958DC245EEDCD6631E809089F8E61622B2A81703E8219C913144F84C09DF070D8140C8561C9BAB8F3340832CAC363130A576376A108D933095FA747AD0CF0B46E64E983A6D0EAE1F
310
CE089F9EF1FB8E70D44255604258581E9D1D75B259C3125A278D37D80B52DAB4A279CEC62F0EFF44DDC43F9454E8469BFF5244960322CBEF41C6FBC83F01504B0304140006080800B670623B0F71DDB67E0000009D0000000B0000006662782F636E782E786D6C4DCCD10A83201886E15B91FFDCA54DB73F502386BB8F5816
310
32D3703976F9ABD1C18E3E78F87855FB990379BBFCF2296AE02706C4C5471A7C9C349475A408A4352AA7B4FEDD80C47E761A7606A3A69CCA72D0E0C6BE8475D3E0E3F3409428EA6B27A84079A782899AA2EC1A7AE3ECCC2FD858CB2D544655BFD2B67BD87C01504B0304140006080800B670623BE134B4FB28010000120200
310
00310000006662782F38353834323741342D343835462D343034322D383541392D4331303331363839454531452F636F72652E786D6C8D515B6EC32010BC0AE22B55850D0EA424C24451959EA0172086A42831583CAA1CBF503B52FB971F16CDCECC0EACD8DFC71BF836215AEF7A481A0C817183D7D65D7A98D3197108F652
310
04EFD31F1A044E8DA6871586525C82CFD3020DDE25E352419DD76601558C264130DCCAA58771F832A36A544E8511AFCDA486ABBA988634A55D7852C4144A00300FA927949C71DABD1D28A29C7D208A6987383B6CD13BC16BB2E1DBE3911C453B0BA5C8D9EA456E758963CFD684674DAA588A64C747FC2118958C86B2C3788B
310
0841B8FB247487D98EB257CC77188BB6D2FF89F2A49F1465EBD2BA5BE2CEB2082511EDDC9042FB7CBA3DC298FBE4430275DE2A9AE1054ADC60CC08E3A29D89E5F9C5714317C7987C28DFBBBA9E0A97B0D97643A568EB864AF95D5FA9759BF207504B0304140006080800B670623B1B8617914E010000330300003000000066
310
62782F38353834323741342D343835462D343034322D383541392D4331303331363839454531452F636E782E786D6CD593C16EC32010447F0571AD6CE3D489D20813A9877E410FBD62D82434182CC055F3F75D1292E692438FBD206B7698593D61BEFD1E2DF982108D773D6D6B460938E5B571FB9ECE6957AD29D90A1EBC4F
310
77364A9C1CA1A759A682EF839FA72269D8C9D92654AD71C72206887E0E0A22CAF926B15E498B01E0AA19451807D01A34B919F16B070157417138917400F2F6FA41FCF0092A45DEE414C19BDC21783E4BD39D891265658C3D8DEA00A3ACE59CBC8678ACB54CB26EEB6BD7839D7E9348BE70AD9C8321B9BCA7F9A4A26C542347
310
DEE050F09802D22BA6749A800A394DD62899107273365E3C82CFC6A55557BC06C10774B7ABE7AEC3B0F34CF06446280E154026D0542C187BA9DAB6628BF7B6DBB0E5A65B3EB1F58631DE64BBE083F7B65CC218087E22CABB042E51D1F2268F1FE12B3EA24D40D63E9CFE00120194D60B9D5BC67FE6D39CDF37E20AF817881F
310
504B0304140006080800B670623B5933D422630500003B100000340000006662782F38353834323741342D343835462D343034322D383541392D4331303331363839454531452F6F626A656374732E786D6CAD575B6FA33814FE2B887D0642934E9B156594264D158D3A534DD4D13E548A0C38942D60649B4EBABF7E3F8321
310
40924EF6928780CDF1B97EE762EFF32E4B8D37CA45C2F21BD3B547A641F39045491EDF98A5DC5AD7A6F1D9F73863B243661A39C9E88DA9B64DDF8B392B0BBD15D12D295339D85DDEFE618890E6D434C2940871638AF08566C426A5641115AF764424B1E3EDCE76ED9AB0CF36E6A47819302D08A7B984A6D8CFC1C5A89572FB
310
CB91E9F89EA3BEFB9EFAD754E3D3544E654F5F7E920B49F2F040D880CDD89D2CEE2E2EA7D6E56432B6269F2E5CEB7679BBB0DCABF168FE693E9FCEEEA6102C240727AD09A75BD3BF876F78127A4EFDA9D5582B7E4CA590E5390D2BFB6161A5B3E618D182E611E2985001691DAB47FDA5AB7CD3F93C566B2DB2BB7D9E55DD13
310
1D468DEECDB3AB290BFE8409E21C54704115AA6AFF68436BFC8DF65E0B184BF5B74418199194272435D224E084BF9B3E481589EFF5D828747285706581E9BB7B7E5D5D911ABFC6EE312DB7659A2A689A7E85EC0DF04FA5A8344BFEA2FCB834E8845895492EAFB541F2BDA0A63FF59C6AD3F7D4637CA13FD68E34B629891172
310
98597F1D183A57B9B75A98FE9765B05BAB7C3C2EBCE0ACA05C2AF8005A4DE09AA7F29216EB9E15397500C6F47CBE77CA7778FE2BD277AF0AE2C693DD6437D1522427B9D8329E2136F6A8FA19A3E6C56ADF0E5F50CF06D48734EDCEBF22F69C56D97EC138153F804B85E6FABFC7AFEFB32E523BE1F3BD372418E363EDCA7548
310
52949E8724474014288D94610BB57C1BEC4C7F854A89CA8E5324F55B871CBC78CE1BBEE3BFE68D6A5589EF3C730474506FCFA8FCF0659516D0ED04580EEA6425581B77CAE797FF4BCECC16EB2FEB926F49481F746159D06D922712BD730FDEAE42BD40F42C7AA5EF3F198F60E86110D6DD20645A9480B795CF95E3E3A659A8
310
C55E724F408873315335CFFB8584874484344D494E59D94869DB90C26A5B64F49C802CAC1D3ABE18A098D3B7444D123D8A9E5AE8F5214F0AE5B2B6E9B575DA3E61CBD3EA2B4009FA940524DD1305FB6A1FB294F14DF0BEA90BA109ECE1481FDC3FFAE8D60E75141700BE82725371B4873751B2DD960265F788137FACE6DD40
310
B575E4F0A5C99F46629D92131467A41EE11ABD8D4CCC039CA0AFB37C93A08B232B8F0AEFCA1E0A1015DF13FC83322B362463652ECF71D3A8B1A7D1BE65DE1D62C44F22C317D35F574FEB16153BA2D13E543D10A80E74C4A65E78A6B7CBCBD1D5DD9DB59C2DAFACC96C3AB566E3F1C29ADCDD5DBAD7D3C9ED7C822ED74F80A6
310
41755310DE4443F44A9E68373FADF6596BFA0F440AE7BECE2727AE9F4F2B1B53B1E7E00CF0DD1E5C65454A339A4BA2D0FBA05ED2EF0443458F47BDBFCA484CCFE0F2ED7E3DD0013B679C7B5499467F0ECEEADDB9CA85A34CE44B99053949D2C1416DB85DE4B136BB7165FBAC0B7AB3542BED4F8CA182A549847A1319316519
310
95A83A67147B9E5101C47487F2485F1ECE38FD568F839204296D3479219888530154036E6528FBFBC66F98E0D4107563A2D7D9AFF8D389681A08F58D89F22693900A3B407754734FC51C10C010D6D640809EE4718AC1BA3ED4AEDB53CA37283F68805A7E4B72CEB0A4EDEAD5DD8C14059A76AFAA56BA6901E13F32BC51C720
310
12AF41295B5BF61BAD3195181FB506E6B40F4C10AF5AF40EF9F5B159AE5DD1F43C72D635E94310D45C2D49785C5D0B94D3B54AB3C5A38349C0587D338AB48C11CBF339599C02CCA54A70A008A8D03C0B2201D5F9EFCF8F9CE12A9A19CB0410789EB32C63B95ECCF455D658BFE0621A3DA32C5075FB101723D77DAE867E7D0F
310
D90444509B44E2151B4DC2290B065803200FBAA9BE9D392A0603F2D5C2D00D6302A615680F66D2FA166E2079D4C551A54AB758161FCEFD4E450A14704CECFEDF504B0304140006080000B670623B000000000000000000000000350000006662782F38353834323741342D343835462D343034322D383541392D4331303331
310
363839454531452F76657274696365732E62696E504B0304140006080800B670623BF270F1330600000004000000360000006662782F38353834323741342D343835462D343034322D383541392D4331303331363839454531452F747269616E676C65732E62696E636660600000504B0304140006080000B670623B000000
310
000000000000000000370000006662782F38353834323741342D343835462D343034322D383541392D4331303331363839454531452F617474726962757465732E62696E504B0304140006080800B670623B08DA0BD19000000041010000360000006662782F38353834323741342D343835462D343034322D383541392D43
310
31303331363839454531452F6469726563746F72792E786D6C858F410AC3201045AF22B36F53E9A60B35CBEEBAE80D244E44489C6234F4F835464A48035D0DF398FF9F8AF63D0E6CC63039F212F8F9020C7D47C6792B21C5FE7403D62A1188E2E60C98D7234A5830286103A55745067B9D86B8A3CF9C7F90C11DE607FB1443
310
96D7B6A82D282E9A152AD114D5EF2CB866EEE831B8EEA07A7BB5A8D7D61A2BAAEB7FD5F70921FF497D00504B0304140006080800B670623BD9A3B367FE000000A00100003B0000006662782F38353834323741342D343835462D343034322D383541392D4331303331363839454531452F7265736F75726365732F636F7265
310
2E786D6C8D504B6E833010BD0A9A6D65B01D0201194711694FD00B586642AD043BF2A7EAF16B122AB5BB6E6646EFA3797AE2F8B5DC8A4FF4C1383B002B291468B59B8C9D0748F1420E501CA5F0CEC55F3228AC5A708015062966EFD27D83B4B3116DCCA875136EA00A012314FA968F0182FEC045952AC5AC08D7F2AEF455CD
310
58B232D3592745883E07289E4FD609D26370C96B0CA27AB252A464A64D63A6FCD35C0C7A904D73EE467EE664DCD58CD4ED4849D79C5A723ED1B7A61977AF2D6F45B59AA58866F9C9A83DAA8813484E6947182394BFB3BAA7FBBEDEBFD0434FA9A856F91F53BA4FFF342563E38E6F719FB60092E5200F428A6AED2BAF479979
310
AFDDCA6F504B010214000A0000080000B670623B3DEE336E79000000790000001B00000000000000000000000000000000006175746F6465736B2D64657369676E2D7061636B6167652E786D6C504B01021400140006080800B670623BD486FD9CA0000000F40000001300000000000000000000000000B20000005B436F6E
310
74656E745F54797065735D2E786D6C504B01021400140006080800B670623BCA089DFFEC0000007C010000080000000000000000000000000083010000636F72652E786D6C504B01021400140006080800B670623B55019EA25F0000007C000000070000000000000000000000000095020000636E782E786D6C504B010214
310
00140006080800B670623B68FC0B7272010000D40300000C00000000000000000000000000190300006662782F636F72652E786D6C504B01021400140006080800B670623B0F71DDB67E0000009D0000000B00000000000000000000000000B50400006662782F636E782E786D6C504B01021400140006080800B670623BE1
310
34B4FB280100001202000031000000000000000000000000005C0500006662782F38353834323741342D343835462D343034322D383541392D4331303331363839454531452F636F72652E786D6C504B01021400140006080800B670623B1B8617914E010000330300003000000000000000000000000000D3060000666278
310
2F38353834323741342D343835462D343034322D383541392D4331303331363839454531452F636E782E786D6C504B01021400140006080800B670623B5933D422630500003B10000034000000000000000000000000006F0800006662782F38353834323741342D343835462D343034322D383541392D4331303331363839
310
454531452F6F626A656374732E786D6C504B01021400140006080000B670623B0000000000000000000000003500000000000000000000000000240E00006662782F38353834323741342D343835462D343034322D383541392D4331303331363839454531452F76657274696365732E62696E504B01021400140006080800
310
B670623BF270F13306000000040000003600000000000000000000000000770E00006662782F38353834323741342D343835462D343034322D383541392D4331303331363839454531452F747269616E676C65732E62696E504B01021400140006080000B670623B0000000000000000000000003700000000000000000000
310
000000D10E00006662782F38353834323741342D343835462D343034322D383541392D4331303331363839454531452F617474726962757465732E62696E504B01021400140006080800B670623B08DA0BD190000000410100003600000000000000000000000000260F00006662782F38353834323741342D343835462D34
310
3034322D383541392D4331303331363839454531452F6469726563746F72792E786D6C504B01021400140006080800B670623BD9A3B367FE000000A00100003B000000000000000000000000000A1000006662782F38353834323741342D343835462D343034322D383541392D4331303331363839454531452F7265736F75
310
726365732F636F72652E786D6C504B0506000000000E000E0080040000611100000000
  0
XRECORD
  5
113
102
{ACAD_REACTORS
330
110
102
}
330
110
100
AcDbXrecord
280
     1
270
     1
271
     1
  0
XRECORD
  5
114
102
{ACAD_REACTORS
330
110
102
}
330
110
100
AcDbXrecord
280
     1
270
     1
271
     1
  0
CELLSTYLEMAP
  5
B2F9
102
{ACAD_REACTORS
330
104
102
}
330
104
100
AcDbCellStyleMap
 90
        3
300
CELLSTYLE
  1
TABLEFORMAT_BEGIN
 90
        5
170
     1
 91
        0
 92
    32768
 62
   257
 93
        1
300
CONTENTFORMAT
  1
CONTENTFORMAT_BEGIN
 90
        0
 91
        0
 92
      512
 93
        0
300

 40
0.0
140
1.0
 94
        5
 62
     0
340
11
144
0.25
309
CONTENTFORMAT_END
171
     1
301
MARGIN
  1
CELLMARGIN_BEGIN
 40
0.06
 40
0.06
 40
0.06
 40
0.06
 40
0.18
 40
0.18
309
CELLMARGIN_END
 94
        6
 95
        1
302
GRIDFORMAT
  1
GRIDFORMAT_BEGIN
 90
        0
 91
        1
 62
     0
 92
       -2
340
0
 93
        0
 40
0.045
309
GRIDFORMAT_END
 95
        2
302
GRIDFORMAT
  1
GRIDFORMAT_BEGIN
 90
        0
 91
        1
 62
     0
 92
       -2
340
0
 93
        0
 40
0.045
309
GRIDFORMAT_END
 95
        4
302
GRIDFORMAT
  1
GRIDFORMAT_BEGIN
 90
        0
 91
        1
 62
     0
 92
       -2
340
0
 93
        0
 40
0.045
309
GRIDFORMAT_END
 95
        8
302
GRIDFORMAT
  1
GRIDFORMAT_BEGIN
 90
        0
 91
        1
 62
     0
 92
       -2
340
0
 93
        0
 40
0.045
309
GRIDFORMAT_END
 95
       16
302
GRIDFORMAT
  1
GRIDFORMAT_BEGIN
 90
        0
 91
        1
 62
     0
 92
       -2
340
0
 93
        0
 40
0.045
309
GRIDFORMAT_END
 95
       32
302
GRIDFORMAT
  1
GRIDFORMAT_BEGIN
 90
        0
 91
        1
 62
     0
 92
       -2
340
0
 93
        0
 40
0.045
309
GRIDFORMAT_END
309
TABLEFORMAT_END
  1
CELLSTYLE_BEGIN
 90
        1
 91
        1
300
_TITLE
309
CELLSTYLE_END
300
CELLSTYLE
  1
TABLEFORMAT_BEGIN
 90
        5
170
     1
 91
        0
 92
        0
 62
   257
 93
        1
300
CONTENTFORMAT
  1
CONTENTFORMAT_BEGIN
 90
        0
 91
        0
 92
      512
 93
        0
300

 40
0.0
140
1.0
 94
        5
 62
     0
340
11
144
0.18
309
CONTENTFORMAT_END
171
     1
301
MARGIN
  1
CELLMARGIN_BEGIN
 40
0.06
 40
0.06
 40
0.06
 40
0.06
 40
0.18
 40
0.18
309
CELLMARGIN_END
 94
        6
 95
        1
302
GRIDFORMAT
  1
GRIDFORMAT_BEGIN
 90
        0
 91
        1
 62
     0
 92
       -2
340
0
 93
        0
 40
0.045
309
GRIDFORMAT_END
 95
        2
302
GRIDFORMAT
  1
GRIDFORMAT_BEGIN
 90
        0
 91
        1
 62
     0
 92
       -2
340
0
 93
        0
 40
0.045
309
GRIDFORMAT_END
 95
        4
302
GRIDFORMAT
  1
GRIDFORMAT_BEGIN
 90
        0
 91
        1
 62
     0
 92
       -2
340
0
 93
        0
 40
0.045
309
GRIDFORMAT_END
 95
        8
302
GRIDFORMAT
  1
GRIDFORMAT_BEGIN
 90
        0
 91
        1
 62
     0
 92
       -2
340
0
 93
        0
 40
0.045
309
GRIDFORMAT_END
 95
       16
302
GRIDFORMAT
  1
GRIDFORMAT_BEGIN
 90
        0
 91
        1
 62
     0
 92
       -2
340
0
 93
        0
 40
0.045
309
GRIDFORMAT_END
 95
       32
302
GRIDFORMAT
  1
GRIDFORMAT_BEGIN
 90
        0
 91
        1
 62
     0
 92
       -2
340
0
 93
        0
 40
0.045
309
GRIDFORMAT_END
309
TABLEFORMAT_END
  1
CELLSTYLE_BEGIN
 90
        2
 91
        1
300
_HEADER
309
CELLSTYLE_END
300
CELLSTYLE
  1
TABLEFORMAT_BEGIN
 90
        5
170
     1
 91
        0
 92
        0
 62
   257
 93
        1
300
CONTENTFORMAT
  1
CONTENTFORMAT_BEGIN
 90
        0
 91
        0
 92
      512
 93
        0
300

 40
0.0
140
1.0
 94
        2
 62
     0
340
11
144
0.18
309
CONTENTFORMAT_END
171
     1
301
MARGIN
  1
CELLMARGIN_BEGIN
 40
0.06
 40
0.06
 40
0.06
 40
0.06
 40
0.18
 40
0.18
309
CELLMARGIN_END
 94
        6
 95
        1
302
GRIDFORMAT
  1
GRIDFORMAT_BEGIN
 90
        0
 91
        1
 62
     0
 92
       -2
340
0
 93
        0
 40
0.045
309
GRIDFORMAT_END
 95
        2
302
GRIDFORMAT
  1
GRIDFORMAT_BEGIN
 90
        0
 91
        1
 62
     0
 92
       -2
340
0
 93
        0
 40
0.045
309
GRIDFORMAT_END
 95
        4
302
GRIDFORMAT
  1
GRIDFORMAT_BEGIN
 90
        0
 91
        1
 62
     0
 92
       -2
340
0
 93
        0
 40
0.045
309
GRIDFORMAT_END
 95
        8
302
GRIDFORMAT
  1
GRIDFORMAT_BEGIN
 90
        0
 91
        1
 62
     0
 92
       -2
340
0
 93
        0
 40
0.045
309
GRIDFORMAT_END
 95
       16
302
GRIDFORMAT
  1
GRIDFORMAT_BEGIN
 90
        0
 91
        1
 62
     0
 92
       -2
340
0
 93
        0
 40
0.045
309
GRIDFORMAT_END
 95
       32
302
GRIDFORMAT
  1
GRIDFORMAT_BEGIN
 90
        0
 91
        1
 62
     0
 92
       -2
340
0
 93
        0
 40
0.045
309
GRIDFORMAT_END
309
TABLEFORMAT_END
  1
CELLSTYLE_BEGIN
 90
        3
 91
        2
300
_DATA
309
CELLSTYLE_END
  0
ENDSEC
  0
SECTION
  2
ACDSDATA
 70
     2
 71
     8
  0
ACDSSCHEMA
 90
        0
  1
AcDb_Thumbnail_Schema
  2
AcDbDs::ID
280
    10
 91
        8
  2
Thumbnail_Data
280
    15
 91
        0
101
ACDSRECORD
 95
        0
 90
        1
  2
AcDbDs::TreatedAsObjectData
280
     1
291
     1
101
ACDSRECORD
 95
        0
 90
        2
  2
AcDbDs::Legacy
280
     1
291
     1
101
ACDSRECORD
  1
AcDbDs::ID
 90
        3
  2
AcDs:Indexable
280
     1
291
     1
101
ACDSRECORD
  1
AcDbDs::ID
 90
        4
  2
AcDbDs::HandleAttribute
280
     7
282
     1
  0
ACDSSCHEMA
 90
        1
  1
AcDbDs::TreatedAsObjectDataSchema
  2
AcDbDs::TreatedAsObjectData
280
     1
 91
        0
  0
ACDSSCHEMA
 90
        2
  1
AcDbDs::LegacySchema
  2
AcDbDs::Legacy
280
     1
 91
        0
  0
ACDSSCHEMA
 90
        3
  1
AcDbDs::IndexedPropertySchema
  2
AcDs:Indexable
280
     1
 91
        0
  0
ACDSSCHEMA
 90
        4
  1
AcDbDs::HandleAttributeSchema
  2
AcDbDs::HandleAttribute
280
     7
 91
        1
284
     1
  0
ACDSRECORD
 90
        0
  2
AcDbDs::ID
280
    10
320
22
  2
Thumbnail_Data
280
    15
 94
     1657
310
89504E470D0A1A0A0000000D49484452000001000000006D080300000079B14F6400000300504C5445212830FFFFFF2128300000000000000000000000000000000000000000000000000000330000660000990000CC0000FF0033000033330033660033990033CC0033FF0066000066330066660066990066CC0066FF0099
310
000099330099660099990099CC0099FF00CC0000CC3300CC6600CC9900CCCC00CCFF00FF0000FF3300FF6600FF9900FFCC00FFFF3300003300333300663300993300CC3300FF3333003333333333663333993333CC3333FF3366003366333366663366993366CC3366FF3399003399333399663399993399CC3399FF33CC00
310
33CC3333CC6633CC9933CCCC33CCFF33FF0033FF3333FF6633FF9933FFCC33FFFF6600006600336600666600996600CC6600FF6633006633336633666633996633CC6633FF6666006666336666666666996666CC6666FF6699006699336699666699996699CC6699FF66CC0066CC3366CC6666CC9966CCCC66CCFF66FF0066
310
FF3366FF6666FF9966FFCC66FFFF9900009900339900669900999900CC9900FF9933009933339933669933999933CC9933FF9966009966339966669966999966CC9966FF9999009999339999669999999999CC9999FF99CC0099CC3399CC6699CC9999CCCC99CCFF99FF0099FF3399FF6699FF9999FFCC99FFFFCC0000CC00
310
33CC0066CC0099CC00CCCC00FFCC3300CC3333CC3366CC3399CC33CCCC33FFCC6600CC6633CC6666CC6699CC66CCCC66FFCC9900CC9933CC9966CC9999CC99CCCC99FFCCCC00CCCC33CCCC66CCCC99CCCCCCCCCCFFCCFF00CCFF33CCFF66CCFF99CCFFCCCCFFFFFF0000FF0033FF0066FF0099FF00CCFF00FFFF3300FF3333
310
FF3366FF3399FF33CCFF33FFFF6600FF6633FF6666FF6699FF66CCFF66FFFF9900FF9933FF9966FF9999FF99CCFF99FFFFCC00FFCC33FFCC66FFCC99FFCCCCFFCCFFFFFF00FFFF33FFFF66FFFF99FFFFCCFFFFFF0000000D0D0D1A1A1A2828283535354343435050505D5D5D6B6B6B787878868686939393A1A1A1AEAEAEBB
310
BBBBC9C9C9D6D6D6E4E4E4F1F1F1FFFFFF0000000000000000000000000000000000000000000000000000000000002E4550F1000003344944415478DAED9D496EC3300C4579FFFBBE7D8B6672240E720214E157BC295A3B0B3E7F519CD4987DAF7FBA486FFE5EC2A6FF5D96984805A83B804202D41291D03E3920590277E9
310
5310625305504A441D806903607B00B60E80CD15A02E816D01B0B70F2825200FE0A1805D01D8D60038DAC786DB2065D67F0480B4FDFEFDA3D17A00981604E9EF6A6E80D427786F5C4B03145ED17940CA0D50FEDD5508EAF61791A10C00EC35002A7E10FB02A8EEB12F0016EB03AA1160D129411EC095C0C6002ECDC0AD01B0
310
12276854014223B501D817C017C0CE3E80DA09B2AB026E415092F622901BC6A1DE631C64215DEE3B3B455CDBA07CB51CD649530D5C435D12EFB002A0EF2AC01200E54814C14F11005601987B89880160E5C3BD2590F98072208213FEF2D3778122460AB689B166D8721B4800540303CE6D5401982C8078FE1B2A6D332F1025
310
007602807507C03B00E83D3E9744F1A481829B478014007200EE67DB217817C03C5BD2500259EB8BD300FA49805AE1270018320A3890E1C4F2E9E80496D3BD49ED8E78840094CFB8A5C08E5EB04C9ACF54C6E50010C641228323757F38A80604FB47D7BA5822FFA81C3227526927ED730190DA8F256D8341036927AD2381AB
310
CE97FB263D15907879A8EB6102006C7B0069304C2A1AE4015C180C8E203C3ED4154018F66377EBFD1333981880715F73D3BEB80AA8A000CABC372E83F69D9428325FA247584C109A2B60E815E7878964012C3E8CA40F205A2412D9E0E8030259B306A0EBF020D93E1602601300162D01A113A54F00C800142B00DA0370B7F7
310
E00C5D79C85A0F40DE0CED7B9CF45500868207AC001CEB827B0048EA3C1B02388E4BCD8B5C15C0382529AF80F1D50FB1310500D00560A9009EDDE6BE00F243C69D08E007BC583411A30A6090005767483413A403800840AA001D00BE1360690920A58039EDAF019892022600049D52150073B773AC030736AA29C09300D9E1
310
196ED1A2CA12F08A7F24B19E1C8028B589C27DE67C41221072AA02E40AE8FEEF047063E0270044C3D1420008937D7C028F2D52631B8CABDCDC2F879D40241C067A4FDBA263FF6586C83414100D05473180DD06C98AAFE7694200D291B8E808F56D9C14916D203232371094BF81E913AE1F55D1CD7B196CD653000000004945
310
4E44AE426082
  0
ENDSEC
  0
EOF
