  0
SECTION
  2
HEADER
  9
$ACADVER
  1
AC1032
  9
$ACADMAINTVER
 90
      197
  9
$DWGCODEPAGE
  3
ANSI_1252
  9
$LASTSAVEDBY
  1
gregb
  9
$REQUIREDVERSIONS
160
                 0
  9
$INSBASE
 10
0.0
 20
0.0
 30
0.0
  9
$EXTMIN
 10
10543.68167989301
 20
29772.34307660793
 30
0.0
  9
$EXTMAX
 10
10699.59735793789
 20
29935.95847244949
 30
0.0
  9
$LIMMIN
 10
0.0
 20
0.0
  9
$LIMMAX
 10
12.0
 20
9.0
  9
$ORTHOMODE
 70
     1
  9
$REGENMODE
 70
     1
  9
$FILLMODE
 70
     1
  9
$QTEXTMODE
 70
     0
  9
$MIRRTEXT
 70
     0
  9
$LTSCALE
 40
1.0
  9
$ATTMODE
 70
     1
  9
$TEXTSIZE
 40
0.2
  9
$TRACEWID
 40
0.05
  9
$TEXTSTYLE
  7
Standard
  9
$CLAYER
  8
freecads.com
  9
$CELTYPE
  6
ByLayer
  9
$CECOLOR
 62
   256
  9
$CELTSCALE
 40
1.0
  9
$DISPSILH
 70
     1
  9
$DIMSCALE
 40
1.0
  9
$DIMASZ
 40
0.18
  9
$DIMEXO
 40
0.0625
  9
$DIMDLI
 40
0.38
  9
$DIMRND
 40
0.0
  9
$DIMDLE
 40
0.0
  9
$DIMEXE
 40
0.18
  9
$DIMTP
 40
0.0
  9
$DIMTM
 40
0.0
  9
$DIMTXT
 40
0.18
  9
$DIMCEN
 40
0.09
  9
$DIMTSZ
 40
0.0
  9
$DIMTOL
 70
     0
  9
$DIMLIM
 70
     0
  9
$DIMTIH
 70
     1
  9
$DIMTOH
 70
     1
  9
$DIMSE1
 70
     0
  9
$DIMSE2
 70
     0
  9
$DIMTAD
 70
     0
  9
$DIMZIN
 70
     0
  9
$DIMBLK
  1

  9
$DIMASO
 70
     1
  9
$DIMSHO
 70
     1
  9
$DIMPOST
  1

  9
$DIMAPOST
  1

  9
$DIMALT
 70
     0
  9
$DIMALTD
 70
     2
  9
$DIMALTF
 40
25.4
  9
$DIMLFAC
 40
1.0
  9
$DIMTOFL
 70
     0
  9
$DIMTVP
 40
0.0
  9
$DIMTIX
 70
     0
  9
$DIMSOXD
 70
     0
  9
$DIMSAH
 70
     0
  9
$DIMBLK1
  1

  9
$DIMBLK2
  1

  9
$DIMSTYLE
  2
Standard
  9
$DIMCLRD
 70
     0
  9
$DIMCLRE
 70
     0
  9
$DIMCLRT
 70
     0
  9
$DIMTFAC
 40
1.0
  9
$DIMGAP
 40
0.09
  9
$DIMJUST
 70
     0
  9
$DIMSD1
 70
     0
  9
$DIMSD2
 70
     0
  9
$DIMTOLJ
 70
     1
  9
$DIMTZIN
 70
     0
  9
$DIMALTZ
 70
     0
  9
$DIMALTTZ
 70
     0
  9
$DIMUPT
 70
     0
  9
$DIMDEC
 70
     4
  9
$DIMTDEC
 70
     4
  9
$DIMALTU
 70
     2
  9
$DIMALTTD
 70
     2
  9
$DIMTXSTY
  7
Standard
  9
$DIMAUNIT
 70
     0
  9
$DIMADEC
 70
     0
  9
$DIMALTRND
 40
0.0
  9
$DIMAZIN
 70
     0
  9
$DIMDSEP
 70
    46
  9
$DIMATFIT
 70
     3
  9
$DIMFRAC
 70
     0
  9
$DIMLDRBLK
  1

  9
$DIMLUNIT
 70
     2
  9
$DIMLWD
 70
    -2
  9
$DIMLWE
 70
    -2
  9
$DIMTMOVE
 70
     0
  9
$DIMFXL
 40
1.0
  9
$DIMFXLON
 70
     0
  9
$DIMJOGANG
 40
0.7853981633974483
  9
$DIMTFILL
 70
     0
  9
$DIMTFILLCLR
 70
     0
  9
$DIMARCSYM
 70
     0
  9
$DIMLTYPE
  6

  9
$DIMLTEX1
  6

  9
$DIMLTEX2
  6

  9
$DIMTXTDIRECTION
 70
     0
  9
$LUNITS
 70
     2
  9
$LUPREC
 70
     4
  9
$SKETCHINC
 40
0.1
  9
$FILLETRAD
 40
0.0
  9
$AUNITS
 70
     0
  9
$AUPREC
 70
     0
  9
$MENU
  1
.
  9
$ELEVATION
 40
0.0
  9
$PELEVATION
 40
0.0
  9
$THICKNESS
 40
0.0
  9
$LIMCHECK
 70
     0
  9
$CHAMFERA
 40
0.0
  9
$CHAMFERB
 40
0.0
  9
$CHAMFERC
 40
0.0
  9
$CHAMFERD
 40
0.0
  9
$SKPOLY
 70
     0
  9
$TDCREATE
 40
2458157.371250000
  9
$TDUCREATE
 40
2458157.287916667
  9
$TDUPDATE
 40
2461016.546770834
  9
$TDUUPDATE
 40
2461016.463437500
  9
$TDINDWG
 40
0.1055787037
  9
$TDUSRTIMER
 40
0.1055787037
  9
$USRTIMER
 70
     1
  9
$ANGBASE
 50
0.0
  9
$ANGDIR
 70
     0
  9
$PDMODE
 70
     0
  9
$PDSIZE
 40
0.0
  9
$PLINEWID
 40
0.0
  9
$SPLFRAME
 70
     0
  9
$SPLINETYPE
 70
     6
  9
$SPLINESEGS
 70
     8
  9
$HANDSEED
  5
B483
  9
$SURFTAB1
 70
     6
  9
$SURFTAB2
 70
     6
  9
$SURFTYPE
 70
     6
  9
$SURFU
 70
     6
  9
$SURFV
 70
     6
  9
$UCSBASE
  2

  9
$UCSNAME
  2

  9
$UCSORG
 10
0.0
 20
0.0
 30
0.0
  9
$UCSXDIR
 10
1.0
 20
0.0
 30
0.0
  9
$UCSYDIR
 10
0.0
 20
1.0
 30
0.0
  9
$UCSORTHOREF
  2

  9
$UCSORTHOVIEW
 70
     0
  9
$UCSORGTOP
 10
0.0
 20
0.0
 30
0.0
  9
$UCSORGBOTTOM
 10
0.0
 20
0.0
 30
0.0
  9
$UCSORGLEFT
 10
0.0
 20
0.0
 30
0.0
  9
$UCSORGRIGHT
 10
0.0
 20
0.0
 30
0.0
  9
$UCSORGFRONT
 10
0.0
 20
0.0
 30
0.0
  9
$UCSORGBACK
 10
0.0
 20
0.0
 30
0.0
  9
$PUCSBASE
  2

  9
$PUCSNAME
  2

  9
$PUCSORG
 10
0.0
 20
0.0
 30
0.0
  9
$PUCSXDIR
 10
1.0
 20
0.0
 30
0.0
  9
$PUCSYDIR
 10
0.0
 20
1.0
 30
0.0
  9
$PUCSORTHOREF
  2

  9
$PUCSORTHOVIEW
 70
     0
  9
$PUCSORGTOP
 10
0.0
 20
0.0
 30
0.0
  9
$PUCSORGBOTTOM
 10
0.0
 20
0.0
 30
0.0
  9
$PUCSORGLEFT
 10
0.0
 20
0.0
 30
0.0
  9
$PUCSORGRIGHT
 10
0.0
 20
0.0
 30
0.0
  9
$PUCSORGFRONT
 10
0.0
 20
0.0
 30
0.0
  9
$PUCSORGBACK
 10
0.0
 20
0.0
 30
0.0
  9
$USERI1
 70
     0
  9
$USERI2
 70
     0
  9
$USERI3
 70
     0
  9
$USERI4
 70
     0
  9
$USERI5
 70
     0
  9
$USERR1
 40
0.0
  9
$USERR2
 40
0.0
  9
$USERR3
 40
0.0
  9
$USERR4
 40
0.0
  9
$USERR5
 40
0.0
  9
$WORLDVIEW
 70
     1
  9
$SHADEDGE
 70
     3
  9
$SHADEDIF
 70
    70
  9
$TILEMODE
 70
     1
  9
$MAXACTVP
 70
    64
  9
$PINSBASE
 10
0.0
 20
0.0
 30
0.0
  9
$PLIMCHECK
 70
     0
  9
$PEXTMIN
 10
0.0
 20
0.0
 30
0.0
  9
$PEXTMAX
 10
0.0
 20
0.0
 30
0.0
  9
$PLIMMIN
 10
0.0
 20
0.0
  9
$PLIMMAX
 10
12.0
 20
9.0
  9
$UNITMODE
 70
     0
  9
$VISRETAIN
 70
     1
  9
$PLINEGEN
 70
     0
  9
$PSLTSCALE
 70
     1
  9
$TREEDEPTH
 70
  3020
  9
$CMLSTYLE
  2
Standard
  9
$CMLJUST
 70
     0
  9
$CMLSCALE
 40
1.0
  9
$PROXYGRAPHICS
 70
     1
  9
$MEASUREMENT
 70
     0
  9
$CELWEIGHT
370
    -1
  9
$ENDCAPS
280
     0
  9
$JOINSTYLE
280
     0
  9
$LWDISPLAY
290
     0
  9
$INSUNITS
 70
     1
  9
$HYPERLINKBASE
  1

  9
$STYLESHEET
  1
monochrome.ctb
  9
$XEDIT
290
     1
  9
$CEPSNTYPE
380
     0
  9
$PSTYLEMODE
290
     1
  9
$FINGERPRINTGUID
  2
{358EB121-6EE0-9143-8A3E-6E8E8869FDA6}
  9
$VERSIONGUID
  2
{3C5514E9-166C-184E-AD53-DA47D7835248}
  9
$EXTNAMES
290
     1
  9
$PSVPSCALE
 40
0.0
  9
$OLESTARTUP
290
     0
  9
$SORTENTS
280
   127
  9
$INDEXCTL
280
     0
  9
$HIDETEXT
280
     1
  9
$XCLIPFRAME
280
     2
  9
$HALOGAP
280
     0
  9
$OBSCOLOR
 70
   257
  9
$OBSLTYPE
280
     0
  9
$INTERSECTIONDISPLAY
280
     0
  9
$INTERSECTIONCOLOR
 70
   257
  9
$DIMASSOC
280
     2
  9
$PROJECTNAME
  1

  9
$CAMERADISPLAY
290
     0
  9
$LENSLENGTH
 40
50.0
  9
$CAMERAHEIGHT
 40
0.0
  9
$STEPSPERSEC
 40
2.0
  9
$STEPSIZE
 40
6.0
  9
$3DDWFPREC
 40
2.0
  9
$PSOLWIDTH
 40
0.25
  9
$PSOLHEIGHT
 40
4.0
  9
$LOFTANG1
 40
1.570796326794896
  9
$LOFTANG2
 40
1.570796326794896
  9
$LOFTMAG1
 40
0.0
  9
$LOFTMAG2
 40
0.0
  9
$LOFTPARAM
 70
     7
  9
$LOFTNORMALS
280
     1
  9
$LATITUDE
 40
37.795
  9
$LONGITUDE
 40
-122.394
  9
$NORTHDIRECTION
 40
0.0
  9
$TIMEZONE
 70
 -8000
  9
$LIGHTGLYPHDISPLAY
280
     1
  9
$TILEMODELIGHTSYNCH
280
     1
  9
$CMATERIAL
347
96
  9
$SOLIDHIST
280
     0
  9
$SHOWHIST
280
     1
  9
$DWFFRAME
280
     2
  9
$DGNFRAME
280
     0
  9
$REALWORLDSCALE
290
     1
  9
$INTERFERECOLOR
 62
     1
  9
$INTERFEREOBJVS
345
A3
  9
$INTERFEREVPVS
346
A0
  9
$CSHADOW
280
     0
  9
$SHADOWPLANELOCATION
 40
0.0
  0
ENDSEC
  0
SECTION
  2
CLASSES
  0
CLASS
  1
ACDBDICTIONARYWDFLT
  2
AcDbDictionaryWithDefault
  3
ObjectDBX Classes
 90
        0
 91
        1
280
     0
281
     0
  0
CLASS
  1
DICTIONARYVAR
  2
AcDbDictionaryVar
  3
ObjectDBX Classes
 90
        0
 91
        9
280
     0
281
     0
  0
CLASS
  1
TABLESTYLE
  2
AcDbTableStyle
  3
ObjectDBX Classes
 90
     4095
 91
        1
280
     0
281
     0
  0
CLASS
  1
MATERIAL
  2
AcDbMaterial
  3
ObjectDBX Classes
 90
     1153
 91
        3
280
     0
281
     0
  0
CLASS
  1
VISUALSTYLE
  2
AcDbVisualStyle
  3
ObjectDBX Classes
 90
     4095
 91
       25
280
     0
281
     0
  0
CLASS
  1
SCALE
  2
AcDbScale
  3
ObjectDBX Classes
 90
     1153
 91
       35
280
     0
281
     0
  0
CLASS
  1
MLEADERSTYLE
  2
AcDbMLeaderStyle
  3
ACDB_MLEADERSTYLE_CLASS
 90
     4095
 91
        1
280
     0
281
     0
  0
CLASS
  1
CELLSTYLEMAP
  2
AcDbCellStyleMap
  3
ObjectDBX Classes
 90
     1152
 91
        1
280
     0
281
     0
  0
CLASS
  1
EXACXREFPANELOBJECT
  2
ExAcXREFPanelObject
  3
EXAC_ESW
 90
     1025
 91
        0
280
     0
281
     0
  0
CLASS
  1
NPOCOLLECTION
  2
AcDbImpNonPersistentObjectsCollection
  3
ObjectDBX Classes
 90
     1153
 91
        0
280
     0
281
     0
  0
CLASS
  1
LAYER_INDEX
  2
AcDbLayerIndex
  3
ObjectDBX Classes
 90
        0
 91
        0
280
     0
281
     0
  0
CLASS
  1
SPATIAL_INDEX
  2
AcDbSpatialIndex
  3
ObjectDBX Classes
 90
        0
 91
        0
280
     0
281
     0
  0
CLASS
  1
IDBUFFER
  2
AcDbIdBuffer
  3
ObjectDBX Classes
 90
        0
 91
        0
280
     0
281
     0
  0
CLASS
  1
ACDBSECTIONVIEWSTYLE
  2
AcDbSectionViewStyle
  3
ObjectDBX Classes
 90
     1025
 91
        2
280
     0
281
     0
  0
CLASS
  1
ACDBDETAILVIEWSTYLE
  2
AcDbDetailViewStyle
  3
ObjectDBX Classes
 90
     1025
 91
        2
280
     0
281
     0
  0
CLASS
  1
SORTENTSTABLE
  2
AcDbSortentsTable
  3
ObjectDBX Classes
 90
        0
 91
        1
280
     0
281
     0
  0
CLASS
  1
SPATIAL_FILTER
  2
AcDbSpatialFilter
  3
ObjectDBX Classes
 90
        0
 91
        0
280
     0
281
     0
  0
CLASS
  1
SOLID_BACKGROUND
  2
AcDbSolidBackground
  3
SCENEOE
 90
     4095
 91
        0
280
     0
281
     0
  0
ENDSEC
  0
SECTION
  2
TABLES
  0
TABLE
  2
VPORT
  5
8
330
0
100
AcDbSymbolTable
 70
     1
  0
VPORT
  5
94
330
8
100
AcDbSymbolTableRecord
100
AcDbViewportTableRecord
  2
*Active
 70
     0
 10
0.0
 20
0.0
 11
1.0
 21
1.0
 12
10621.4837691376
 22
29866.72071530758
 13
0.0
 23
0.0
 14
0.5
 24
0.5
 15
0.5
 25
0.5
 16
0.0
 26
0.0
 36
1.0
 17
0.0
 27
0.0
 37
0.0
 40
186.6620234017819
 41
2.066284779050736
 42
50.0
 43
0.0
 44
0.0
 50
0.0
 51
0.0
 71
     0
 72
  1000
 73
     1
 74
     3
 75
     0
 76
     0
 77
     0
 78
     0
281
     0
 65
     1
110
0.0
120
0.0
130
0.0
111
1.0
121
0.0
131
0.0
112
0.0
122
1.0
132
0.0
 79
     0
146
0.0
348
9F
 60
     3
 61
     5
292
     1
282
     1
141
0.0
142
0.0
 63
   250
421
  3355443
1001
ACAD_NAV_VCDISPLAY
1070
     3
  0
ENDTAB
  0
TABLE
  2
LTYPE
  5
5
330
0
100
AcDbSymbolTable
 70
     1
  0
LTYPE
  5
14
330
5
100
AcDbSymbolTableRecord
100
AcDbLinetypeTableRecord
  2
ByBlock
 70
     0
  3

 72
    65
 73
     0
 40
0.0
  0
LTYPE
  5
15
330
5
100
AcDbSymbolTableRecord
100
AcDbLinetypeTableRecord
  2
ByLayer
 70
     0
  3

 72
    65
 73
     0
 40
0.0
  0
LTYPE
  5
16
330
5
100
AcDbSymbolTableRecord
100
AcDbLinetypeTableRecord
  2
Continuous
 70
     0
  3
Solid line
 72
    65
 73
     0
 40
0.0
  0
ENDTAB
  0
TABLE
  2
LAYER
  5
2
102
{ACAD_XDICTIONARY
360
18E
102
}
330
0
100
AcDbSymbolTable
 70
     2
  0
LAYER
  5
10
102
{ACAD_XDICTIONARY
360
E6
102
}
330
2
100
AcDbSymbolTableRecord
100
AcDbLayerTableRecord
  2
0
 70
     0
 62
     7
  6
Continuous
370
    -3
390
F
347
98
348
0
  0
LAYER
  5
204
330
2
100
AcDbSymbolTableRecord
100
AcDbLayerTableRecord
  2
freecads.com
 70
     0
 62
     7
  6
Continuous
370
    -3
390
F
347
98
348
0
1001
AcAecLayerStandard
1000

1000

1001
AcCmTransparency
1071
        0
  0
ENDTAB
  0
TABLE
  2
STYLE
  5
3
330
0
100
AcDbSymbolTable
 70
     1
  0
STYLE
  5
11
330
3
100
AcDbSymbolTableRecord
100
AcDbTextStyleTableRecord
  2
Standard
 70
     0
 40
0.0
 41
1.0
 50
0.0
 71
     0
 42
0.2
  3
arial.ttf
  4

1001
ACAD
1000
Arial
1071
       34
  0
ENDTAB
  0
TABLE
  2
VIEW
  5
6
330
0
100
AcDbSymbolTable
 70
     0
  0
ENDTAB
  0
TABLE
  2
UCS
  5
7
330
0
100
AcDbSymbolTable
 70
     0
  0
ENDTAB
  0
TABLE
  2
APPID
  5
9
330
0
100
AcDbSymbolTable
 70
    23
  0
APPID
  5
12
330
9
100
AcDbSymbolTableRecord
100
AcDbRegAppTableRecord
  2
ACAD
 70
     0
  0
APPID
  5
DD
330
9
100
AcDbSymbolTableRecord
100
AcDbRegAppTableRecord
  2
AcadAnnoPO
 70
     0
  0
APPID
  5
DE
330
9
100
AcDbSymbolTableRecord
100
AcDbRegAppTableRecord
  2
AcadAnnotative
 70
     0
  0
APPID
  5
DF
330
9
100
AcDbSymbolTableRecord
100
AcDbRegAppTableRecord
  2
ACAD_DSTYLE_DIMJAG
 70
     0
  0
APPID
  5
E0
330
9
100
AcDbSymbolTableRecord
100
AcDbRegAppTableRecord
  2
ACAD_DSTYLE_DIMTALN
 70
     0
  0
APPID
  5
107
330
9
100
AcDbSymbolTableRecord
100
AcDbRegAppTableRecord
  2
ACAD_MLEADERVER
 70
     0
  0
APPID
  5
1A6
330
9
100
AcDbSymbolTableRecord
100
AcDbRegAppTableRecord
  2
ACAD_NAV_VCDISPLAY
 70
     0
  0
APPID
  5
205
330
9
100
AcDbSymbolTableRecord
100
AcDbRegAppTableRecord
  2
AcAecLayerStandard
 70
     0
  0
APPID
  5
206
330
9
100
AcDbSymbolTableRecord
100
AcDbRegAppTableRecord
  2
AcCmTransparency
 70
     0
  0
APPID
  5
222
330
9
100
AcDbSymbolTableRecord
100
AcDbRegAppTableRecord
  2
ACAD_PSEXT
 70
     0
  0
APPID
  5
2DA
330
9
100
AcDbSymbolTableRecord
100
AcDbRegAppTableRecord
  2
GradientColor1ACI
 70
     0
  0
APPID
  5
2DB
330
9
100
AcDbSymbolTableRecord
100
AcDbRegAppTableRecord
  2
GradientColor2ACI
 70
     0
  0
APPID
  5
2F3
330
9
100
AcDbSymbolTableRecord
100
AcDbRegAppTableRecord
  2
ACAD_EXEMPT_FROM_CAD_STANDARDS
 70
     0
  0
APPID
  5
A1A
330
9
100
AcDbSymbolTableRecord
100
AcDbRegAppTableRecord
  2
AcDbBlockRepETag
 70
     0
  0
APPID
  5
228C
330
9
100
AcDbSymbolTableRecord
100
AcDbRegAppTableRecord
  2
RAK
 70
     0
  0
APPID
  5
2683
330
9
100
AcDbSymbolTableRecord
100
AcDbRegAppTableRecord
  2
ACAD_DSTYLE_DIMJOGGED_JOGANGLE_SYMBOL
 70
     0
  0
APPID
  5
47CF
330
9
100
AcDbSymbolTableRecord
100
AcDbRegAppTableRecord
  2
ACAD_DSTYLE_DIMBREAK
 70
     0
  0
APPID
  5
47D0
330
9
100
AcDbSymbolTableRecord
100
AcDbRegAppTableRecord
  2
AcDbDynamicBlockGUID
 70
     0
  0
APPID
  5
8BD5
330
9
100
AcDbSymbolTableRecord
100
AcDbRegAppTableRecord
  2
AcLayerTools
 70
     0
  0
APPID
  5
92D9
330
9
100
AcDbSymbolTableRecord
100
AcDbRegAppTableRecord
  2
AutoGrph01
 70
     0
  0
APPID
  5
92DA
330
9
100
AcDbSymbolTableRecord
100
AcDbRegAppTableRecord
  2
AutoGrphVars
 70
     0
  0
APPID
  5
92DB
330
9
100
AcDbSymbolTableRecord
100
AcDbRegAppTableRecord
  2
AutoGrphZ
 70
     0
  0
APPID
  5
92DC
330
9
100
AcDbSymbolTableRecord
100
AcDbRegAppTableRecord
  2
AutoGrph05
 70
     0
  0
ENDTAB
  0
TABLE
  2
DIMSTYLE
  5
A
330
0
100
AcDbSymbolTable
 70
     1
100
AcDbDimStyleTable
 71
     1
340
27
  0
DIMSTYLE
105
27
330
A
100
AcDbSymbolTableRecord
100
AcDbDimStyleTableRecord
  2
Standard
 70
     0
340
11
  0
ENDTAB
  0
TABLE
  2
BLOCK_RECORD
  5
1
330
0
100
AcDbSymbolTable
 70
     1
  0
BLOCK_RECORD
  5
1F
102
{ACAD_XDICTIONARY
360
15D
102
}
330
1
100
AcDbSymbolTableRecord
100
AcDbBlockTableRecord
  2
*Model_Space
340
22
 70
     0
280
     1
281
     0
  0
BLOCK_RECORD
  5
58
330
1
100
AcDbSymbolTableRecord
100
AcDbBlockTableRecord
  2
*Paper_Space
340
59
 70
     0
280
     1
281
     0
  0
BLOCK_RECORD
  5
5D
330
1
100
AcDbSymbolTableRecord
100
AcDbBlockTableRecord
  2
*Paper_Space0
340
5E
 70
     0
280
     1
281
     0
  0
ENDTAB
  0
ENDSEC
  0
SECTION
  2
BLOCKS
  0
BLOCK
  5
20
330
1F
100
AcDbEntity
  8
0
100
AcDbBlockBegin
  2
*Model_Space
 70
     0
 10
0.0
 20
0.0
 30
0.0
  3
*Model_Space
  1

  0
ENDBLK
  5
21
330
1F
100
AcDbEntity
  8
0
100
AcDbBlockEnd
  0
BLOCK
  5
5A
330
58
100
AcDbEntity
 67
     1
  8
0
100
AcDbBlockBegin
  2
*Paper_Space
 70
     0
 10
0.0
 20
0.0
 30
0.0
  3
*Paper_Space
  1

  0
ENDBLK
  5
5B
330
58
100
AcDbEntity
 67
     1
  8
0
100
AcDbBlockEnd
  0
BLOCK
  5
5F
330
5D
100
AcDbEntity
 67
     1
  8
0
100
AcDbBlockBegin
  2
*Paper_Space0
 70
     0
 10
0.0
 20
0.0
 30
0.0
  3
*Paper_Space0
  1

  0
ENDBLK
  5
60
330
5D
100
AcDbEntity
 67
     1
  8
0
100
AcDbBlockEnd
  0
ENDSEC
  0
SECTION
  2
ENTITIES
  0
ARC
  5
B233
330
1F
100
AcDbEntity
  8
freecads.com
100
AcDbCircle
 10
10662.77777879168
 20
29925.6695868625
 30
0.0
 40
11.35950683523839
100
AcDbArc
 50
139.9212511960743
 51
158.8530588523461
  0
ARC
  5
B234
330
1F
100
AcDbEntity
  8
freecads.com
100
AcDbCircle
 10
10671.23689099061
 20
29922.39750892286
 30
0.0
 40
20.42940613110355
100
AcDbArc
 50
158.8530237262746
 51
171.0532794578132
  0
ARC
  5
B235
330
1F
100
AcDbEntity
  8
freecads.com
100
AcDbCircle
 10
10671.2760303979
 20
29922.39135758687
 30
0.0
 40
20.46902597500719
100
AcDbArc
 50
171.053308308312
 51
183.2437370437471
  0
ARC
  5
B236
330
1F
100
AcDbEntity
  8
freecads.com
100
AcDbCircle
 10
10662.3194429967
 20
29921.88376935878
 30
0.0
 40
11.49806706953036
100
AcDbArc
 50
183.2438438782596
 51
202.0172170241272
  0
ARC
  5
B237
330
1F
100
AcDbEntity
  8
freecads.com
100
AcDbCircle
 10
10638.68530930895
 20
29912.32667831627
 30
0.0
 40
13.99527057710063
100
AcDbArc
 50
16.17392778338038
 51
22.01728913235356
  0
ARC
  5
B238
330
1F
100
AcDbEntity
  8
freecads.com
100
AcDbCircle
 10
10637.75107334086
 20
29912.05572351199
 30
0.0
 40
14.96800556157984
100
AcDbArc
 50
10.61776631831076
 51
16.17390979520808
  0
ARC
  5
B239
330
1F
100
AcDbEntity
  8
freecads.com
100
AcDbCircle
 10
10639.81185829576
 20
29912.44207711959
 30
0.0
 40
12.87131680555469
100
AcDbArc
 50
4.886516032104335
 51
10.61764924744832
  0
ARC
  5
B23A
330
1F
100
AcDbEntity
  8
freecads.com
100
AcDbCircle
 10
10649.67009747464
 20
29913.2848905505
 30
0.0
 40
2.977115767202043
100
AcDbArc
 50
347.888278413131
 51
4.88649222731219
  0
ARC
  5
B23B
330
1F
100
AcDbEntity
  8
freecads.com
100
AcDbCircle
 10
10650.73137092504
 20
29913.05714371836
 30
0.0
 40
1.891680390922069
100
AcDbArc
 50
300.9031343063574
 51
347.8883499085632
  0
ARC
  5
B23C
330
1F
100
AcDbEntity
  8
freecads.com
100
AcDbCircle
 10
10642.3140906338
 20
29927.11965630629
 30
0.0
 40
18.2808496129216
100
AcDbArc
 50
292.0191651283752
 51
300.9031215987902
  0
ARC
  5
B23D
330
1F
100
AcDbEntity
  8
freecads.com
100
AcDbCircle
 10
10641.68766908819
 20
29928.66857490564
 30
0.0
 40
19.95164366965802
100
AcDbArc
 50
282.8139765622787
 51
292.019205193772
  0
ARC
  5
B23E
330
1F
100
AcDbEntity
  8
freecads.com
100
AcDbCircle
 10
10643.20640196432
 20
29921.99139545207
 30
0.0
 40
13.10392324573364
100
AcDbArc
 50
270.2003342386039
 51
282.8139682779277
  0
ARC
  5
B23F
330
1F
100
AcDbEntity
  8
freecads.com
100
AcDbCircle
 10
10643.26259532706
 20
29905.92040251591
 30
0.0
 40
2.967167932162988
100
AcDbArc
 50
90.20035421277709
 51
125.3501769303003
  0
ARC
  5
B240
330
1F
100
AcDbEntity
  8
freecads.com
100
AcDbCircle
 10
10645.68861999121
 20
29902.50036516701
 30
0.0
 40
7.160287431879039
100
AcDbArc
 50
125.3502019771474
 51
143.557982213706
  0
ARC
  5
B241
330
1F
100
AcDbEntity
  8
freecads.com
100
AcDbCircle
 10
10651.02811945952
 20
29898.55772883601
 30
0.0
 40
13.79765406408636
100
AcDbArc
 50
143.5580810671303
 51
156.2226676616426
  0
ARC
  5
B242
330
1F
100
AcDbEntity
  8
freecads.com
100
AcDbCircle
 10
10675.26287860855
 20
29887.88037775528
 30
0.0
 40
40.28027812426624
100
AcDbArc
 50
156.2226680427018
 51
161.918758030322
  0
ARC
  5
B243
330
1F
100
AcDbEntity
  8
freecads.com
100
AcDbCircle
 10
10597.75343526099
 20
29913.18632393852
 30
0.0
 40
41.25563249356676
100
AcDbArc
 50
334.5294253251707
 51
341.9187068939481
  0
ARC
  5
B244
330
1F
100
AcDbEntity
  8
freecads.com
100
AcDbCircle
 10
10608.78541390042
 20
29907.93133790625
 30
0.0
 40
29.03599948361796
100
AcDbArc
 50
324.9145702292763
 51
334.5293453292916
  0
ARC
  5
B245
330
1F
100
AcDbEntity
  8
freecads.com
100
AcDbCircle
 10
10600.23067880795
 20
29913.94048031013
 30
0.0
 40
39.49034235785836
100
AcDbArc
 50
316.9138030775587
 51
324.9145425535494
  0
ARC
  5
B246
330
1F
100
AcDbEntity
  8
freecads.com
100
AcDbCircle
 10
10536.66986518364
 20
29973.39100534324
 30
0.0
 40
126.5210378353441
100
AcDbArc
 50
313.5537336937018
 51
316.9137758103191
  0
ARC
  5
B247
330
1F
100
AcDbEntity
  8
freecads.com
100
AcDbCircle
 10
10560.06644086077
 20
29948.78247349278
 30
0.0
 40
92.56548463341953
100
AcDbArc
 50
307.6608787460119
 51
313.553711201537
  0
ARC
  5
B248
330
1F
100
AcDbEntity
  8
freecads.com
100
AcDbCircle
 10
10612.31810006533
 20
29881.08123996589
 30
0.0
 40
7.0453530228326
100
AcDbArc
 50
268.9025485854241
 51
307.6608776826537
  0
ARC
  5
B249
330
1F
100
AcDbEntity
  8
freecads.com
100
AcDbCircle
 10
10612.24430372821
 20
29877.22876774408
 30
0.0
 40
3.192174060064505
100
AcDbArc
 50
202.3444388319576
 51
268.9024860844403
  0
ARC
  5
B24A
330
1F
100
AcDbEntity
  8
freecads.com
100
AcDbCircle
 10
10629.98579433687
 20
29884.52116648801
 30
0.0
 40
22.37392498269653
100
AcDbArc
 50
186.4547918403089
 51
202.34444614971
  0
ARC
  5
B24B
330
1F
100
AcDbEntity
  8
freecads.com
100
AcDbCircle
 10
10575.14467150305
 20
29878.31662089952
 30
0.0
 40
32.81706286527333
100
AcDbArc
 50
6.454823147094445
 51
15.2030750395126
  0
ARC
  5
B24C
330
1F
100
AcDbEntity
  8
freecads.com
100
AcDbCircle
 10
10596.91763023361
 20
29884.2334698454
 30
0.0
 40
10.25446475843569
100
AcDbArc
 50
15.2030094594822
 51
36.01570884409135
  0
ARC
  5
B24D
330
1F
100
AcDbEntity
  8
freecads.com
100
AcDbCircle
 10
10600.24990438118
 20
29886.65591030139
 30
0.0
 40
6.134723412502257
100
AcDbArc
 50
36.01566791412391
 51
64.43878096969362
  0
ARC
  5
B24E
330
1F
100
AcDbEntity
  8
freecads.com
100
AcDbCircle
 10
10599.84723701201
 20
29885.81402809659
 30
0.0
 40
7.067947210395913
100
AcDbArc
 50
64.43874136423129
 51
90.00004359102268
  0
ARC
  5
B24F
330
1F
100
AcDbEntity
  8
freecads.com
100
AcDbCircle
 10
10599.84723366621
 20
29886.07915154885
 30
0.0
 40
6.802823758131428
100
AcDbArc
 50
90.00001711038676
 51
114.9769598861485
  0
ARC
  5
B250
330
1F
100
AcDbEntity
  8
freecads.com
100
AcDbCircle
 10
10599.87032618638
 20
29886.02956490375
 30
0.0
 40
6.857523848011464
100
AcDbArc
 50
114.9769156489741
 51
139.8043763719553
  0
ARC
  5
B251
330
1F
100
AcDbEntity
  8
freecads.com
100
AcDbCircle
 10
10603.22920153199
 20
29883.19154114697
 30
0.0
 40
11.25484376260791
100
AcDbArc
 50
139.8044006182552
 51
158.286125410144
  0
ARC
  5
B252
330
1F
100
AcDbEntity
  8
freecads.com
100
AcDbCircle
 10
10623.74661765794
 20
29875.02094383903
 30
0.0
 40
33.33929586932033
100
AcDbArc
 50
158.2861733636713
 51
166.5098576201816
  0
LINE
  5
B253
330
1F
100
AcDbEntity
  8
freecads.com
100
AcDbLine
 10
10591.32715063467
 20
29882.79827030698
 30
0.0
 11
10590.11315163467
 21
29877.73775430698
 31
0.0
  0
LINE
  5
B254
330
1F
100
AcDbEntity
  8
freecads.com
100
AcDbLine
 10
10590.11315163467
 20
29877.73775430698
 30
0.0
 11
10588.38445363467
 21
29880.58037230698
 31
0.0
  0
ARC
  5
B255
330
1F
100
AcDbEntity
  8
freecads.com
100
AcDbCircle
 10
10599.70210264244
 20
29887.46303519433
 30
0.0
 40
13.2461400975527
100
AcDbArc
 50
203.7374104953999
 51
211.3052646065234
  0
ARC
  5
B256
330
1F
100
AcDbEntity
  8
freecads.com
100
AcDbCircle
 10
10654.15751141463
 20
29911.40968064181
 30
0.0
 40
72.73423447561025
100
AcDbArc
 50
201.5927578281326
 51
203.7373908449349
  0
ARC
  5
B257
330
1F
100
AcDbEntity
  8
freecads.com
100
AcDbCircle
 10
10662.93680872001
 20
29914.88437743598
 30
0.0
 40
82.17613995001945
100
AcDbArc
 50
199.4419443381567
 51
201.59276475575
  0
ARC
  5
B258
330
1F
100
AcDbEntity
  8
freecads.com
100
AcDbCircle
 10
10658.64227110362
 20
29913.36842060242
 30
0.0
 40
77.62189155382067
100
AcDbArc
 50
197.1971140839892
 51
199.4418909376874
  0
ARC
  5
B259
330
1F
100
AcDbEntity
  8
freecads.com
100
AcDbCircle
 10
10542.35931085917
 20
29877.37926918582
 30
0.0
 40
44.10298619472432
100
AcDbArc
 50
17.19708981648079
 51
21.13727609521221
  0
ARC
  5
B25A
330
1F
100
AcDbEntity
  8
freecads.com
100
AcDbCircle
 10
10556.44600494241
 20
29882.82539746684
 30
0.0
 40
29.00016316563571
100
AcDbArc
 50
21.13728800851584
 51
26.53172054310529
  0
ARC
  5
B25B
330
1F
100
AcDbEntity
  8
freecads.com
100
AcDbCircle
 10
10562.23402642572
 20
29885.71518669986
 30
0.0
 40
22.53084523386482
100
AcDbArc
 50
26.53175217919758
 51
32.18272075582188
  0
ARC
  5
B25C
330
1F
100
AcDbEntity
  8
freecads.com
100
AcDbCircle
 10
10578.87942226436
 20
29896.1903369811
 30
0.0
 40
2.86366505877608
100
AcDbArc
 50
32.18281566908443
 51
58.01478940014689
  0
ARC
  5
B25D
330
1F
100
AcDbEntity
  8
freecads.com
100
AcDbCircle
 10
10582.28839734316
 20
29901.64896704748
 30
0.0
 40
3.571997555864832
100
AcDbArc
 50
205.5091909522641
 51
238.0147445817184
  0
ARC
  5
B25E
330
1F
100
AcDbEntity
  8
freecads.com
100
AcDbCircle
 10
10582.34672183963
 20
29901.67679445078
 30
0.0
 40
3.636620394349484
100
AcDbArc
 50
173.4371899759814
 51
205.5091420398309
  0
ARC
  5
B25F
330
1F
100
AcDbEntity
  8
freecads.com
100
AcDbCircle
 10
10584.64710980112
 20
29901.41213722536
 30
0.0
 40
5.952182576689689
100
AcDbArc
 50
149.58884198599
 51
173.4371298608366
  0
ARC
  5
B260
330
1F
100
AcDbEntity
  8
freecads.com
100
AcDbCircle
 10
10591.52121404709
 20
29897.37731743147
 30
0.0
 40
13.92294665258941
100
AcDbArc
 50
136.9502775474916
 51
149.5888168035934
  0
ARC
  5
B261
330
1F
100
AcDbEntity
  8
freecads.com
100
AcDbCircle
 10
10573.01724118512
 20
29914.662605646
 30
0.0
 40
11.39855015024888
100
AcDbArc
 50
316.9502480853071
 51
335.2482103798613
  0
ARC
  5
B262
330
1F
100
AcDbEntity
  8
freecads.com
100
AcDbCircle
 10
10552.86630715228
 20
29923.95311399718
 30
0.0
 40
33.58804513816532
100
AcDbArc
 50
335.2481525459891
 51
343.4217099031364
  0
ARC
  5
B263
330
1F
100
AcDbEntity
  8
freecads.com
100
AcDbCircle
 10
10553.17141150943
 20
29923.86228800175
 30
0.0
 40
33.26970879059658
100
AcDbArc
 50
343.4217038008371
 51
351.4249612192924
  0
ARC
  5
B264
330
1F
100
AcDbEntity
  8
freecads.com
100
AcDbCircle
 10
10579.42008839622
 20
29919.90424065654
 30
0.0
 40
6.724291538383271
100
AcDbArc
 50
351.4249979559986
 51
17.60878161270519
  0
ARC
  5
B265
330
1F
100
AcDbEntity
  8
freecads.com
100
AcDbCircle
 10
10583.28211535439
 20
29921.12999474528
 30
0.0
 40
2.67241230627222
100
AcDbArc
 50
17.60887454664693
 51
41.74187367266768
  0
ARC
  5
B266
330
1F
100
AcDbEntity
  8
freecads.com
100
AcDbCircle
 10
10577.7319298894
 20
29916.17767686327
 30
0.0
 40
10.11082686182559
100
AcDbArc
 50
41.7418823683616
 51
50.71279634327993
  0
ARC
  5
B267
330
1F
100
AcDbEntity
  8
freecads.com
100
AcDbCircle
 10
10575.97932851556
 20
29914.03543988914
 30
0.0
 40
12.87864022781352
100
AcDbArc
 50
50.71279790288996
 51
58.91107547288729
  0
ARC
  5
B268
330
1F
100
AcDbEntity
  8
freecads.com
100
AcDbCircle
 10
10574.76114069103
 20
29912.01508246028
 30
0.0
 40
15.2378404557024
100
AcDbArc
 50
58.91119492982479
 51
66.13792188801138
  0
ARC
  5
B269
330
1F
100
AcDbEntity
  8
freecads.com
100
AcDbCircle
 10
10574.63422681546
 20
29911.7281586402
 30
0.0
 40
15.55157985443062
100
AcDbArc
 50
66.13794254534806
 51
86.83766963581874
  0
ARC
  5
B26A
330
1F
100
AcDbEntity
  8
freecads.com
100
AcDbCircle
 10
10575.10119254488
 20
29920.1801000339
 30
0.0
 40
7.08674847306842
100
AcDbArc
 50
86.83769236797095
 51
124.07289422236
  0
ARC
  5
B26B
330
1F
100
AcDbEntity
  8
freecads.com
100
AcDbCircle
 10
10575.25070479953
 20
29919.95905469731
 30
0.0
 40
7.353609776176302
100
AcDbArc
 50
124.0729314692545
 51
160.4541504933029
  0
ARC
  5
B26C
330
1F
100
AcDbEntity
  8
freecads.com
100
AcDbCircle
 10
10584.24286674126
 20
29916.76667768011
 30
0.0
 40
16.89563510659198
100
AcDbArc
 50
160.4541982030805
 51
179.999994482988
  0
ARC
  5
B26D
330
1F
100
AcDbEntity
  8
freecads.com
100
AcDbCircle
 10
10557.91165401464
 20
29916.76668444186
 30
0.0
 40
9.435577620029595
100
AcDbArc
 50
343.8254632958526
 51
359.999968819336
  0
ARC
  5
B26E
330
1F
100
AcDbEntity
  8
freecads.com
100
AcDbCircle
 10
10531.45416347755
 20
29924.44059149827
 30
0.0
 40
36.98349324045999
100
AcDbArc
 50
337.9669195010951
 51
343.8253970795376
  0
ARC
  5
B26F
330
1F
100
AcDbEntity
  8
freecads.com
100
AcDbCircle
 10
10529.60010917272
 20
29925.19092327119
 30
0.0
 40
38.9836220199887
100
AcDbArc
 50
332.552101397015
 51
337.9669198880858
  0
ARC
  5
B270
330
1F
100
AcDbEntity
  8
freecads.com
100
AcDbCircle
 10
10560.14477134606
 20
29909.3256667725
 30
0.0
 40
4.564401356930978
100
AcDbArc
 50
306.3042760941243
 51
332.5520736154861
  0
ARC
  5
B271
330
1F
100
AcDbEntity
  8
freecads.com
100
AcDbCircle
 10
10564.96400138414
 20
29902.76610129432
 30
0.0
 40
3.575185697858743
100
AcDbArc
 50
126.3042296676261
 51
133.4167061358098
  0
ARC
  5
B272
330
1F
100
AcDbEntity
  8
freecads.com
100
AcDbCircle
 10
10563.00574275798
 20
29904.83569245524
 30
0.0
 40
0.7259780149653022
100
AcDbArc
 50
133.4166971230863
 51
156.6082368106379
  0
ARC
  5
B273
330
1F
100
AcDbEntity
  8
freecads.com
100
AcDbCircle
 10
10562.47164507021
 20
29905.06672686015
 30
0.0
 40
0.1440525589683481
100
AcDbArc
 50
156.6085474458145
 51
221.2246652723999
  0
ARC
  5
B274
330
1F
100
AcDbEntity
  8
freecads.com
100
AcDbCircle
 10
10562.52776245654
 20
29905.11589440963
 30
0.0
 40
0.2186622699212087
100
AcDbArc
 50
221.2242322988572
 51
268.7013214859604
  0
ARC
  5
B275
330
1F
100
AcDbEntity
  8
freecads.com
100
AcDbCircle
 10
10562.52016392361
 20
29904.7806932756
 30
0.0
 40
0.1166249770188894
100
AcDbArc
 50
317.5704090815013
 51
88.70157186915012
  0
ARC
  5
B276
330
1F
100
AcDbEntity
  8
freecads.com
100
AcDbCircle
 10
10251.94429098588
 20
30188.6697011395
 30
0.0
 40
420.8901289396439
100
AcDbArc
 50
317.0969189144627
 51
317.5704105626412
  0
ARC
  5
B277
330
1F
100
AcDbEntity
  8
freecads.com
100
AcDbCircle
 10
10435.11656501517
 20
30018.43727246189
 30
0.0
 40
170.8278132130944
100
AcDbArc
 50
315.7002674838186
 51
317.0968921166562
  0
ARC
  5
B278
330
1F
100
AcDbEntity
  8
freecads.com
100
AcDbCircle
 10
10296.96193677507
 20
30153.25521215001
 30
0.0
 40
363.862986603579
100
AcDbArc
 50
314.9068675353503
 51
315.7002963202326
  0
ARC
  5
B279
330
1F
100
AcDbEntity
  8
freecads.com
100
AcDbCircle
 10
10650.46693229836
 20
29798.59914344267
 30
0.0
 40
136.8831655841992
100
AcDbArc
 50
134.9068737756268
 51
137.0966518293559
  0
ARC
  5
B27A
330
1F
100
AcDbEntity
  8
freecads.com
100
AcDbCircle
 10
10620.55592329277
 20
29826.39754042486
 30
0.0
 40
96.04911931760616
100
AcDbArc
 50
137.0967019746926
 51
139.9524050071196
  0
ARC
  5
B27B
330
1F
100
AcDbEntity
  8
freecads.com
100
AcDbCircle
 10
10622.19803255276
 20
29825.0174500268
 30
0.0
 40
98.19415365743397
100
AcDbArc
 50
139.9524626345435
 51
142.2698833390516
  0
ARC
  5
B27C
330
1F
100
AcDbEntity
  8
freecads.com
100
AcDbCircle
 10
10547.69269590389
 20
29882.66430075997
 30
0.0
 40
3.991156950247636
100
AcDbArc
 50
142.2698908438295
 51
165.9107190920915
  0
ARC
  5
B27D
330
1F
100
AcDbEntity
  8
freecads.com
100
AcDbCircle
 10
10548.33298582058
 20
29882.50359763351
 30
0.0
 40
4.651305927578616
100
AcDbArc
 50
165.9107100692778
 51
184.5905164494894
  0
ARC
  5
B27E
330
1F
100
AcDbEntity
  8
freecads.com
100
AcDbCircle
 10
10549.86846844176
 20
29882.6268891743
 30
0.0
 40
6.191730441777504
100
AcDbArc
 50
184.5905656693458
 51
199.6650807692066
  0
ARC
  5
B27F
330
1F
100
AcDbEntity
  8
freecads.com
100
AcDbCircle
 10
10554.80533749705
 20
29884.3911530088
 30
0.0
 40
11.43437318630904
100
AcDbArc
 50
199.6650930006001
 51
210.1962020454425
  0
ARC
  5
B280
330
1F
100
AcDbEntity
  8
freecads.com
100
AcDbCircle
 10
10584.40273534317
 20
29901.61464782219
 30
0.0
 40
45.67841986377891
100
AcDbArc
 50
210.1962284021169
 51
213.9579314427032
  0
ARC
  5
B281
330
1F
100
AcDbEntity
  8
freecads.com
100
AcDbCircle
 10
10608.03248220387
 20
29917.52774647295
 30
0.0
 40
74.16686744102512
100
AcDbArc
 50
213.9578442483543
 51
218.6192443489689
  0
ARC
  5
B282
330
1F
100
AcDbEntity
  8
freecads.com
100
AcDbCircle
 10
10612.80663348851
 20
29921.34149027917
 30
0.0
 40
80.27728169108032
100
AcDbArc
 50
218.6192236038555
 51
223.0118968163275
  0
ARC
  5
B283
330
1F
100
AcDbEntity
  8
freecads.com
100
AcDbCircle
 10
10617.65850433999
 20
29925.86774062582
 30
0.0
 40
86.91261084321558
100
AcDbArc
 50
223.0118600515127
 51
226.5490205996386
  0
ARC
  5
B284
330
1F
100
AcDbEntity
  8
freecads.com
100
AcDbCircle
 10
10560.73136047313
 20
29865.77616204154
 30
0.0
 40
4.137629565123794
100
AcDbArc
 50
226.5489922206862
 51
258.8737196079667
  0
ARC
  5
B285
330
1F
100
AcDbEntity
  8
freecads.com
100
AcDbCircle
 10
10559.38448089952
 20
29858.92767251787
 30
0.0
 40
2.842047600885157
100
AcDbArc
 50
63.80885032654776
 51
78.8737812931666
  0
ARC
  5
B286
330
1F
100
AcDbEntity
  8
freecads.com
100
AcDbCircle
 10
10558.63749067973
 20
29857.40899258982
 30
0.0
 40
4.534496451612379
100
AcDbArc
 50
53.19268447262671
 51
63.80886829303221
  0
ARC
  5
B287
330
1F
100
AcDbEntity
  8
freecads.com
100
AcDbCircle
 10
10558.67140991487
 20
29857.45432588013
 30
0.0
 40
4.477878241506545
100
AcDbArc
 50
42.52089408179769
 51
53.19264936153988
  0
ARC
  5
B288
330
1F
100
AcDbEntity
  8
freecads.com
100
AcDbCircle
 10
10560.03606543773
 20
29858.70570888396
 30
0.0
 40
2.626326427953616
100
AcDbArc
 50
26.60743924988473
 51
42.5210421242205
  0
ARC
  5
B289
330
1F
100
AcDbEntity
  8
freecads.com
100
AcDbCircle
 10
10581.71144520059
 20
29869.56342311492
 30
0.0
 40
21.61644664332503
100
AcDbArc
 50
206.6073736314531
 51
209.3297118454196
  0
ARC
  5
B28A
330
1F
100
AcDbEntity
  8
freecads.com
100
AcDbCircle
 10
10901.1977472314
 20
30049.0689455912
 30
0.0
 40
388.0775356893539
100
AcDbArc
 50
209.3297450717888
 51
209.6620603599372
  0
ARC
  5
B28B
330
1F
100
AcDbEntity
  8
freecads.com
100
AcDbCircle
 10
10902.1856531496
 20
30049.63148960225
 30
0.0
 40
389.2143795056468
100
AcDbArc
 50
209.6620500098849
 51
210.0557862193149
  0
ARC
  5
B28C
330
1F
100
AcDbEntity
  8
freecads.com
100
AcDbCircle
 10
11000.91245325219
 20
30106.75961806279
 30
0.0
 40
503.2784146784387
100
AcDbArc
 50
210.0557807172388
 51
210.3805329782404
  0
ARC
  5
B28D
330
1F
100
AcDbEntity
  8
freecads.com
100
AcDbCircle
 10
10509.31045843114
 20
29818.56301184705
 30
0.0
 40
66.57227203374941
100
AcDbArc
 50
26.73859165831729
 51
30.38046319909703
  0
ARC
  5
B28E
330
1F
100
AcDbEntity
  8
freecads.com
100
AcDbCircle
 10
10556.51782869338
 20
29842.34570920891
 30
0.0
 40
13.71252836353254
100
AcDbArc
 50
14.98535611535299
 51
26.73855292539892
  0
ARC
  5
B28F
330
1F
100
AcDbEntity
  8
freecads.com
100
AcDbCircle
 10
10556.16977225346
 20
29842.25254971395
 30
0.0
 40
14.0728365327871
100
AcDbArc
 50
3.432150515135662
 51
14.98533012261653
  0
ARC
  5
B290
330
1F
100
AcDbEntity
  8
freecads.com
100
AcDbCircle
 10
10497.9443196574
 20
29838.76050570703
 30
0.0
 40
72.4029119772967
100
AcDbArc
 50
359.9999522026414
 51
3.432171149435986
  0
ARC
  5
B291
330
1F
100
AcDbEntity
  8
freecads.com
100
AcDbCircle
 10
10514.34067940646
 20
29838.76043108267
 30
0.0
 40
56.00655222821227
100
AcDbArc
 50
356.1294797116519
 51
0.000014551671336
  0
ARC
  5
B292
330
1F
100
AcDbEntity
  8
freecads.com
100
AcDbCircle
 10
10301.89235480385
 20
29853.13378150836
 30
0.0
 40
268.9405415979547
100
AcDbArc
 50
354.9205735017504
 51
356.1295032365822
  0
ARC
  5
B293
330
1F
100
AcDbEntity
  8
freecads.com
100
AcDbCircle
 10
10269.75310064776
 20
29855.9903354896
 30
0.0
 40
301.2064920462695
100
AcDbArc
 50
353.7139670013747
 51
354.9206049685664
  0
ARC
  5
B294
330
1F
100
AcDbEntity
  8
freecads.com
100
AcDbCircle
 10
10305.51492459185
 20
29852.05102911888
 30
0.0
 40
265.2283572073112
100
AcDbArc
 50
352.3865506340578
 51
353.7139644103029
  0
ARC
  5
B295
330
1F
100
AcDbEntity
  8
freecads.com
100
AcDbCircle
 10
11090.51159940883
 20
29747.12255437417
 30
0.0
 40
526.7500290419413
100
AcDbArc
 50
172.3865503520595
 51
173.8420727654078
  0
ARC
  5
B296
330
1F
100
AcDbEntity
  8
freecads.com
100
AcDbCircle
 10
10719.99158607206
 20
29787.09863121146
 30
0.0
 40
154.0797095873597
100
AcDbArc
 50
173.8420681111709
 51
177.4772950166777
  0
ARC
  5
B297
330
1F
100
AcDbEntity
  8
freecads.com
100
AcDbCircle
 10
10705.951388596
 20
29787.71710247808
 30
0.0
 40
140.0258968712068
100
AcDbArc
 50
177.4772494373521
 51
180.4000924508618
  0
ARC
  5
B298
330
1F
100
AcDbEntity
  8
freecads.com
100
AcDbCircle
 10
10567.60925676042
 20
29786.75105145165
 30
0.0
 40
1.680392081932488
100
AcDbArc
 50
180.400030351698
 51
249.0063744643088
  0
ARC
  5
B299
330
1F
100
AcDbEntity
  8
freecads.com
100
AcDbCircle
 10
10566.60985196228
 20
29784.14664328499
 30
0.0
 40
1.109187070763603
100
AcDbArc
 50
34.73635758069958
 51
69.00644167128132
  0
ARC
  5
B29A
330
1F
100
AcDbEntity
  8
freecads.com
100
AcDbCircle
 10
10564.25755503018
 20
29782.51563664551
 30
0.0
 40
3.971613229590963
100
AcDbArc
 50
21.46876872849542
 51
34.73623543997049
  0
ARC
  5
B29B
330
1F
100
AcDbEntity
  8
freecads.com
100
AcDbCircle
 10
10562.92576592803
 20
29781.99185817508
 30
0.0
 40
5.40269886595573
100
AcDbArc
 50
9.891010820835527
 51
21.46887922496369
  0
ARC
  5
B29C
330
1F
100
AcDbEntity
  8
freecads.com
100
AcDbCircle
 10
10561.68207270184
 20
29781.77498821476
 30
0.0
 40
6.665158932834461
100
AcDbArc
 50
359.9999836000838
 51
9.891110808034831
  0
ARC
  5
B29D
330
1F
100
AcDbEntity
  8
freecads.com
100
AcDbCircle
 10
10576.48718252083
 20
29781.77498572211
 30
0.0
 40
8.139950886158452
100
AcDbArc
 50
179.9999958830851
 51
192.2036796260525
  0
ARC
  5
B29E
330
1F
100
AcDbEntity
  8
freecads.com
100
AcDbCircle
 10
10570.10739114908
 20
29780.39519616242
 30
0.0
 40
1.612657635813181
100
AcDbArc
 50
192.2036462216504
 51
232.692465145239
  0
ARC
  5
B29F
330
1F
100
AcDbEntity
  8
freecads.com
100
AcDbCircle
 10
10570.29345796322
 20
29780.63937634562
 30
0.0
 40
1.919650829851686
100
AcDbArc
 50
232.6924506500912
 51
268.7296882056459
  0
ARC
  5
B2A0
330
1F
100
AcDbEntity
  8
freecads.com
100
AcDbCircle
 10
10570.52403211475
 20
29791.03774094594
 30
0.0
 40
12.32057150067342
100
AcDbArc
 50
268.7297210070751
 51
277.8571519613339
  0
ARC
  5
B2A1
330
1F
100
AcDbEntity
  8
freecads.com
100
AcDbCircle
 10
10572.39566981059
 20
29777.47506666223
 30
0.0
 40
1.370635947561725
100
AcDbArc
 50
70.02203100792073
 51
97.85707095971657
  0
ARC
  5
B2A2
330
1F
100
AcDbEntity
  8
freecads.com
100
AcDbCircle
 10
10570.93407002603
 20
29773.45453733431
 30
0.0
 40
5.648594573695608
100
AcDbArc
 50
60.30181625750627
 51
70.0220568892872
  0
ARC
  5
B2A3
330
1F
100
AcDbEntity
  8
freecads.com
100
AcDbCircle
 10
10570.20789747512
 20
29772.18130074081
 30
0.0
 40
7.114356490438494
100
AcDbArc
 50
51.34130670162979
 51
60.30192321190767
  0
ARC
  5
B2A4
330
1F
100
AcDbEntity
  8
freecads.com
100
AcDbCircle
 10
10569.78343276415
 20
29771.65070329152
 30
0.0
 40
7.793844491837937
100
AcDbArc
 50
42.97317615200079
 51
51.34128554954403
  0
ARC
  5
B2A5
330
1F
100
AcDbEntity
  8
freecads.com
100
AcDbCircle
 10
10582.16714522665
 20
29783.18786868734
 30
0.0
 40
9.131359191558569
100
AcDbArc
 50
222.9731812103461
 51
238.2868260733722
  0
ARC
  5
B2A6
330
1F
100
AcDbEntity
  8
freecads.com
100
AcDbCircle
 10
10582.15089660123
 20
29783.16155023865
 30
0.0
 40
9.100428972997328
100
AcDbArc
 50
238.2867492666783
 51
253.6394092855641
  0
ARC
  5
B2A7
330
1F
100
AcDbEntity
  8
freecads.com
100
AcDbCircle
 10
10582.79368808387
 20
29785.35109138729
 30
0.0
 40
11.38237361117039
100
AcDbArc
 50
253.6393580149605
 51
267.1706273969844
  0
ARC
  5
B2A8
330
1F
100
AcDbEntity
  8
freecads.com
100
AcDbCircle
 10
10583.29215656174
 20
29795.4365318221
 30
0.0
 40
21.48012482552323
100
AcDbArc
 50
267.1705598232342
 51
275.5828423074217
  0
ARC
  5
B2A9
330
1F
100
AcDbEntity
  8
freecads.com
100
AcDbCircle
 10
10584.00602712073
 20
29788.1334614155
 30
0.0
 40
14.14224716651045
100
AcDbArc
 50
275.5828174288399
 51
285.8573124772363
  0
ARC
  5
B2AA
330
1F
100
AcDbEntity
  8
freecads.com
100
AcDbCircle
 10
10587.42553946963
 20
29776.09513798007
 30
0.0
 40
1.627683816543673
100
AcDbArc
 50
285.8572975568312
 51
336.2130982721351
  0
ARC
  5
B2AB
330
1F
100
AcDbEntity
  8
freecads.com
100
AcDbCircle
 10
10587.99465153836
 20
29775.84428734357
 30
0.0
 40
1.005739615989189
100
AcDbArc
 50
336.2129785251894
 51
45.81402112003432
  0
ARC
  5
B2AC
330
1F
100
AcDbEntity
  8
freecads.com
100
AcDbCircle
 10
10583.52427879275
 20
29771.24504985486
 30
0.0
 40
7.419569825944019
100
AcDbArc
 50
45.8140263464942
 51
61.84508617883878
  0
ARC
  5
B2AD
330
1F
100
AcDbEntity
  8
freecads.com
100
AcDbCircle
 10
10588.79547464052
 20
29781.09437844761
 30
0.0
 40
3.751588547011421
100
AcDbArc
 50
209.2028943737526
 51
241.8449953668373
  0
ARC
  5
B2AE
330
1F
100
AcDbEntity
  8
freecads.com
100
AcDbCircle
 10
10588.75678283811
 20
29781.07275190212
 30
0.0
 40
3.707262899311099
100
AcDbArc
 50
176.2689137881613
 51
209.2028962234238
  0
ARC
  5
B2AF
330
1F
100
AcDbEntity
  8
freecads.com
100
AcDbCircle
 10
10588.59542063623
 20
29781.0832765998
 30
0.0
 40
3.545557829966944
100
AcDbArc
 50
142.4303693055724
 51
176.2689453107789
  0
ARC
  5
B2B0
330
1F
100
AcDbEntity
  8
freecads.com
100
AcDbCircle
 10
10588.48996086945
 20
29781.16440306451
 30
0.0
 40
3.412504210375059
100
AcDbArc
 50
107.6087671034839
 51
142.4303762806279
  0
ARC
  5
B2B1
330
1F
100
AcDbEntity
  8
freecads.com
100
AcDbCircle
 10
10586.53020626631
 20
29787.33904768165
 30
0.0
 40
3.065680277000603
100
AcDbArc
 50
287.6088030307739
 51
315.8077924307832
  0
ARC
  5
B2B2
330
1F
100
AcDbEntity
  8
freecads.com
100
AcDbCircle
 10
10587.24120081425
 20
29786.64782506861
 30
0.0
 40
2.074064450188147
100
AcDbArc
 50
315.8077675598735
 51
353.5844324811995
  0
ARC
  5
B2B3
330
1F
100
AcDbEntity
  8
freecads.com
100
AcDbCircle
 10
10588.07383960296
 20
29786.55419871575
 30
0.0
 40
1.236178272709196
100
AcDbArc
 50
353.5845183082862
 51
45.98141160934531
  0
ARC
  5
B2B4
330
1F
100
AcDbEntity
  8
freecads.com
100
AcDbCircle
 10
10587.84723019043
 20
29786.31968800318
 30
0.0
 40
1.562287303803647
100
AcDbArc
 50
45.98146511678965
 51
89.99994703362139
  0
ARC
  5
B2B5
330
1F
100
AcDbEntity
  8
freecads.com
100
AcDbCircle
 10
10587.84723174817
 20
29789.09214387863
 30
0.0
 40
1.210168571647278
100
AcDbArc
 50
214.8344833475972
 51
269.9999946264996
  0
ARC
  5
B2B6
330
1F
100
AcDbEntity
  8
freecads.com
100
AcDbCircle
 10
10588.41006023444
 20
29789.4838186507
 30
0.0
 40
1.895868966892948
100
AcDbArc
 50
175.3346896370396
 51
214.8343893159921
  0
ARC
  5
B2B7
330
1F
100
AcDbEntity
  8
freecads.com
100
AcDbCircle
 10
10607.32582105077
 20
29787.940172779
 30
0.0
 40
20.87451090559917
100
AcDbArc
 50
167.4147088288139
 51
175.334644226993
  0
ARC
  5
B2B8
330
1F
100
AcDbEntity
  8
freecads.com
100
AcDbCircle
 10
11705.90193183584
 20
29542.67445062425
 30
0.0
 40
1146.496448170377
100
AcDbArc
 50
166.9679843967315
 51
167.4146617281954
  0
ARC
  5
B2B9
330
1F
100
AcDbEntity
  8
freecads.com
100
AcDbCircle
 10
9958.812243744862
 20
29947.04975816079
 30
0.0
 40
646.7803758530533
100
AcDbArc
 50
346.9680300890376
 51
348.0394533605019
  0
ARC
  5
B2BA
330
1F
100
AcDbEntity
  8
freecads.com
100
AcDbCircle
 10
10543.34218351746
 20
29823.22469642794
 30
0.0
 40
49.27899811096207
100
AcDbArc
 50
348.0394684711496
 51
355.0844003974541
  0
ARC
  5
B2BB
330
1F
100
AcDbEntity
  8
freecads.com
100
AcDbCircle
 10
10570.70058342377
 20
29820.87178222407
 30
0.0
 40
21.81960535215324
100
AcDbArc
 50
355.0843175292497
 51
7.183787293742649
  0
ARC
  5
B2BC
330
1F
100
AcDbEntity
  8
freecads.com
100
AcDbCircle
 10
10549.3561576483
 20
29818.18151215545
 30
0.0
 40
43.33290506946062
100
AcDbArc
 50
7.183758333891431
 51
14.4251384028771
  0
ARC
  5
B2BD
330
1F
100
AcDbEntity
  8
freecads.com
100
AcDbCircle
 10
10643.14253119283
 20
29842.30568488141
 30
0.0
 40
53.50644422796753
100
AcDbArc
 50
190.6618922973005
 51
194.4251991874643
  0
ARC
  5
B2BE
330
1F
100
AcDbEntity
  8
freecads.com
100
AcDbCircle
 10
10621.74064197322
 20
29838.27650179237
 30
0.0
 40
31.7285844035166
100
AcDbArc
 50
185.0959086167167
 51
190.661901166565
  0
ARC
  5
B2BF
330
1F
100
AcDbEntity
  8
freecads.com
100
AcDbCircle
 10
10616.75644404701
 20
29837.83203366523
 30
0.0
 40
26.72460789641383
100
AcDbArc
 50
178.9882517438488
 51
185.095910629245
  0
ARC
  5
B2C0
330
1F
100
AcDbEntity
  8
freecads.com
100
AcDbCircle
 10
10615.39930857138
 20
29837.85599853053
 30
0.0
 40
25.3672608464655
100
AcDbArc
 50
172.6371457872473
 51
178.9882463619028
  0
ARC
  5
B2C1
330
1F
100
AcDbEntity
  8
freecads.com
100
AcDbCircle
 10
10950.55370369801
 20
29794.54771896334
 30
0.0
 40
363.308195998995
100
AcDbArc
 50
172.0909633506142
 51
172.6371056871361
  0
ARC
  5
B2C2
330
1F
100
AcDbEntity
  8
freecads.com
100
AcDbCircle
 10
10592.20665701407
 20
29844.33008833287
 30
0.0
 40
1.519735476619838
100
AcDbArc
 50
145.8558246695457
 51
172.0909554623937
  0
ARC
  5
B2C3
330
1F
100
AcDbEntity
  8
freecads.com
100
AcDbCircle
 10
10591.08021357311
 20
29845.09401489352
 30
0.0
 40
0.1586849207115294
100
AcDbArc
 50
18.85024260537723
 51
145.8557483543765
  0
ARC
  5
B2C4
330
1F
100
AcDbEntity
  8
freecads.com
100
AcDbCircle
 10
10555.83839428616
 20
29833.06223746581
 30
0.0
 40
37.39777049922179
100
AcDbArc
 50
16.01835393794656
 51
18.85022559562202
  0
ARC
  5
B2C5
330
1F
100
AcDbEntity
  8
freecads.com
100
AcDbCircle
 10
10578.48083619617
 20
29839.56269721077
 30
0.0
 40
13.84068764621516
100
AcDbArc
 50
10.30236244351309
 51
16.01837900511817
  0
ARC
  5
B2C6
330
1F
100
AcDbEntity
  8
freecads.com
100
AcDbCircle
 10
10568.86251731037
 20
29837.81436603575
 30
0.0
 40
23.61661318224768
100
AcDbArc
 50
6.47140947770129
 51
10.30230683035598
  0
ARC
  5
B2C7
330
1F
100
AcDbEntity
  8
freecads.com
100
AcDbCircle
 10
10569.67865114812
 20
29837.90693550642
 30
0.0
 40
22.79524630441426
100
AcDbArc
 50
2.608447320020109
 51
6.471421269710222
  0
ARC
  5
B2C8
330
1F
100
AcDbEntity
  8
freecads.com
100
AcDbCircle
 10
10582.62445152986
 20
29838.49670997447
 30
0.0
 40
9.836018648151927
100
AcDbArc
 50
355.3686901890619
 51
2.60846757685868
  0
ARC
  5
B2C9
330
1F
100
AcDbEntity
  8
freecads.com
100
AcDbCircle
 10
10601.27622137449
 20
29836.98577668628
 30
0.0
 40
8.876849591070513
100
AcDbArc
 50
175.3687631903525
 51
186.1532583479972
  0
ARC
  5
B2CA
330
1F
100
AcDbEntity
  8
freecads.com
100
AcDbCircle
 10
10782.67132277352
 20
29856.54181154579
 30
0.0
 40
191.3230644353139
100
AcDbArc
 50
186.1532390779278
 51
187.3122082264801
  0
ARC
  5
B2CB
330
1F
100
AcDbEntity
  8
freecads.com
100
AcDbCircle
 10
10778.15461011041
 20
29855.96226057717
 30
0.0
 40
186.7693217322963
100
AcDbArc
 50
187.3122178055316
 51
188.7294681416208
  0
ARC
  5
B2CC
330
1F
100
AcDbEntity
  8
freecads.com
100
AcDbCircle
 10
10842.57454434956
 20
29865.85398577038
 30
0.0
 40
251.944272094
100
AcDbArc
 50
188.7295084543671
 51
189.8618930256907
  0
ARC
  5
B2CD
330
1F
100
AcDbEntity
  8
freecads.com
100
AcDbCircle
 10
10435.55857710335
 20
29795.09715008268
 30
0.0
 40
161.1762035422475
100
AcDbArc
 50
7.666648087658503
 51
9.861926032895015
  0
ARC
  5
B2CE
330
1F
100
AcDbEntity
  8
freecads.com
100
AcDbCircle
 10
10486.33794715283
 20
29801.93258728363
 30
0.0
 40
109.9388380329386
100
AcDbArc
 50
4.742485107587135
 51
7.66670299613704
  0
ARC
  5
B2CF
330
1F
100
AcDbEntity
  8
freecads.com
100
AcDbCircle
 10
10500.73397404045
 20
29803.12681378232
 30
0.0
 40
95.49336237202906
100
AcDbArc
 50
1.594906657713267
 51
4.742538860288036
  0
ARC
  5
B2D0
330
1F
100
AcDbEntity
  8
freecads.com
100
AcDbCircle
 10
10512.46221178909
 20
29803.4534298845
 30
0.0
 40
83.76057758908705
100
AcDbArc
 50
358.1220903691666
 51
1.594865522655575
  0
ARC
  5
B2D1
330
1F
100
AcDbEntity
  8
freecads.com
100
AcDbCircle
 10
10744.15440458397
 20
29795.85669798991
 30
0.0
 40
148.056122710061
100
AcDbArc
 50
178.122037661398
 51
179.5748099880656
  0
ARC
  5
B2D2
330
1F
100
AcDbEntity
  8
freecads.com
100
AcDbCircle
 10
10681.14765799593
 20
29796.32421254035
 30
0.0
 40
85.04764165031559
100
AcDbArc
 50
179.5747662430512
 51
181.775085753038
  0
ARC
  5
B2D3
330
1F
100
AcDbEntity
  8
freecads.com
100
AcDbCircle
 10
10737.43248228726
 20
29798.06850010151
 30
0.0
 40
141.3594875142285
100
AcDbArc
 50
181.7750712433891
 51
182.886371472848
  0
ARC
  5
B2D4
330
1F
100
AcDbEntity
  8
freecads.com
100
AcDbCircle
 10
10597.09136770966
 20
29790.99259398564
 30
0.0
 40
0.8401049072519246
100
AcDbArc
 50
182.8864313145868
 51
225.0000773377784
  0
ARC
  5
B2D5
330
1F
100
AcDbEntity
  8
freecads.com
100
AcDbCircle
 10
10596.11694935086
 20
29790.01817538942
 30
0.0
 40
0.5379309190741789
100
AcDbArc
 50
354.5546028705992
 51
44.99989710060785
  0
ARC
  5
B2D6
330
1F
100
AcDbEntity
  8
freecads.com
100
AcDbCircle
 10
10590.08221193362
 20
29790.59345120679
 30
0.0
 40
6.600026098226249
100
AcDbArc
 50
346.4986929111983
 51
354.5545977689179
  0
ARC
  5
B2D7
330
1F
100
AcDbEntity
  8
freecads.com
100
AcDbCircle
 10
10587.8831546181
 20
29791.12145947641
 30
0.0
 40
8.861584368463574
100
AcDbArc
 50
338.8609629196182
 51
346.4986409857747
  0
ARC
  5
B2D8
330
1F
100
AcDbEntity
  8
freecads.com
100
AcDbCircle
 10
10582.93368281944
 20
29793.03521293193
 30
0.0
 40
14.16815796858572
100
AcDbArc
 50
333.4870100200967
 51
338.8608274558495
  0
ARC
  5
B2D9
330
1F
100
AcDbEntity
  8
freecads.com
100
AcDbCircle
 10
10621.68235276949
 20
29773.70483996141
 30
0.0
 40
29.1345295008774
100
AcDbArc
 50
153.4869594666476
 51
157.1446406325291
  0
ARC
  5
B2DA
330
1F
100
AcDbEntity
  8
freecads.com
100
AcDbCircle
 10
10597.35324060633
 20
29783.95952716215
 30
0.0
 40
2.732554040072602
100
AcDbArc
 50
157.1446075776303
 51
177.9075276608669
  0
ARC
  5
B2DB
330
1F
100
AcDbEntity
  8
freecads.com
100
AcDbCircle
 10
10595.70084109888
 20
29784.01990150793
 30
0.0
 40
1.07905194032971
100
AcDbArc
 50
177.9075803852824
 51
216.2217177379666
  0
ARC
  5
B2DC
330
1F
100
AcDbEntity
  8
freecads.com
100
AcDbCircle
 10
10596.72528608567
 20
29784.77027278354
 30
0.0
 40
2.348912004361071
100
AcDbArc
 50
216.2216076794165
 51
237.6505874966499
  0
ARC
  5
B2DD
330
1F
100
AcDbEntity
  8
freecads.com
100
AcDbCircle
 10
10598.45856679122
 20
29787.50681871289
 30
0.0
 40
5.588193657390716
100
AcDbArc
 50
237.6505599292569
 51
258.5498569647696
  0
ARC
  5
B2DE
330
1F
100
AcDbEntity
  8
freecads.com
100
AcDbCircle
 10
10598.48721626515
 20
29787.64825950079
 30
0.0
 40
5.732506819772282
100
AcDbArc
 50
258.5498455079116
 51
279.0533814808086
  0
ARC
  5
B2DF
330
1F
100
AcDbEntity
  8
freecads.com
100
AcDbCircle
 10
10598.6136992282
 20
29786.85448180749
 30
0.0
 40
4.928715201056797
100
AcDbArc
 50
279.0533503200971
 51
301.3276175568712
  0
ARC
  5
B2E0
330
1F
100
AcDbEntity
  8
freecads.com
100
AcDbCircle
 10
10599.49330935487
 20
29785.40934878847
 30
0.0
 40
3.236934063444909
100
AcDbArc
 50
301.3276007504549
 51
331.8450239409599
  0
ARC
  5
B2E1
330
1F
100
AcDbEntity
  8
freecads.com
100
AcDbCircle
 10
10606.5911928126
 20
29781.61067773374
 30
0.0
 40
4.813522529914813
100
AcDbArc
 50
129.8461960576011
 51
151.8450497238177
  0
ARC
  5
B2E2
330
1F
100
AcDbEntity
  8
freecads.com
100
AcDbCircle
 10
10605.11133854245
 20
29783.38395373789
 30
0.0
 40
2.503873974891276
100
AcDbArc
 50
93.98326610510123
 51
129.8463270577883
  0
ARC
  5
B2E3
330
1F
100
AcDbEntity
  8
freecads.com
100
AcDbCircle
 10
10605.00220107891
 20
29784.95128750465
 30
0.0
 40
0.9327450424487068
100
AcDbArc
 50
26.69551247609085
 51
93.98333983143796
  0
ARC
  5
B2E4
330
1F
100
AcDbEntity
  8
freecads.com
100
AcDbCircle
 10
10604.35322520176
 20
29784.62494912227
 30
0.0
 40
1.659151560140095
100
AcDbArc
 50
342.7150520628341
 51
26.69554963844502
  0
ARC
  5
B2E5
330
1F
100
AcDbEntity
  8
freecads.com
100
AcDbCircle
 10
10610.15200947031
 20
29782.82050188408
 30
0.0
 40
4.413897824532839
100
AcDbArc
 50
162.7150756215001
 51
186.5443196524523
  0
ARC
  5
B2E6
330
1F
100
AcDbEntity
  8
freecads.com
100
AcDbCircle
 10
10608.11449750806
 20
29782.58676051945
 30
0.0
 40
2.363022396366534
100
AcDbArc
 50
186.5443308478061
 51
224.5629217673393
  0
ARC
  5
B2E7
330
1F
100
AcDbEntity
  8
freecads.com
100
AcDbCircle
 10
10608.44595509163
 20
29782.91319730344
 30
0.0
 40
2.828237511815879
100
AcDbArc
 50
224.5628933311629
 51
258.5456312815481
  0
ARC
  5
B2E8
330
1F
100
AcDbEntity
  8
freecads.com
100
AcDbCircle
 10
10609.20274733673
 20
29786.64822501283
 30
0.0
 40
6.639164760153538
100
AcDbArc
 50
258.5457198135351
 51
276.5123036785363
  0
ARC
  5
B2E9
330
1F
100
AcDbEntity
  8
freecads.com
100
AcDbCircle
 10
10608.99387943033
 20
29788.47780726069
 30
0.0
 40
8.48063075327189
100
AcDbArc
 50
276.5124066896586
 51
286.309513315706
  0
ARC
  5
B2EA
330
1F
100
AcDbEntity
  8
freecads.com
100
AcDbCircle
 10
10610.67791401155
 20
29782.7223997332
 30
0.0
 40
2.483907624914229
100
AcDbArc
 50
286.3095519364965
 51
310.7527920957198
  0
ARC
  5
B2EB
330
1F
100
AcDbEntity
  8
freecads.com
100
AcDbCircle
 10
10610.93728916943
 20
29782.42140809559
 30
0.0
 40
2.086577235396835
100
AcDbArc
 50
310.7528209786355
 51
338.0321827579355
  0
ARC
  5
B2EC
330
1F
100
AcDbEntity
  8
freecads.com
100
AcDbCircle
 10
10608.1167171529
 20
29783.55915974629
 30
0.0
 40
5.127975814846791
100
AcDbArc
 50
338.0320886240495
 51
351.9696121767792
  0
ARC
  5
B2ED
330
1F
100
AcDbEntity
  8
freecads.com
100
AcDbCircle
 10
10619.15644703403
 20
29782.00165580579
 30
0.0
 40
6.021080395122257
100
AcDbArc
 50
162.0112325507964
 51
171.9696133153976
  0
ARC
  5
B2EE
330
1F
100
AcDbEntity
  8
freecads.com
100
AcDbCircle
 10
10620.61932791788
 20
29781.5266591624
 30
0.0
 40
7.559144857867477
100
AcDbArc
 50
153.6145504913031
 51
162.0112694720685
  0
ARC
  5
B2EF
330
1F
100
AcDbEntity
  8
freecads.com
100
AcDbCircle
 10
10619.87836702133
 20
29781.89424165446
 30
0.0
 40
6.732017335239625
100
AcDbArc
 50
144.8642451881652
 51
153.6145567240938
  0
ARC
  5
B2F0
330
1F
100
AcDbEntity
  8
freecads.com
100
AcDbCircle
 10
10616.45781957749
 20
29784.30143568798
 30
0.0
 40
2.549347382854048
100
AcDbArc
 50
126.7995424888427
 51
144.8642951592676
  0
ARC
  5
B2F1
330
1F
100
AcDbEntity
  8
freecads.com
100
AcDbCircle
 10
10613.84354430057
 20
29787.79606579838
 30
0.0
 40
1.814925160426436
100
AcDbArc
 50
306.7995794679419
 51
352.4235026110115
  0
ARC
  5
B2F2
330
1F
100
AcDbEntity
  8
freecads.com
100
AcDbCircle
 10
10591.40364270401
 20
29790.78078619867
 30
0.0
 40
24.45245460891405
100
AcDbArc
 50
352.4235805699941
 51
359.2411417716587
  0
ARC
  5
B2F3
330
1F
100
AcDbEntity
  8
freecads.com
100
AcDbCircle
 10
10542.25723349105
 20
29791.43176953527
 30
0.0
 40
73.60317502919063
100
AcDbArc
 50
359.2411246571652
 51
3.080957648512108
  0
ARC
  5
B2F4
330
1F
100
AcDbEntity
  8
freecads.com
100
AcDbCircle
 10
9683.92556241033
 20
29745.23185392138
 30
0.0
 40
933.1773078315526
100
AcDbArc
 50
3.080984229996149
 51
3.679379991420907
  0
LINE
  5
B2F5
330
1F
100
AcDbEntity
  8
freecads.com
100
AcDbLine
 10
10615.17938463467
 20
29805.11679730698
 30
0.0
 11
10614.03892163467
 21
29822.85161830698
 31
0.0
  0
LINE
  5
B2F6
330
1F
100
AcDbEntity
  8
freecads.com
100
AcDbLine
 10
10614.03892163467
 20
29822.85161830698
 30
0.0
 11
10616.44715763467
 21
29824.74593630698
 31
0.0
  0
ARC
  5
B2F7
330
1F
100
AcDbEntity
  8
freecads.com
100
AcDbCircle
 10
10612.72568017969
 20
29829.47702939735
 30
0.0
 40
6.019355138023811
100
AcDbArc
 50
308.1885874424864
 51
327.6556594246676
  0
ARC
  5
B2F8
330
1F
100
AcDbEntity
  8
freecads.com
100
AcDbCircle
 10
10613.28925329765
 20
29829.12014920989
 30
0.0
 40
5.352288329189432
100
AcDbArc
 50
327.6555989013311
 51
348.9148595400765
  0
ARC
  5
B2F9
330
1F
100
AcDbEntity
  8
freecads.com
100
AcDbCircle
 10
10598.84624222285
 20
29831.94987571677
 30
0.0
 40
20.06989414706798
100
AcDbArc
 50
348.9148311410582
 51
357.7578251621759
  0
ARC
  5
B2FA
330
1F
100
AcDbEntity
  8
freecads.com
100
AcDbCircle
 10
10169.73797136055
 20
29848.75034126135
 30
0.0
 40
449.5069253459726
100
AcDbArc
 50
357.7578950587906
 51
358.6831022802662
  0
ARC
  5
B2FB
330
1F
100
AcDbEntity
  8
freecads.com
100
AcDbCircle
 10
10435.49122287186
 20
29842.641031001
 30
0.0
 40
183.6834606919661
100
AcDbArc
 50
358.683136041799
 51
0.5220619155891362
  0
ARC
  5
B2FC
330
1F
100
AcDbEntity
  8
freecads.com
100
AcDbCircle
 10
10555.18473719484
 20
29843.73164093564
 30
0.0
 40
63.98497782350165
100
AcDbArc
 50
0.5220901767535872
 51
4.560337112200016
  0
ARC
  5
B2FD
330
1F
100
AcDbEntity
  8
freecads.com
100
AcDbCircle
 10
10577.76767763234
 20
29845.5329029345
 30
0.0
 40
41.33031508948941
100
AcDbArc
 50
4.560316280127767
 51
9.704384082802524
  0
ARC
  5
B2FE
330
1F
100
AcDbEntity
  8
freecads.com
100
AcDbCircle
 10
10590.41300441474
 20
29847.69543580973
 30
0.0
 40
28.5014087499435
100
AcDbArc
 50
9.704321225573991
 51
16.50058719363392
  0
ARC
  5
B2FF
330
1F
100
AcDbEntity
  8
freecads.com
100
AcDbCircle
 10
10703.63323053627
 20
29881.23405083713
 30
0.0
 40
89.58185975565669
100
AcDbArc
 50
191.4502052463868
 51
196.5005835142203
  0
ARC
  5
B300
330
1F
100
AcDbEntity
  8
freecads.com
100
AcDbCircle
 10
10622.8562517086
 20
29864.87288027655
 30
0.0
 40
7.16457873621161
100
AcDbArc
 50
159.3665419304901
 51
191.4501795677567
  0
ARC
  5
B301
330
1F
100
AcDbEntity
  8
freecads.com
100
AcDbCircle
 10
10622.09175471728
 20
29865.16073695417
 30
0.0
 40
6.347683934835661
100
AcDbArc
 50
124.4129763560904
 51
159.3664704231991
  0
ARC
  5
B302
330
1F
100
AcDbEntity
  8
freecads.com
100
AcDbCircle
 10
10655.09722809127
 20
29816.9809204294
 30
0.0
 40
64.74850578694223
100
AcDbArc
 50
118.0573207756124
 51
124.4130014909396
  0
ARC
  5
B303
330
1F
100
AcDbEntity
  8
freecads.com
100
AcDbCircle
 10
10610.07748905476
 20
29901.44675907659
 30
0.0
 40
30.96593827082996
100
AcDbArc
 50
298.057329577125
 51
303.7140242454605
  0
ARC
  5
B304
330
1F
100
AcDbEntity
  8
freecads.com
100
AcDbCircle
 10
10590.64639597743
 20
29930.56694954076
 30
0.0
 40
65.97383553486132
100
AcDbArc
 50
303.7140535308244
 51
306.9269903449116
  0
ARC
  5
B305
330
1F
100
AcDbEntity
  8
freecads.com
100
AcDbCircle
 10
10590.06653739152
 20
29931.33848384916
 30
0.0
 40
66.93897861682216
100
AcDbArc
 50
306.9269942494271
 51
310.1296198434594
  0
ARC
  5
B306
330
1F
100
AcDbEntity
  8
freecads.com
100
AcDbCircle
 10
10610.16905448683
 20
29907.49110143806
 30
0.0
 40
35.74909497770063
100
AcDbArc
 50
310.1295253153442
 51
315.2511444361812
  0
ARC
  5
B307
330
1F
100
AcDbEntity
  8
freecads.com
100
AcDbCircle
 10
10691.15230133313
 20
29827.21455437633
 30
0.0
 40
78.27989378361279
100
AcDbArc
 50
133.0697654957447
 51
135.2510645452841
  0
ARC
  5
B308
330
1F
100
AcDbEntity
  8
freecads.com
100
AcDbCircle
 10
10646.00364278892
 20
29875.51251179741
 30
0.0
 40
12.16564373576306
100
AcDbArc
 50
124.4384220161349
 51
133.06972962375
  0
ARC
  5
B309
330
1F
100
AcDbEntity
  8
freecads.com
100
AcDbCircle
 10
10639.70041931519
 20
29884.7049087136
 30
0.0
 40
1.019757175037038
100
AcDbArc
 50
85.51290092001194
 51
124.4384499043572
  0
ARC
  5
B30A
330
1F
100
AcDbEntity
  8
freecads.com
100
AcDbCircle
 10
10639.75918092189
 20
29885.45370151304
 30
0.0
 40
0.2686622523283023
100
AcDbArc
 50
344.5156368823159
 51
85.51289612859791
  0
ARC
  5
B30B
330
1F
100
AcDbEntity
  8
freecads.com
100
AcDbCircle
 10
10661.44776617381
 20
29879.44527194484
 30
0.0
 40
22.23680277520649
100
AcDbArc
 50
164.5155712133866
 51
167.7754811980338
  0
ARC
  5
B30C
330
1F
100
AcDbEntity
  8
freecads.com
100
AcDbCircle
 10
11015.36235541311
 20
29802.76758508835
 30
0.0
 40
384.3624772834974
100
AcDbArc
 50
167.7754669594675
 51
168.1841000259598
  0
ARC
  5
B30D
330
1F
100
AcDbEntity
  8
freecads.com
100
AcDbCircle
 10
11019.0658453025
 20
29801.99286244955
 30
0.0
 40
388.1461306140213
100
AcDbArc
 50
168.1841071592486
 51
168.6647034533702
  0
ARC
  5
B30E
330
1F
100
AcDbEntity
  8
freecads.com
100
AcDbCircle
 10
11127.3792990623
 20
29780.28002013958
 30
0.0
 40
498.6144599509612
100
AcDbArc
 50
168.6646718756012
 51
169.0629917339184
  0
ARC
  5
B30F
330
1F
100
AcDbEntity
  8
freecads.com
100
AcDbCircle
 10
10102.96304180225
 20
29978.23823658551
 30
0.0
 40
544.7532238486233
100
AcDbArc
 50
348.2610389457519
 51
349.062947403336
  0
ARC
  5
B310
330
1F
100
AcDbEntity
  8
freecads.com
100
AcDbCircle
 10
10531.21004902441
 20
29889.24891559312
 30
0.0
 40
107.3579810242769
100
AcDbArc
 50
345.5885983678722
 51
348.260981582623
  0
ARC
  5
B311
330
1F
100
AcDbEntity
  8
freecads.com
100
AcDbCircle
 10
10563.20229669968
 20
29881.02791373454
 30
0.0
 40
74.3263479602832
100
AcDbArc
 50
342.2203092403519
 51
345.5886001713608
  0
ARC
  5
B312
330
1F
100
AcDbEntity
  8
freecads.com
100
AcDbCircle
 10
10489.70886132238
 20
29904.59542789164
 30
0.0
 40
151.5060912035657
100
AcDbArc
 50
340.2431644528004
 51
342.2202781643473
  0
ARC
  5
B313
330
1F
100
AcDbEntity
  8
freecads.com
100
AcDbCircle
 10
10742.15936951801
 20
29813.92245349449
 30
0.0
 40
116.7341879758694
100
AcDbArc
 50
160.2431744020203
 51
165.1643545585455
  0
ARC
  5
B314
330
1F
100
AcDbEntity
  8
freecads.com
100
AcDbCircle
 10
10758.38649094672
 20
29809.62449794996
 30
0.0
 40
133.5208461209257
100
AcDbArc
 50
165.1644527731951
 51
169.6139422504858
  0
ARC
  5
B315
330
1F
100
AcDbEntity
  8
freecads.com
100
AcDbCircle
 10
10765.17153242066
 20
29808.38098495465
 30
0.0
 40
140.4188974666465
100
AcDbArc
 50
169.613969761238
 51
173.9534917854905
  0
ARC
  5
B316
330
1F
100
AcDbEntity
  8
freecads.com
100
AcDbCircle
 10
10775.05569032362
 20
29807.33385519762
 30
0.0
 40
150.358367178749
100
AcDbArc
 50
173.953434796082
 51
178.0759943864074
  0
ARC
  5
B317
330
1F
100
AcDbEntity
  8
freecads.com
100
AcDbCircle
 10
9470.23197410499
 20
29851.16763585264
 30
0.0
 40
1155.201409596423
100
AcDbArc
 50
357.256159330595
 51
358.075943847702
  0
ARC
  5
B318
330
1F
100
AcDbEntity
  8
freecads.com
100
AcDbCircle
 10
10595.77609865693
 20
29797.2251413454
 30
0.0
 40
28.36541042570929
100
AcDbArc
 50
345.4136063152552
 51
357.2561764663603
  0
ARC
  5
B319
330
1F
100
AcDbEntity
  8
freecads.com
100
AcDbCircle
 10
10613.0188270063
 20
29792.73811935233
 30
0.0
 40
10.54842282128324
100
AcDbArc
 50
321.0866108199696
 51
345.413606046445
  0
ARC
  5
B31A
330
1F
100
AcDbEntity
  8
freecads.com
100
AcDbCircle
 10
10581.12269701059
 20
29818.487334844
 30
0.0
 40
51.54092466173429
100
AcDbArc
 50
313.5831099383
 51
321.0866331941515
  0
ARC
  5
B31B
330
1F
100
AcDbEntity
  8
freecads.com
100
AcDbCircle
 10
10946.15529054392
 20
29434.939762105
 30
0.0
 40
477.9470684936148
100
AcDbArc
 50
133.5831719042732
 51
134.3083048701043
  0
ARC
  5
B31C
330
1F
100
AcDbEntity
  8
freecads.com
100
AcDbCircle
 10
10616.45309764277
 20
29772.70019408899
 30
0.0
 40
5.945325469466341
100
AcDbArc
 50
134.3083063826556
 51
150.9780459618194
  0
ARC
  5
B31D
330
1F
100
AcDbEntity
  8
freecads.com
100
AcDbCircle
 10
10611.86570748583
 20
29775.24532513876
 30
0.0
 40
0.6991992307458931
100
AcDbArc
 50
150.9781061103347
 51
227.8666296395785
  0
ARC
  5
B31E
330
1F
100
AcDbEntity
  8
freecads.com
100
AcDbCircle
 10
10614.08513196371
 20
29777.69872752254
 30
0.0
 40
4.007526341191569
100
AcDbArc
 50
227.8665405148634
 51
249.1832856455466
  0
ARC
  5
B31F
330
1F
100
AcDbEntity
  8
freecads.com
100
AcDbCircle
 10
10614.87249929053
 20
29779.76962280494
 30
0.0
 40
6.223052142863354
100
AcDbArc
 50
249.183142510024
 51
260.7077467863801
  0
ARC
  5
B320
330
1F
100
AcDbEntity
  8
freecads.com
100
AcDbCircle
 10
10615.56406054096
 20
29783.99636451827
 30
0.0
 40
10.50599534516934
100
AcDbArc
 50
260.7077868969976
 51
268.493349689524
  0
ARC
  5
B321
330
1F
100
AcDbEntity
  8
freecads.com
100
AcDbCircle
 10
10615.57157194956
 20
29784.28206635557
 30
0.0
 40
10.7917959069051
100
AcDbArc
 50
268.4933663625289
 51
276.1951438600892
  0
ARC
  5
B322
330
1F
100
AcDbEntity
  8
freecads.com
100
AcDbCircle
 10
10615.93518191015
 20
29780.93236437853
 30
0.0
 40
7.422416804099108
100
AcDbArc
 50
276.1951198426077
 51
286.3907043053672
  0
ARC
  5
B323
330
1F
100
AcDbEntity
  8
freecads.com
100
AcDbCircle
 10
10606.93605460433
 20
29811.52688576653
 30
0.0
 40
39.31299583970762
100
AcDbArc
 50
286.3907928961356
 51
292.3401958047317
  0
ARC
  5
B324
330
1F
100
AcDbEntity
  8
freecads.com
100
AcDbCircle
 10
10575.82204517538
 20
29887.23939432281
 30
0.0
 40
121.1693672143949
100
AcDbArc
 50
292.340186307172
 51
294.9110546866472
  0
ARC
  5
B325
330
1F
100
AcDbEntity
  8
freecads.com
100
AcDbCircle
 10
10476.80068238535
 20
30100.45604174679
 30
0.0
 40
356.2577953163389
100
AcDbArc
 50
294.910979373593
 51
295.8054765413628
  0
ARC
  5
B326
330
1F
100
AcDbEntity
  8
freecads.com
100
AcDbCircle
 10
10631.53010126459
 20
29780.46092736108
 30
0.0
 40
0.8171303700858064
100
AcDbArc
 50
295.8054378804507
 51
359.9999260885486
  0
ARC
  5
B327
330
1F
100
AcDbEntity
  8
freecads.com
100
AcDbCircle
 10
10630.40193650551
 20
29780.46092487316
 30
0.0
 40
1.945295129162178
100
AcDbArc
 50
0.0000422311546872
 51
13.02697243871018
  0
ARC
  5
B328
330
1F
100
AcDbEntity
  8
freecads.com
100
AcDbCircle
 10
10574.056221728
 20
29767.42465036315
 30
0.0
 40
59.77940294529419
100
AcDbArc
 50
13.02687834913124
 51
14.12167777638933
  0
ARC
  5
B329
330
1F
100
AcDbEntity
  8
freecads.com
100
AcDbCircle
 10
10579.48430995955
 20
29768.7902600063
 30
0.0
 40
54.1821686687357
100
AcDbArc
 50
14.12169354045944
 51
15.56690312659842
  0
ARC
  5
B32A
330
1F
100
AcDbEntity
  8
freecads.com
100
AcDbCircle
 10
10557.20377755981
 20
29762.58322569995
 30
0.0
 40
77.31114181699543
100
AcDbArc
 50
15.56695259950336
 51
16.67412762968179
  0
ARC
  5
B32B
330
1F
100
AcDbEntity
  8
freecads.com
100
AcDbCircle
 10
10641.43412726917
 20
29787.8120993536
 30
0.0
 40
10.61637309156027
100
AcDbArc
 50
183.2655589120105
 51
196.6741816048339
  0
ARC
  5
B32C
330
1F
100
AcDbEntity
  8
freecads.com
100
AcDbCircle
 10
10650.05729948071
 20
29788.30413895251
 30
0.0
 40
19.25357182472862
100
AcDbArc
 50
174.6787426656611
 51
183.2656514576427
  0
ARC
  5
B32D
330
1F
100
AcDbEntity
  8
freecads.com
100
AcDbCircle
 10
10676.51819380959
 20
29785.83958339637
 30
0.0
 40
45.82899209934125
100
AcDbArc
 50
169.5395468909401
 51
174.678804270076
  0
ARC
  5
B32E
330
1F
100
AcDbEntity
  8
freecads.com
100
AcDbCircle
 10
10945.85171465586
 20
29736.1138710853
 30
0.0
 40
319.7143548266908
100
AcDbArc
 50
168.3141241352524
 51
169.5395545890247
  0
ARC
  5
B32F
330
1F
100
AcDbEntity
  8
freecads.com
100
AcDbCircle
 10
10331.01604031936
 20
29863.28192983258
 30
0.0
 40
308.1348480894443
100
AcDbArc
 50
348.3141663077612
 51
349.2599996659465
  0
ARC
  5
B330
330
1F
100
AcDbEntity
  8
freecads.com
100
AcDbCircle
 10
10405.96039096561
 20
29849.0667764076
 30
0.0
 40
231.8542720515289
100
AcDbArc
 50
349.2600178058077
 51
350.4306749914864
  0
ARC
  5
B331
330
1F
100
AcDbEntity
  8
freecads.com
100
AcDbCircle
 10
10402.78993073243
 20
29849.60146694755
 30
0.0
 40
235.0695033072719
100
AcDbArc
 50
350.4306285730101
 51
351.3993798431528
  0
ARC
  5
B332
330
1F
100
AcDbEntity
  8
freecads.com
100
AcDbCircle
 10
10623.67924060892
 20
29816.19265864856
 30
0.0
 40
11.66799102574398
100
AcDbArc
 50
351.3993578692274
 51
359.9999983226766
  0
LINE
  5
B333
330
1F
100
AcDbEntity
  8
freecads.com
100
AcDbLine
 10
10635.34723163467
 20
29816.19265830698
 30
0.0
 11
10635.34723163467
 21
29819.02588830698
 31
0.0
  0
LINE
  5
B334
330
1F
100
AcDbEntity
  8
freecads.com
100
AcDbLine
 10
10635.34723163467
 20
29819.02588830698
 30
0.0
 11
10640.69029763467
 21
29818.35831630698
 31
0.0
  0
LINE
  5
B335
330
1F
100
AcDbEntity
  8
freecads.com
100
AcDbLine
 10
10640.69029763467
 20
29818.35831630698
 30
0.0
 11
10646.03336263467
 21
29817.69074430698
 31
0.0
  0
LINE
  5
B336
330
1F
100
AcDbEntity
  8
freecads.com
100
AcDbLine
 10
10646.03336263467
 20
29817.69074430698
 30
0.0
 11
10647.33315263467
 21
29823.81563230698
 31
0.0
  0
ARC
  5
B337
330
1F
100
AcDbEntity
  8
freecads.com
100
AcDbCircle
 10
10707.05101627274
 20
29811.1426670958
 30
0.0
 40
61.04774594314518
100
AcDbArc
 50
165.7229019155925
 51
168.0187815891944
  0
ARC
  5
B338
330
1F
100
AcDbEntity
  8
freecads.com
100
AcDbCircle
 10
10684.65659981555
 20
29816.84147328127
 30
0.0
 40
37.93960278127583
100
AcDbArc
 50
162.4443095586815
 51
165.7230087350241
  0
ARC
  5
B339
330
1F
100
AcDbEntity
  8
freecads.com
100
AcDbCircle
 10
10690.38418017514
 20
29815.02942462932
 30
0.0
 40
43.94698965844288
100
AcDbArc
 50
160.1158555377984
 51
162.4442759020597
  0
ARC
  5
B33A
330
1F
100
AcDbEntity
  8
freecads.com
100
AcDbCircle
 10
10649.89338405391
 20
29829.67421551871
 30
0.0
 40
0.8891858277189058
100
AcDbArc
 50
121.7174566215019
 51
160.1158212558932
  0
ARC
  5
B33B
330
1F
100
AcDbEntity
  8
freecads.com
100
AcDbCircle
 10
10649.55539659244
 20
29830.22109128702
 30
0.0
 40
0.2462949893372559
100
AcDbArc
 50
27.34659073837733
 51
121.7174796401667
  0
ARC
  5
B33C
330
1F
100
AcDbEntity
  8
freecads.com
100
AcDbCircle
 10
10643.48490968638
 20
29827.08162645189
 30
0.0
 40
7.080550671396091
100
AcDbArc
 50
18.90500504558122
 51
27.34658332525892
  0
ARC
  5
B33D
330
1F
100
AcDbEntity
  8
freecads.com
100
AcDbCircle
 10
10638.76886780955
 20
29825.46649726105
 30
0.0
 40
12.06549733982842
100
AcDbArc
 50
11.85941715031992
 51
18.90503597670392
  0
ARC
  5
B33E
330
1F
100
AcDbEntity
  8
freecads.com
100
AcDbCircle
 10
10623.91252021291
 20
29822.34676947078
 30
0.0
 40
27.24587168954674
100
AcDbArc
 50
8.026901126081446
 51
11.85940231213201
  0
ARC
  5
B33F
330
1F
100
AcDbEntity
  8
freecads.com
100
AcDbCircle
 10
10675.00423881794
 20
29829.55170209786
 30
0.0
 40
24.35136432340878
100
AcDbArc
 50
188.026892238646
 51
192.816122159406
  0
ARC
  5
B340
330
1F
100
AcDbEntity
  8
freecads.com
100
AcDbCircle
 10
10680.3468412944
 20
29830.76712951799
 30
0.0
 40
29.83047602459272
100
AcDbArc
 50
192.8161912538439
 51
196.9293573695703
  0
ARC
  5
B341
330
1F
100
AcDbEntity
  8
freecads.com
100
AcDbCircle
 10
10677.27057440678
 20
29829.83078944243
 30
0.0
 40
26.61486555371817
100
AcDbArc
 50
196.9294052730952
 51
201.128715902839
  0
ARC
  5
B342
330
1F
100
AcDbEntity
  8
freecads.com
100
AcDbCircle
 10
10659.17134789791
 20
29822.83645755661
 30
0.0
 40
7.211188614835897
100
AcDbArc
 50
201.1287316921111
 51
212.2230629345279
  0
ARC
  5
B343
330
1F
100
AcDbEntity
  8
freecads.com
100
AcDbCircle
 10
10645.66662497758
 20
29814.32450559201
 30
0.0
 40
8.752234182381412
100
AcDbArc
 50
2.211802903790488
 51
32.22295466183015
  0
ARC
  5
B344
330
1F
100
AcDbEntity
  8
freecads.com
100
AcDbCircle
 10
10501.21516367464
 20
29808.74545733776
 30
0.0
 40
153.3113931864954
100
AcDbArc
 50
358.484232227225
 51
2.211796098963522
  0
ARC
  5
B345
330
1F
100
AcDbEntity
  8
freecads.com
100
AcDbCircle
 10
10522.77522445181
 20
29808.1749473225
 30
0.0
 40
131.7437854751
100
AcDbArc
 50
353.8205423411417
 51
358.4842333246344
  0
ARC
  5
B346
330
1F
100
AcDbEntity
  8
freecads.com
100
AcDbCircle
 10
10588.89806432803
 20
29801.015645112
 30
0.0
 40
65.2344961883158
100
AcDbArc
 50
345.9301792341731
 51
353.8205851707071
  0
ARC
  5
B347
330
1F
100
AcDbEntity
  8
freecads.com
100
AcDbCircle
 10
10731.45047546391
 20
29765.28877180173
 30
0.0
 40
81.72672113509451
100
AcDbArc
 50
165.9301822234762
 51
168.2760186932901
  0
ARC
  5
B348
330
1F
100
AcDbEntity
  8
freecads.com
100
AcDbCircle
 10
10706.25401177388
 20
29770.51762481377
 30
0.0
 40
55.99342196272576
100
AcDbArc
 50
168.2759354772685
 51
171.3903423297529
  0
ARC
  5
B349
330
1F
100
AcDbEntity
  8
freecads.com
100
AcDbCircle
 10
10708.01793217832
 20
29770.25053916784
 30
0.0
 40
57.77744828968756
100
AcDbArc
 50
171.3903289610485
 51
173.8862636187406
  0
ARC
  5
B34A
330
1F
100
AcDbEntity
  8
freecads.com
100
AcDbCircle
 10
10652.70228892398
 20
29776.17548719733
 30
0.0
 40
2.14539459945445
100
AcDbArc
 50
173.8862014151356
 51
200.9935987833447
  0
ARC
  5
B34B
330
1F
100
AcDbEntity
  8
freecads.com
100
AcDbCircle
 10
10652.07576964803
 20
29775.93507070532
 30
0.0
 40
1.474330896982956
100
AcDbArc
 50
200.9936502505578
 51
232.6967466484346
  0
ARC
  5
B34C
330
1F
100
AcDbEntity
  8
freecads.com
100
AcDbCircle
 10
10653.22554124608
 20
29777.44418541119
 30
0.0
 40
3.371539879453585
100
AcDbArc
 50
232.6967622468421
 51
249.7854595048148
  0
ARC
  5
B34D
330
1F
100
AcDbEntity
  8
freecads.com
100
AcDbCircle
 10
10653.99684662857
 20
29779.53888094078
 30
0.0
 40
5.603727451031195
100
AcDbArc
 50
249.7854222608869
 51
262.7872235316601
  0
ARC
  5
B34E
330
1F
100
AcDbEntity
  8
freecads.com
100
AcDbCircle
 10
10654.84059474427
 20
29786.20592865439
 30
0.0
 40
12.32395334741285
100
AcDbArc
 50
262.7872527807838
 51
270.0000134378678
  0
ARC
  5
B34F
330
1F
100
AcDbEntity
  8
freecads.com
100
AcDbCircle
 10
10654.84059320648
 20
29789.68989906085
 30
0.0
 40
15.80792375386789
100
AcDbArc
 50
270.000016049944
 51
276.9558788975327
  0
ARC
  5
B350
330
1F
100
AcDbEntity
  8
freecads.com
100
AcDbCircle
 10
10656.39312422
 20
29776.96452371649
 30
0.0
 40
2.988191689480559
100
AcDbArc
 50
276.9559270676751
 51
300.8461555759495
  0
ARC
  5
B351
330
1F
100
AcDbEntity
  8
freecads.com
100
AcDbCircle
 10
10656.69100353717
 20
29776.46573449261
 30
0.0
 40
2.407224584172241
100
AcDbArc
 50
300.8462289642543
 51
328.3603254068767
  0
ARC
  5
B352
330
1F
100
AcDbEntity
  8
freecads.com
100
AcDbCircle
 10
10651.51129178936
 20
29779.65725898274
 30
0.0
 40
8.49123989986305
100
AcDbArc
 50
328.3603353499306
 51
339.127908423716
  0
ARC
  5
B353
330
1F
100
AcDbEntity
  8
freecads.com
100
AcDbCircle
 10
10653.32649746451
 20
29778.96511247147
 30
0.0
 40
6.548551444094501
100
AcDbArc
 50
339.1279066600548
 51
351.5164663409436
  0
ARC
  5
B354
330
1F
100
AcDbEntity
  8
freecads.com
100
AcDbCircle
 10
10639.98042870912
 20
29780.95576614402
 30
0.0
 40
20.04226306350164
100
AcDbArc
 50
351.5164906977835
 51
356.8976379564691
  0
ARC
  5
B355
330
1F
100
AcDbEntity
  8
freecads.com
100
AcDbCircle
 10
10637.78766151375
 20
29781.07457998168
 30
0.0
 40
22.23824682941015
100
AcDbArc
 50
356.8977224734335
 51
2.137310598255216
  0
ARC
  5
B356
330
1F
100
AcDbEntity
  8
freecads.com
100
AcDbCircle
 10
10642.83767495769
 20
29781.26306087036
 30
0.0
 40
17.18471728767493
100
AcDbArc
 50
2.137269720832763
 51
8.494095470454031
  0
ARC
  5
B357
330
1F
100
AcDbEntity
  8
freecads.com
100
AcDbCircle
 10
10674.18279096704
 20
29785.94428972122
 30
0.0
 40
14.50802953544724
100
AcDbArc
 50
177.3008824210716
 51
188.493986875154
  0
ARC
  5
B358
330
1F
100
AcDbEntity
  8
freecads.com
100
AcDbCircle
 10
10698.83756301478
 20
29784.78195039524
 30
0.0
 40
39.19018538606101
100
AcDbArc
 50
171.9693964210814
 51
177.3008381030365
  0
ARC
  5
B359
330
1F
100
AcDbEntity
  8
freecads.com
100
AcDbCircle
 10
10732.78049219392
 20
29779.99304772779
 30
0.0
 40
73.46927566012414
100
AcDbArc
 50
168.1542731425638
 51
171.9693612597762
  0
ARC
  5
B35A
330
1F
100
AcDbEntity
  8
freecads.com
100
AcDbCircle
 10
10934.70444655437
 20
29737.64072971981
 30
0.0
 40
279.7869971122888
100
AcDbArc
 50
166.7429828564713
 51
168.1542746585317
  0
ARC
  5
B35B
330
1F
100
AcDbEntity
  8
freecads.com
100
AcDbCircle
 10
11029.7875477654
 20
29715.2393825398
 30
0.0
 40
377.4733139196336
100
AcDbArc
 50
165.9080786931851
 51
166.7429890988655
  0
ARC
  5
B35C
330
1F
100
AcDbEntity
  8
freecads.com
100
AcDbCircle
 10
10910.78556673687
 20
29745.11278862124
 30
0.0
 40
254.7790113639666
100
AcDbArc
 50
164.7871555692502
 51
165.9080812613462
  0
ARC
  5
B35D
330
1F
100
AcDbEntity
  8
freecads.com
100
AcDbCircle
 10
10959.17997638556
 20
29731.95248591515
 30
0.0
 40
304.9309051720324
100
AcDbArc
 50
164.0030901606428
 51
164.7871225488473
  0
ARC
  5
B35E
330
1F
100
AcDbEntity
  8
freecads.com
100
AcDbCircle
 10
10672.96590371185
 20
29814.00635127429
 30
0.0
 40
7.187169357407162
100
AcDbArc
 50
152.3541760152144
 51
164.0031375055929
  0
ARC
  5
B35F
330
1F
100
AcDbEntity
  8
freecads.com
100
AcDbCircle
 10
10662.65124307815
 20
29819.40923827556
 30
0.0
 40
4.456859667674483
100
AcDbArc
 50
332.3541275515372
 51
349.8081227883884
  0
ARC
  5
B360
330
1F
100
AcDbEntity
  8
freecads.com
100
AcDbCircle
 10
10577.42138001479
 20
29834.73190135629
 30
0.0
 40
91.05312726439857
100
AcDbArc
 50
349.8082069582044
 51
351.7550707150672
  0
ARC
  5
B361
330
1F
100
AcDbEntity
  8
freecads.com
100
AcDbCircle
 10
10577.42403298275
 20
29834.73143040771
 30
0.0
 40
91.05043418093954
100
AcDbArc
 50
351.7551246011974
 51
354.087898994124
  0
ARC
  5
B362
330
1F
100
AcDbEntity
  8
freecads.com
100
AcDbCircle
 10
10544.85018277349
 20
29838.10460526044
 30
0.0
 40
123.7984726877164
100
AcDbArc
 50
354.0878798480947
 51
355.9407849852286
  0
ARC
  5
B363
330
1F
100
AcDbEntity
  8
freecads.com
100
AcDbCircle
 10
10903.36192083474
 20
29812.66250649977
 30
0.0
 40
235.6148920012776
100
AcDbArc
 50
175.0574797140507
 51
175.940747077718
  0
ARC
  5
B364
330
1F
100
AcDbEntity
  8
freecads.com
100
AcDbCircle
 10
10707.53788849879
 20
29829.59699180418
 30
0.0
 40
39.05999271655177
100
AcDbArc
 50
171.7215573418205
 51
175.0575403659544
  0
ARC
  5
B365
330
1F
100
AcDbEntity
  8
freecads.com
100
AcDbCircle
 10
10669.07492999042
 20
29835.19335211545
 30
0.0
 40
0.1920312836424889
100
AcDbArc
 50
97.46847556360156
 51
171.7216232966747
  0
ARC
  5
B366
330
1F
100
AcDbEntity
  8
freecads.com
100
AcDbCircle
 10
10669.06711575867
 20
29835.25296233731
 30
0.0
 40
0.1319110643444644
100
AcDbArc
 50
2.059256632240543
 51
97.46857846429621
  0
ARC
  5
B367
330
1F
100
AcDbEntity
  8
freecads.com
100
AcDbCircle
 10
10688.17545760561
 20
29835.94000399591
 30
0.0
 40
18.98877810681938
100
AcDbArc
 50
182.0591859015687
 51
187.7454270908237
  0
ARC
  5
B368
330
1F
100
AcDbEntity
  8
freecads.com
100
AcDbCircle
 10
10709.1476944805
 20
29838.79250570825
 30
0.0
 40
40.15411499418441
100
AcDbArc
 50
187.7454417466059
 51
190.9932074743449
  0
ARC
  5
B369
330
1F
100
AcDbEntity
  8
freecads.com
100
AcDbCircle
 10
10709.66435912868
 20
29838.89288401195
 30
0.0
 40
40.68044014309776
100
AcDbArc
 50
190.9932246655961
 51
194.2315957666941
  0
ARC
  5
B36A
330
1F
100
AcDbEntity
  8
freecads.com
100
AcDbCircle
 10
10691.16378183611
 20
29834.20066287492
 30
0.0
 40
21.59410211409845
100
AcDbArc
 50
194.231599625832
 51
199.4338502857372
  0
ARC
  5
B36B
330
1F
100
AcDbEntity
  8
freecads.com
100
AcDbCircle
 10
10652.7965688558
 20
29820.66392885977
 30
0.0
 40
19.0911064963299
100
AcDbArc
 50
11.33199857512078
 51
19.43391202075006
  0
ARC
  5
B36C
330
1F
100
AcDbEntity
  8
freecads.com
100
AcDbCircle
 10
10659.76170461482
 20
29822.05973296742
 30
0.0
 40
11.98748873857105
100
AcDbArc
 50
359.8506618657923
 51
11.33205956051375
  0
ARC
  5
B36D
330
1F
100
AcDbEntity
  8
freecads.com
100
AcDbCircle
 10
10648.12822834386
 20
29822.09006651361
 30
0.0
 40
23.62100455585025
100
AcDbArc
 50
352.4075507586817
 51
359.8506339840264
  0
ARC
  5
B36E
330
1F
100
AcDbEntity
  8
freecads.com
100
AcDbCircle
 10
10481.93540327053
 20
29844.2427113164
 30
0.0
 40
191.2837457287652
100
AcDbArc
 50
350.81266776439
 51
352.4075273380403
  0
ARC
  5
B36F
330
1F
100
AcDbEntity
  8
freecads.com
100
AcDbCircle
 10
10861.61639183248
 20
29782.83377263478
 30
0.0
 40
193.3312706517975
100
AcDbArc
 50
170.8126146788712
 51
172.6939366364435
  0
ARC
  5
B370
330
1F
100
AcDbEntity
  8
freecads.com
100
AcDbCircle
 10
10685.59149541699
 20
29805.40202350161
 30
0.0
 40
15.86552718203952
100
AcDbArc
 50
172.6939641461682
 51
184.4323031478325
  0
ARC
  5
B371
330
1F
100
AcDbEntity
  8
freecads.com
100
AcDbCircle
 10
10672.92916457244
 20
29804.42052989309
 30
0.0
 40
3.165214110293707
100
AcDbArc
 50
184.432324897813
 51
216.6631414187492
  0
ARC
  5
B372
330
1F
100
AcDbEntity
  8
freecads.com
100
AcDbCircle
 10
10671.6814778847
 20
29803.49178001648
 30
0.0
 40
1.609804709506202
100
AcDbArc
 50
216.6631168278447
 51
270.0000622846218
  0
ARC
  5
B373
330
1F
100
AcDbEntity
  8
freecads.com
100
AcDbCircle
 10
10671.6814796516
 20
29800.83122751318
 30
0.0
 40
1.050747793797654
100
AcDbArc
 50
12.94661543338558
 51
90.00000092339289
  0
ARC
  5
B374
330
1F
100
AcDbEntity
  8
freecads.com
100
AcDbCircle
 10
10610.16049225719
 20
29786.68835131668
 30
0.0
 40
64.17643857887374
100
AcDbArc
 50
8.88041753704188
 51
12.94661607288654
  0
ARC
  5
B375
330
1F
100
AcDbEntity
  8
freecads.com
100
AcDbCircle
 10
10594.5763623777
 20
29784.25338188244
 30
0.0
 40
79.94964942024541
100
AcDbArc
 50
4.375727660038786
 51
8.880429193548543
  0
ARC
  5
B376
330
1F
100
AcDbEntity
  8
freecads.com
100
AcDbCircle
 10
10425.51341146719
 20
29771.31665176332
 30
0.0
 40
249.506838464952
100
AcDbArc
 50
2.446988047777397
 51
4.375747632697787
  0
ARC
  5
B377
330
1F
100
AcDbEntity
  8
freecads.com
100
AcDbCircle
 10
10714.07013889235
 20
29783.6477846229
 30
0.0
 40
39.31324702068773
100
AcDbArc
 50
182.4469218092913
 51
186.7504748761303
  0
ARC
  5
B378
330
1F
100
AcDbEntity
  8
freecads.com
100
AcDbCircle
 10
10682.90554096847
 20
29779.95893559151
 30
0.0
 40
7.931090132857965
100
AcDbArc
 50
186.7503753075961
 51
200.8502391301673
  0
ARC
  5
B379
330
1F
100
AcDbEntity
  8
freecads.com
100
AcDbCircle
 10
10680.52274669637
 20
29779.05139701746
 30
0.0
 40
5.38131861241692
100
AcDbArc
 50
200.8501562052173
 51
218.8661669557946
  0
ARC
  5
B37A
330
1F
100
AcDbEntity
  8
freecads.com
100
AcDbCircle
 10
10685.03063217896
 20
29782.68440191395
 30
0.0
 40
11.17094347954192
100
AcDbArc
 50
218.8661381301315
 51
229.2991331437801
  0
ARC
  5
B37B
330
1F
100
AcDbEntity
  8
freecads.com
100
AcDbCircle
 10
10686.57193125168
 20
29784.47622562048
 30
0.0
 40
13.53446522178264
100
AcDbArc
 50
229.2990035554059
 51
236.9302716122329
  0
ARC
  5
B37C
330
1F
100
AcDbEntity
  8
freecads.com
100
AcDbCircle
 10
10682.01148160799
 20
29777.47241302097
 30
0.0
 40
5.176768656253637
100
AcDbArc
 50
236.9302043965181
 51
252.5689481838678
  0
ARC
  5
B37D
330
1F
100
AcDbEntity
  8
freecads.com
100
AcDbCircle
 10
10681.70206832129
 20
29776.48693607582
 30
0.0
 40
4.14385946789276
100
AcDbArc
 50
252.5689072316513
 51
270.4354933407976
  0
ARC
  5
B37E
330
1F
100
AcDbEntity
  8
freecads.com
100
AcDbCircle
 10
10681.68538189294
 20
29778.68237734877
 30
0.0
 40
6.339364152430725
100
AcDbArc
 50
270.4354844209387
 51
283.4281478188935
  0
ARC
  5
B37F
330
1F
100
AcDbEntity
  8
freecads.com
100
AcDbCircle
 10
10674.07765809428
 20
29810.54677597084
 30
0.0
 40
39.09936050381543
100
AcDbArc
 50
283.4281603487807
 51
287.615099232336
  0
ARC
  5
B380
330
1F
100
AcDbEntity
  8
freecads.com
100
AcDbCircle
 10
10685.59851452079
 20
29774.26161764194
 30
0.0
 40
1.029124784113801
100
AcDbArc
 50
287.6150562712097
 51
345.173695162557
  0
ARC
  5
B381
330
1F
100
AcDbEntity
  8
freecads.com
100
AcDbCircle
 10
10685.54251231109
 20
29774.276440512
 30
0.0
 40
1.087055475189736
100
AcDbArc
 50
345.1737492280923
 51
40.46526417406514
  0
ARC
  5
B382
330
1F
100
AcDbEntity
  8
freecads.com
100
AcDbCircle
 10
10653.37945610494
 20
29746.84041633345
 30
0.0
 40
43.36231546546514
100
AcDbArc
 50
40.46514782147053
 51
44.35355382310725
  0
ARC
  5
B383
330
1F
100
AcDbEntity
  8
freecads.com
100
AcDbCircle
 10
10713.26293258177
 20
29805.38762251888
 30
0.0
 40
40.38615381648509
100
AcDbArc
 50
219.9262808682211
 51
224.3535479197648
  0
ARC
  5
B384
330
1F
100
AcDbEntity
  8
freecads.com
100
AcDbCircle
 10
10685.62134221497
 20
29782.25411777815
 30
0.0
 40
4.341507062846011
100
AcDbArc
 50
197.1170714308016
 51
219.9263140613027
  0
ARC
  5
B385
330
1F
100
AcDbEntity
  8
freecads.com
100
AcDbCircle
 10
10681.88878256016
 20
29781.10461557423
 30
0.0
 40
0.4359524423625821
100
AcDbArc
 50
95.02073511064091
 51
197.1171434891771
  0
ARC
  5
B386
330
1F
100
AcDbEntity
  8
freecads.com
100
AcDbCircle
 10
10682.07530251322
 20
29778.98150387213
 30
0.0
 40
2.567241487161263
100
AcDbArc
 50
66.54272873160071
 51
95.02067945254847
  0
ARC
  5
B387
330
1F
100
AcDbEntity
  8
freecads.com
100
AcDbCircle
 10
10688.93536628854
 20
29794.79077789342
 30
0.0
 40
14.66626135125128
100
AcDbArc
 50
246.5426923811829
 51
257.2574403569548
  0
ARC
  5
B388
330
1F
100
AcDbEntity
  8
freecads.com
100
AcDbCircle
 10
10689.14870933099
 20
29795.73419412988
 30
0.0
 40
15.63349940312019
100
AcDbArc
 50
257.2574456386503
 51
267.4710996961077
  0
ARC
  5
B389
330
1F
100
AcDbEntity
  8
freecads.com
100
AcDbCircle
 10
10689.01010248873
 20
29792.59561747052
 30
0.0
 40
12.49186363441077
100
AcDbArc
 50
267.471042225522
 51
278.2182629074731
  0
ARC
  5
B38A
330
1F
100
AcDbEntity
  8
freecads.com
100
AcDbCircle
 10
10690.57508303767
 20
29781.75987918667
 30
0.0
 40
1.5436953732533
100
AcDbArc
 50
278.2182240614267
 51
328.282517109211
  0
ARC
  5
B38B
330
1F
100
AcDbEntity
  8
freecads.com
100
AcDbCircle
 10
10690.86135824407
 20
29781.58295089421
 30
0.0
 40
1.207158429551351
100
AcDbArc
 50
328.2825343176301
 51
19.13820657416922
  0
ARC
  5
B38C
330
1F
100
AcDbEntity
  8
freecads.com
100
AcDbCircle
 10
10688.77381618609
 20
29780.85851354663
 30
0.0
 40
3.416828385540092
100
AcDbArc
 50
19.1382347795479
 51
42.58131667509434
  0
ARC
  5
B38D
330
1F
100
AcDbEntity
  8
freecads.com
100
AcDbCircle
 10
10682.30680207946
 20
29774.91568818874
 30
0.0
 40
12.1997347774933
100
AcDbArc
 50
42.58128835298582
 51
53.51533300749999
  0
ARC
  5
B38E
330
1F
100
AcDbEntity
  8
freecads.com
100
AcDbCircle
 10
10632.63794983545
 20
29707.75453863979
 30
0.0
 40
95.73185370173602
100
AcDbArc
 50
53.5153212459192
 51
55.91157260510311
  0
LINE
  5
B38F
330
1F
100
AcDbEntity
  8
freecads.com
100
AcDbLine
 10
10686.29294763467
 20
29787.03712830698
 30
0.0
 11
10683.84723163467
 21
29788.69228130698
 31
0.0
  0
LINE
  5
B390
330
1F
100
AcDbEntity
  8
freecads.com
100
AcDbLine
 10
10683.84723163467
 20
29788.69228130698
 30
0.0
 11
10687.34723163467
 21
29795.28579330698
 31
0.0
  0
ARC
  5
B391
330
1F
100
AcDbEntity
  8
freecads.com
100
AcDbCircle
 10
10762.75045652992
 20
29755.25985074319
 30
0.0
 40
85.36815801411604
100
AcDbArc
 50
149.4312842107265
 51
152.0395046692826
  0
ARC
  5
B392
330
1F
100
AcDbEntity
  8
freecads.com
100
AcDbCircle
 10
10699.68353471102
 20
29792.51105882844
 30
0.0
 40
12.12138926954048
100
AcDbArc
 50
138.4178896918923
 51
149.4312786984144
  0
ARC
  5
B393
330
1F
100
AcDbEntity
  8
freecads.com
100
AcDbCircle
 10
10694.03565177725
 20
29797.5223385062
 30
0.0
 40
4.570792892945516
100
AcDbArc
 50
118.5443448261758
 51
138.4179573984883
  0
ARC
  5
B394
330
1F
100
AcDbEntity
  8
freecads.com
100
AcDbCircle
 10
10693.20032445887
 20
29799.05798135834
 30
0.0
 40
2.822659403151924
100
AcDbArc
 50
90.03251464600429
 51
118.544314142088
  0
ARC
  5
B395
330
1F
100
AcDbEntity
  8
freecads.com
100
AcDbCircle
 10
10693.19659232182
 20
29805.63984794999
 30
0.0
 40
3.759208246619735
100
AcDbArc
 50
270.0324690556099
 51
290.9410846422819
  0
ARC
  5
B396
330
1F
100
AcDbEntity
  8
freecads.com
100
AcDbCircle
 10
10694.18233765605
 20
29803.06398001668
 30
0.0
 40
1.001167370601095
100
AcDbArc
 50
290.9410822483808
 51
346.7403718628785
  0
ARC
  5
B397
330
1F
100
AcDbEntity
  8
freecads.com
100
AcDbCircle
 10
10690.06131733364
 20
29804.03508160841
 30
0.0
 40
5.235060000222678
100
AcDbArc
 50
346.7403805787896
 51
4.024613208291787
  0
ARC
  5
B398
330
1F
100
AcDbEntity
  8
freecads.com
100
AcDbCircle
 10
10434.95392530412
 20
29786.0859838607
 30
0.0
 40
260.9731126597012
100
AcDbArc
 50
4.02464004014297
 51
5.066270139399859
  0
ARC
  5
B399
330
1F
100
AcDbEntity
  8
freecads.com
100
AcDbCircle
 10
10409.90154465078
 20
29783.86511189578
 30
0.0
 40
286.1237398620114
100
AcDbArc
 50
5.066244510905779
 51
5.682058066972381
  0
ARC
  5
B39A
330
1F
100
AcDbEntity
  8
freecads.com
100
AcDbCircle
 10
10351.66882866309
 20
29778.07110001378
 30
0.0
 40
344.6439909293991
100
AcDbArc
 50
5.682063118759827
 51
6.217663090628059
  0
ARC
  5
B39B
330
1F
100
AcDbEntity
  8
freecads.com
100
AcDbCircle
 10
10386.08209339905
 20
29781.82017381096
 30
0.0
 40
310.0271114613868
100
AcDbArc
 50
6.217688363079056
 51
6.756496880989394
  0
ARC
  5
B39C
330
1F
100
AcDbEntity
  8
freecads.com
100
AcDbCircle
 10
10622.09457170112
 20
29809.78131744016
 30
0.0
 40
72.3640822218714
100
AcDbArc
 50
6.756427035987777
 51
8.343953103670269
  0
ARC
  5
B39D
330
1F
100
AcDbEntity
  8
freecads.com
100
AcDbCircle
 10
10736.32518150996
 20
29826.53524926931
 30
0.0
 40
43.08861999439396
100
AcDbArc
 50
185.6007408346849
 51
188.3439317471191
  0
ARC
  5
B39E
330
1F
100
AcDbEntity
  8
freecads.com
100
AcDbCircle
 10
10696.18815197962
 20
29822.59925948698
 30
0.0
 40
2.759063152215986
100
AcDbArc
 50
165.2191618082386
 51
185.6008304034603
  0
ARC
  5
B39F
330
1F
100
AcDbEntity
  8
freecads.com
100
AcDbCircle
 10
10694.01610651001
 20
29823.17236193155
 30
0.0
 40
0.5126820772407088
100
AcDbArc
 50
103.0439902258372
 51
165.2191973873098
  0
ARC
  5
B3A0
330
1F
100
AcDbEntity
  8
freecads.com
100
AcDbCircle
 10
10694.16097191119
 20
29822.54708090802
 30
0.0
 40
1.15452500416865
100
AcDbArc
 50
69.00643382163831
 51
103.0440941639783
  0
ARC
  5
B3A1
330
1F
100
AcDbEntity
  8
freecads.com
100
AcDbCircle
 10
10695.3933721109
 20
29825.75866514579
 30
0.0
 40
2.285399932303836
100
AcDbArc
 50
249.0063806756533
 51
321.5011234241644
  0
ARC
  5
B3A2
330
1F
100
AcDbEntity
  8
freecads.com
100
AcDbCircle
 10
10690.27409463509
 20
29829.83054740596
 30
0.0
 40
8.826594549120292
100
AcDbArc
 50
321.5011794502928
 51
348.2521221304542
  0
ARC
  5
B3A3
330
1F
100
AcDbEntity
  8
freecads.com
100
AcDbCircle
 10
10667.05979032575
 20
29834.65820926536
 30
0.0
 40
32.53756761214213
100
AcDbArc
 50
348.2521624271901
 51
0.6832253042812018
  0
ARC
  5
B3A4
330
1F
100
AcDbEntity
  8
freecads.com
100
AcDbCircle
 10
10555.90492908389
 20
29833.33271029301
 30
0.0
 40
143.7003317250535
100
AcDbArc
 50
0.6832119662463735
 51
4.809895516587618
  0
ARC
  5
B3A5
330
1F
100
AcDbEntity
  8
freecads.com
100
AcDbCircle
 10
10683.31478120901
 20
29844.05379123773
 30
0.0
 40
15.84020504294294
100
AcDbArc
 50
4.809836481063202
 51
23.67927408671892
  0
ARC
  5
B3A6
330
1F
100
AcDbEntity
  8
freecads.com
100
AcDbCircle
 10
10682.80697339024
 20
29843.83112331139
 30
0.0
 40
16.39468658971212
100
AcDbArc
 50
23.67919385636247
 51
42.06801566337211
  0
ARC
  5
B3A7
330
1F
100
AcDbEntity
  8
freecads.com
100
AcDbCircle
 10
10684.43479126083
 20
29845.30034551826
 30
0.0
 40
14.20187904856306
100
AcDbArc
 50
42.06793882244329
 51
61.91584770173346
  0
ARC
  5
B3A8
330
1F
100
AcDbEntity
  8
freecads.com
100
AcDbCircle
 10
10686.91471125805
 20
29849.94790773363
 30
0.0
 40
8.934067573351114
100
AcDbArc
 50
61.91587387412272
 51
89.99995910557636
  0
ARC
  5
B3A9
330
1F
100
AcDbEntity
  8
freecads.com
100
AcDbCircle
 10
10686.91471865325
 20
29861.31702654583
 30
0.0
 40
2.435051238844366
100
AcDbArc
 50
235.9437102222146
 51
269.9999760330563
  0
ARC
  5
B3AA
330
1F
100
AcDbEntity
  8
freecads.com
100
AcDbCircle
 10
10686.55428255311
 20
29860.78378933012
 30
0.0
 40
1.791423931702871
100
AcDbArc
 50
193.1036597131085
 51
235.9437190581258
  0
ARC
  5
B3AB
330
1F
100
AcDbEntity
  8
freecads.com
100
AcDbCircle
 10
10688.19226289104
 20
29861.16507421874
 30
0.0
 40
3.473196137954294
100
AcDbArc
 50
164.7559999999307
 51
193.1037341367118
  0
ARC
  5
B3AC
330
1F
100
AcDbEntity
  8
freecads.com
100
AcDbCircle
 10
10695.25576574894
 20
29859.24015429708
 30
0.0
 40
10.79428822371617
100
AcDbArc
 50
152.5793722411864
 51
164.7560888144686
  0
ARC
  5
B3AD
330
1F
100
AcDbEntity
  8
freecads.com
100
AcDbCircle
 10
10678.36577355696
 20
29868.00279254156
 30
0.0
 40
8.233472160761412
100
AcDbArc
 50
332.5794845715186
 51
356.055677824387
  0
ARC
  5
B3AE
330
1F
100
AcDbEntity
  8
freecads.com
100
AcDbCircle
 10
10672.72836267093
 20
29868.39146951233
 30
0.0
 40
13.88426602402364
100
AcDbArc
 50
356.0557789649454
 51
11.92992354227202
  0
ARC
  5
B3AF
330
1F
100
AcDbEntity
  8
freecads.com
100
AcDbCircle
 10
10672.75126355888
 20
29868.3963080612
 30
0.0
 40
13.86085956713481
100
AcDbArc
 50
11.92992321056347
 51
27.81684051904363
  0
ARC
  5
B3B0
330
1F
100
AcDbEntity
  8
freecads.com
100
AcDbCircle
 10
10677.79016844211
 20
29871.05491152334
 30
0.0
 40
8.163602789425068
100
AcDbArc
 50
27.8168575613238
 51
51.43206240793392
  0
ARC
  5
B3B1
330
1F
100
AcDbEntity
  8
freecads.com
100
AcDbCircle
 10
10687.97100419551
 20
29883.82288700552
 30
0.0
 40
8.166449707467622
100
AcDbArc
 50
217.5505496282214
 51
231.4321298916036
  0
ARC
  5
B3B2
330
1F
100
AcDbEntity
  8
freecads.com
100
AcDbCircle
 10
10687.28994658268
 20
29883.29933293316
 30
0.0
 40
7.30741051239987
100
AcDbArc
 50
202.4623126345794
 51
217.5505192616909
  0
ARC
  5
B3B3
330
1F
100
AcDbEntity
  8
freecads.com
100
AcDbCircle
 10
10692.87947562924
 20
29885.61030817575
 30
0.0
 40
13.35583522747974
100
AcDbArc
 50
192.0145418272843
 51
202.4624028503168
  0
ARC
  5
B3B4
330
1F
100
AcDbEntity
  8
freecads.com
100
AcDbCircle
 10
10745.58686224021
 20
29896.82758706517
 30
0.0
 40
67.24364413674227
100
AcDbArc
 50
188.8616357354587
 51
192.01453815392
  0
ARC
  5
B3B5
330
1F
100
AcDbEntity
  8
freecads.com
100
AcDbCircle
 10
10457.80359313903
 20
29851.95948203514
 30
0.0
 40
224.0163030299664
100
AcDbArc
 50
8.861597090723755
 51
10.32903654156629
  0
ARC
  5
B3B6
330
1F
100
AcDbEntity
  8
freecads.com
100
AcDbCircle
 10
10593.41066135747
 20
29876.67437197976
 30
0.0
 40
86.1754428478221
100
AcDbArc
 50
10.32909584098031
 51
13.32366121502497
  0
ARC
  5
B3B7
330
1F
100
AcDbEntity
  8
freecads.com
100
AcDbCircle
 10
10619.74931309735
 20
29882.91207010039
 30
0.0
 40
59.10824030824753
100
AcDbArc
 50
13.32364349737073
 51
16.62021527872599
  0
ARC
  5
B3B8
330
1F
100
AcDbEntity
  8
freecads.com
100
AcDbCircle
 10
10670.95605145488
 20
29898.19713443506
 30
0.0
 40
5.668898574546314
100
AcDbArc
 50
16.62023463402363
 51
35.03956936534381
  0
ARC
  5
B3B9
330
1F
100
AcDbEntity
  8
freecads.com
100
AcDbCircle
 10
10672.91409582576
 20
29899.57018249323
 30
0.0
 40
3.277413946044029
100
AcDbArc
 50
35.03964952802187
 51
49.66730587470559
  0
ARC
  5
B3BA
330
1F
100
AcDbEntity
  8
freecads.com
100
AcDbCircle
 10
10610.53454289607
 20
29826.0995445341
 30
0.0
 40
99.65761557391846
100
AcDbArc
 50
49.66738910476422
 51
50.90565344236144
  0
ARC
  5
B3BB
330
1F
100
AcDbEntity
  8
freecads.com
100
AcDbCircle
 10
10616.12993716564
 20
29832.98586787845
 30
0.0
 40
90.78462925486155
100
AcDbArc
 50
50.90573144329035
 51
52.53336258303958
  0
ARC
  5
B3BC
330
1F
100
AcDbEntity
  8
freecads.com
100
AcDbCircle
 10
10592.42591850273
 20
29802.05684424684
 30
0.0
 40
129.7523723711245
100
AcDbArc
 50
52.53338193894632
 51
53.7787507445022
  0
ARC
  5
B3BD
330
1F
100
AcDbEntity
  8
freecads.com
100
AcDbCircle
 10
10692.02547115423
 20
29938.03652585466
 30
0.0
 40
38.80190582596889
100
AcDbArc
 50
229.6231939020851
 51
233.7787450983112
  0
ARC
  5
B3BE
330
1F
100
AcDbEntity
  8
freecads.com
100
AcDbCircle
 10
10683.80093733096
 20
29928.36474747461
 30
0.0
 40
26.10599098531846
100
AcDbArc
 50
224.0305549459166
 51
229.6231169851191
  0
ARC
  5
B3BF
330
1F
100
AcDbEntity
  8
freecads.com
100
AcDbCircle
 10
10681.05758771239
 20
29925.71267325971
 30
0.0
 40
22.29030431438339
100
AcDbArc
 50
218.7288475612916
 51
224.0305114683609
  0
ARC
  5
B3C0
330
1F
100
AcDbEntity
  8
freecads.com
100
AcDbCircle
 10
10664.80865121705
 20
29912.68138391638
 30
0.0
 40
1.461419582379368
100
AcDbArc
 50
179.9999454808414
 51
218.7288787557041
  0
ARC
  5
B3C1
330
1F
100
AcDbEntity
  8
freecads.com
100
AcDbCircle
 10
10665.96077652141
 20
29912.68138420722
 30
0.0
 40
2.613544886744197
100
AcDbArc
 50
159.4602911930732
 51
179.9999758904827
  0
ARC
  5
B3C2
330
1F
100
AcDbEntity
  8
freecads.com
100
AcDbCircle
 10
10681.70041815366
 20
29906.78412154479
 30
0.0
 40
19.42169843260532
100
AcDbArc
 50
154.7796053122987
 51
159.4602487990329
  0
ARC
  5
B3C3
330
1F
100
AcDbEntity
  8
freecads.com
100
AcDbCircle
 10
10684.68026437345
 20
29905.38064592999
 30
0.0
 40
22.71551495669046
100
AcDbArc
 50
150.0804727516425
 51
154.7796722983433
  0
ARC
  5
B3C4
330
1F
100
AcDbEntity
  8
freecads.com
100
AcDbCircle
 10
10687.31202888376
 20
29903.86610470902
 30
0.0
 40
25.75196346565306
100
AcDbArc
 50
145.8032361340467
 51
150.0804423777413
  0
ARC
  5
B3C5
330
1F
100
AcDbEntity
  8
freecads.com
100
AcDbCircle
 10
10652.81882705942
 20
29927.30480744431
 30
0.0
 40
15.95119898047192
100
AcDbArc
 50
325.8032513330014
 51
333.7678237896457
  0
ARC
  5
B3C6
330
1F
100
AcDbEntity
  8
freecads.com
100
AcDbCircle
 10
10647.47898893991
 20
29929.9360439266
 30
0.0
 40
21.90412066383345
100
AcDbArc
 50
333.7678600774821
 51
340.047280791349
  0
ARC
  5
B3C7
330
1F
100
AcDbEntity
  8
freecads.com
100
AcDbCircle
 10
10647.60081287769
 20
29929.89180272572
 30
0.0
 40
21.77451219389654
100
AcDbArc
 50
340.0473172166689
 51
346.3427686774171
  0
ARC
  5
B3C8
330
1F
100
AcDbEntity
  8
freecads.com
100
AcDbCircle
 10
10653.81235322626
 20
29928.382509276
 30
0.0
 40
15.38223558698834
100
AcDbArc
 50
346.3427484295617
 51
354.5114990563932
  0
ARC
  5
B3C9
330
1F
100
AcDbEntity
  8
freecads.com
100
AcDbCircle
 10
10633.85105865993
 20
29930.30056823393
 30
0.0
 40
35.43547051128366
100
AcDbArc
 50
354.5114215939881
 51
358.8717917695624
  0
ARC
  5
B3CA
330
1F
100
AcDbEntity
  8
freecads.com
100
AcDbCircle
 10
10664.73068064858
 20
29929.6924455613
 30
0.0
 40
4.549861122002308
100
AcDbArc
 50
358.8717292489541
 51
18.66049498792404
  0
ARC
  5
B3CB
330
1F
100
AcDbEntity
  8
freecads.com
100
AcDbCircle
 10
10665.91750382731
 20
29930.09324991684
 30
0.0
 40
3.297186627577163
100
AcDbArc
 50
18.66051608457405
 51
43.2129651275508
  0
ARC
  5
B3CC
330
1F
100
AcDbEntity
  8
freecads.com
100
AcDbCircle
 10
10658.45656602025
 20
29923.0837647933
 30
0.0
 40
13.5342992408998
100
AcDbArc
 50
43.21302807642164
 51
51.81137992395992
  0
ARC
  5
B3CD
330
1F
100
AcDbEntity
  8
freecads.com
100
AcDbCircle
 10
10660.14476093856
 20
29925.22994841135
 30
0.0
 40
10.8037120870893
100
AcDbArc
 50
51.81140107163304
 51
71.44660980322384
  0
ARC
  5
B3CE
330
1F
100
AcDbEntity
  8
freecads.com
100
AcDbCircle
 10
10660.60507786562
 20
29926.60143253333
 30
0.0
 40
9.357039916149533
100
AcDbArc
 50
71.44662862361433
 51
93.31649502863264
  0
ARC
  5
B3CF
330
1F
100
AcDbEntity
  8
freecads.com
100
AcDbCircle
 10
10660.56324999476
 20
29927.32311770967
 30
0.0
 40
8.634143613444315
100
AcDbArc
 50
93.31644664476742
 51
116.2053356154599
  0
ARC
  5
B3D0
330
1F
100
AcDbEntity
  8
freecads.com
100
AcDbCircle
 10
10660.386940954
 20
29927.68133341781
 30
0.0
 40
8.234890095733252
100
AcDbArc
 50
116.2053129983799
 51
139.9211939897991
  0
ARC
  5
B3D1
330
1F
100
AcDbEntity
  8
freecads.com
100
AcDbCircle
 10
10378.35100554438
 20
29818.52171357027
 30
0.0
 40
194.6533152087296
100
AcDbArc
 50
15.98472947796131
 51
17.81128025479586
  0
ARC
  5
B3D2
330
1F
100
AcDbEntity
  8
freecads.com
100
AcDbCircle
 10
10543.58251382991
 20
29865.85342974051
 30
0.0
 40
22.77620013539675
100
AcDbArc
 50
7.125720184471905
 51
15.98473310784152
  0
ARC
  5
B3D3
330
1F
100
AcDbEntity
  8
freecads.com
100
AcDbCircle
 10
10559.48532523127
 20
29867.84148577347
 30
0.0
 40
6.749604200600973
100
AcDbArc
 50
349.0180966283893
 51
7.12566795223195
  0
ARC
  5
B3D4
330
1F
100
AcDbEntity
  8
freecads.com
100
AcDbCircle
 10
10564.29125013189
 20
29866.90888355503
 30
0.0
 40
1.854028540043094
100
AcDbArc
 50
301.7175113409588
 51
349.0181038465254
  0
ARC
  5
B3D5
330
1F
100
AcDbEntity
  8
freecads.com
100
AcDbCircle
 10
10564.2308865077
 20
29867.0065565843
 30
0.0
 40
1.968849216621622
100
AcDbArc
 50
223.7542438433247
 51
301.7174688939719
  0
ARC
  5
B3D6
330
1F
100
AcDbEntity
  8
freecads.com
100
AcDbCircle
 10
10593.46830773338
 20
29894.99942091669
 30
0.0
 40
42.44633991774771
100
AcDbArc
 50
215.3169868262769
 51
223.7542165289056
  0
ARC
  5
B3D7
330
1F
100
AcDbEntity
  8
freecads.com
100
AcDbCircle
 10
10593.35097051691
 20
29894.91628797456
 30
0.0
 40
42.30253759357374
100
AcDbArc
 50
206.2046565560724
 51
215.3169853637586
  0
ARC
  5
B3D8
330
1F
100
AcDbEntity
  8
freecads.com
100
AcDbCircle
 10
10564.55329176046
 20
29880.7431597355
 30
0.0
 40
10.20606012578669
100
AcDbArc
 50
180.0000304753002
 51
206.2046247434077
  0
ARC
  5
B3D9
330
1F
100
AcDbEntity
  8
freecads.com
100
AcDbCircle
 10
10558.42392778023
 20
29880.74315343382
 30
0.0
 40
4.076696145557982
100
AcDbArc
 50
148.6096828330591
 51
179.9999877282544
  0
ARC
  5
B3DA
330
1F
100
AcDbEntity
  8
freecads.com
100
AcDbCircle
 10
10569.56300696754
 20
29873.94638615173
 30
0.0
 40
17.12564746848356
100
AcDbArc
 50
137.7992677177038
 51
148.6096031276165
  0
ARC
  5
B3DB
330
1F
100
AcDbEntity
  8
freecads.com
100
AcDbCircle
 10
10567.66297844828
 20
29875.66925286864
 30
0.0
 40
14.56081256189875
100
AcDbArc
 50
126.3703975409642
 51
137.7992146964949
  0
ARC
  5
B3DC
330
1F
100
AcDbEntity
  8
freecads.com
100
AcDbCircle
 10
10559.56515641887
 20
29886.66475944464
 30
0.0
 40
0.9051951652830821
100
AcDbArc
 50
40.67216524547878
 51
126.370348822238
  0
ARC
  5
B3DD
330
1F
100
AcDbEntity
  8
freecads.com
100
AcDbCircle
 10
10558.49462356188
 20
29885.74486515108
 30
0.0
 40
2.316664651036361
100
AcDbArc
 50
21.3813538814219
 51
40.67207585476038
  0
ARC
  5
B3DE
330
1F
100
AcDbEntity
  8
freecads.com
100
AcDbCircle
 10
10417.84311457591
 20
29830.67713625636
 30
0.0
 40
153.3640140010145
100
AcDbArc
 50
20.42353417078572
 51
21.38128484561115
  0
ARC
  5
B3DF
330
1F
100
AcDbEntity
  8
freecads.com
100
AcDbCircle
 10
10453.74970992396
 20
29844.0476373536
 30
0.0
 40
115.0488226397917
100
AcDbArc
 50
18.89964013554122
 51
20.42345623215934
  0
ARC
  5
B3E0
330
1F
100
AcDbEntity
  8
freecads.com
100
AcDbCircle
 10
10392.02586752795
 20
29822.91531367748
 30
0.0
 40
180.2899739484434
100
AcDbArc
 50
17.81124628927189
 51
18.89962873471111
  0
ARC
  5
B3E1
330
1F
100
AcDbEntity
  8
freecads.com
100
AcDbCircle
 10
10721.48096030231
 20
29861.78372654679
 30
0.0
 40
50.01251408007094
100
AcDbArc
 50
168.1879367139431
 51
171.972322734345
  0
ARC
  5
B3E2
330
1F
100
AcDbEntity
  8
freecads.com
100
AcDbCircle
 10
10678.97428404999
 20
29867.77857970992
 30
0.0
 40
7.08518257126786
100
AcDbArc
 50
171.9722359468618
 51
187.977752457405
  0
ARC
  5
B3E3
330
1F
100
AcDbEntity
  8
freecads.com
100
AcDbCircle
 10
10678.50219787738
 20
29867.71240992789
 30
0.0
 40
6.608481622736481
100
AcDbArc
 50
187.9776724739451
 51
204.7595706491377
  0
ARC
  5
B3E4
330
1F
100
AcDbEntity
  8
freecads.com
100
AcDbCircle
 10
10709.02414306684
 20
29881.78934810449
 30
0.0
 40
40.22022550156036
100
AcDbArc
 50
204.7595012276585
 51
209.174396995526
  0
LINE
  5
B3E5
330
1F
100
AcDbEntity
  8
freecads.com
100
AcDbLine
 10
10673.90625563467
 20
29862.18321330698
 30
0.0
 11
10676.40607363467
 21
29857.70561330698
 31
0.0
  0
LINE
  5
B3E6
330
1F
100
AcDbEntity
  8
freecads.com
100
AcDbLine
 10
10676.40607363467
 20
29857.70561330698
 30
0.0
 11
10672.87665263467
 21
29854.47278930698
 31
0.0
  0
ARC
  5
B3E7
330
1F
100
AcDbEntity
  8
freecads.com
100
AcDbCircle
 10
10684.06518859202
 20
29842.25775719298
 30
0.0
 40
16.56473200553286
100
AcDbArc
 50
132.4885784004727
 51
139.4481047993557
  0
ARC
  5
B3E8
330
1F
100
AcDbEntity
  8
freecads.com
100
AcDbCircle
 10
10682.4577821816
 20
29843.63313850145
 30
0.0
 40
14.44921100305147
100
AcDbArc
 50
139.4481249415302
 51
147.1586015550399
  0
ARC
  5
B3E9
330
1F
100
AcDbEntity
  8
freecads.com
100
AcDbCircle
 10
10680.01227804662
 20
29845.21164838549
 30
0.0
 40
11.53850938177542
100
AcDbArc
 50
147.1585515405958
 51
155.5376470490756
  0
ARC
  5
B3EA
330
1F
100
AcDbEntity
  8
freecads.com
100
AcDbCircle
 10
10672.46819189617
 20
29848.64369641879
 30
0.0
 40
3.250434240455531
100
AcDbArc
 50
155.5375597038022
 51
177.0501408505963
  0
ARC
  5
B3EB
330
1F
100
AcDbEntity
  8
freecads.com
100
AcDbCircle
 10
10669.04748548439
 20
29848.81996608914
 30
0.0
 40
0.1748107657064511
100
AcDbArc
 50
225.7126663205069
 51
357.0502497081916
  0
ARC
  5
B3EC
330
1F
100
AcDbEntity
  8
freecads.com
100
AcDbCircle
 10
10669.92949283629
 20
29849.72419283474
 30
0.0
 40
1.437966724503403
100
AcDbArc
 50
193.9592218345276
 51
225.7126776037834
  0
ARC
  5
B3ED
330
1F
100
AcDbEntity
  8
freecads.com
100
AcDbCircle
 10
10719.01138451632
 20
29861.92463468295
 30
0.0
 40
52.01348325356897
100
AcDbArc
 50
190.2628710935278
 51
193.9592742370926
  0
ARC
  5
B3EE
330
1F
100
AcDbEntity
  8
freecads.com
100
AcDbCircle
 10
11117.18909351063
 20
29934.01917147652
 30
0.0
 40
456.6653214743299
100
AcDbArc
 50
189.5152662225047
 51
190.2628589020828
  0
ARC
  5
B3EF
330
1F
100
AcDbEntity
  8
freecads.com
100
AcDbCircle
 10
10686.06423869963
 20
29861.75551267805
 30
0.0
 40
19.52612531509001
100
AcDbArc
 50
176.759495542101
 51
189.5152452374964
  0
ARC
  5
B3F0
330
1F
100
AcDbEntity
  8
freecads.com
100
AcDbCircle
 10
10954.09508345777
 20
29846.58039132378
 30
0.0
 40
287.9862118268036
100
AcDbArc
 50
174.9724034925723
 51
176.7595372233328
  0
ARC
  5
B3F1
330
1F
100
AcDbEntity
  8
freecads.com
100
AcDbCircle
 10
10969.11754337517
 20
29845.25904886056
 30
0.0
 40
303.0666709650036
100
AcDbArc
 50
173.2712543542769
 51
174.9724493942122
  0
ARC
  5
B3F2
330
1F
100
AcDbEntity
  8
freecads.com
100
AcDbCircle
 10
10684.35267063975
 20
29878.85609378393
 30
0.0
 40
16.32672925544623
100
AcDbArc
 50
159.0063674620543
 51
173.2712969473906
  0
ARC
  5
B3F3
330
1F
100
AcDbEntity
  8
freecads.com
100
AcDbCircle
 10
10669.71667223793
 20
29884.47246146021
 30
0.0
 40
0.6501213604577182
100
AcDbArc
 50
106.5468976593331
 51
159.0064013943369
  0
ARC
  5
B3F4
330
1F
100
AcDbEntity
  8
freecads.com
100
AcDbCircle
 10
10669.67190256393
 20
29884.62314760257
 30
0.0
 40
0.4929251861790919
100
AcDbArc
 50
42.22286649134306
 51
106.5468741421442
  0
ARC
  5
B3F5
330
1F
100
AcDbEntity
  8
freecads.com
100
AcDbCircle
 10
10666.80955763437
 20
29882.02564438569
 30
0.0
 40
4.358160167071864
100
AcDbArc
 50
26.29722408110883
 51
42.22291514647964
  0
ARC
  5
B3F6
330
1F
100
AcDbEntity
  8
freecads.com
100
AcDbCircle
 10
10626.64557908689
 20
29862.17786455924
 30
0.0
 40
49.15860142383949
100
AcDbArc
 50
23.60139048999445
 51
26.29714717674925
  0
ARC
  5
B3F7
330
1F
100
AcDbEntity
  8
freecads.com
100
AcDbCircle
 10
10642.7128640397
 20
29869.19789678644
 30
0.0
 40
31.62467721327388
100
AcDbArc
 50
18.46176849324001
 51
23.60148400798242
  0
ARC
  5
B3F8
330
1F
100
AcDbEntity
  8
freecads.com
100
AcDbCircle
 10
10664.60708164903
 20
29876.50735223622
 30
0.0
 40
8.542543349683919
100
AcDbArc
 50
4.852888432109489
 51
18.46180720423567
  0
ARC
  5
B3F9
330
1F
100
AcDbEntity
  8
freecads.com
100
AcDbCircle
 10
10663.61616125085
 20
29876.4232176572
 30
0.0
 40
9.537029077537916
100
AcDbArc
 50
352.1835243358116
 51
4.852909088655299
  0
ARC
  5
B3FA
330
1F
100
AcDbEntity
  8
freecads.com
100
AcDbCircle
 10
10628.29273839019
 20
29881.27223662376
 30
0.0
 40
45.191722843305
100
AcDbArc
 50
348.1879382045982
 51
352.1835701745001
  0
ARC
  5
B3FB
330
1F
100
AcDbEntity
  8
freecads.com
100
AcDbCircle
 10
10614.31474311586
 20
29835.38190093366
 30
0.0
 40
80.89191751884854
100
AcDbArc
 50
358.5438427437614
 51
0.0000526786260489
  0
ARC
  5
B3FC
330
1F
100
AcDbEntity
  8
freecads.com
100
AcDbCircle
 10
10693.29529232905
 20
29833.37419783464
 30
0.0
 40
1.88585429740518
100
AcDbArc
 50
336.7459945167618
 51
358.5438672649474
  0
ARC
  5
B3FD
330
1F
100
AcDbEntity
  8
freecads.com
100
AcDbCircle
 10
10694.89209420372
 20
29832.68802486393
 30
0.0
 40
0.1478642017190472
100
AcDbArc
 50
213.80855698678
 51
336.7461740451033
  0
ARC
  5
B3FE
330
1F
100
AcDbEntity
  8
freecads.com
100
AcDbCircle
 10
10698.76012279531
 20
29835.27825979441
 30
0.0
 40
4.803072272299621
100
AcDbArc
 50
203.2539108515352
 51
213.8083471409962
  0
ARC
  5
B3FF
330
1F
100
AcDbEntity
  8
freecads.com
100
AcDbCircle
 10
10699.49030802882
 20
29835.59203500731
 30
0.0
 40
5.59782088630097
100
AcDbArc
 50
192.0645006733133
 51
203.2539469340197
  0
ARC
  5
B400
330
1F
100
AcDbEntity
  8
freecads.com
100
AcDbCircle
 10
10716.52833706584
 20
29839.23361801598
 30
0.0
 40
23.0206668155727
100
AcDbArc
 50
188.1515456015295
 51
192.0644670936722
  0
ARC
  5
B401
330
1F
100
AcDbEntity
  8
freecads.com
100
AcDbCircle
 10
10719.49356975416
 20
29839.65834715272
 30
0.0
 40
26.01616339133704
100
AcDbArc
 50
184.3084875169553
 51
188.1515281706798
  0
ARC
  5
B402
330
1F
100
AcDbEntity
  8
freecads.com
100
AcDbCircle
 10
10715.82466185218
 20
29839.38195248803
 30
0.0
 40
22.33685921752481
100
AcDbArc
 50
179.9999414675216
 51
184.3085347833817
  0
ARC
  5
B403
330
1F
100
AcDbEntity
  8
freecads.com
100
AcDbCircle
 10
10774.37972015349
 20
29839.3820496803
 30
0.0
 40
80.89191751884854
100
AcDbArc
 50
178.5438427437614
 51
180.000052678626
  0
ARC
  5
B404
330
1F
100
AcDbEntity
  8
freecads.com
100
AcDbCircle
 10
10695.3991709403
 20
29841.38975277932
 30
0.0
 40
1.88585429740518
100
AcDbArc
 50
156.7459945167618
 51
178.5438672649473
  0
ARC
  5
B405
330
1F
100
AcDbEntity
  8
freecads.com
100
AcDbCircle
 10
10693.80236906562
 20
29842.07592575002
 30
0.0
 40
0.1478642017190472
100
AcDbArc
 50
33.80855698678002
 51
156.7461740451033
  0
ARC
  5
B406
330
1F
100
AcDbEntity
  8
freecads.com
100
AcDbCircle
 10
10689.93434047403
 20
29839.48569081955
 30
0.0
 40
4.803072272299621
100
AcDbArc
 50
23.25391085153524
 51
33.80834714099616
  0
ARC
  5
B407
330
1F
100
AcDbEntity
  8
freecads.com
100
AcDbCircle
 10
10689.20415524052
 20
29839.17191560665
 30
0.0
 40
5.59782088630097
100
AcDbArc
 50
12.06450067331332
 51
23.25394693401968
  0
ARC
  5
B408
330
1F
100
AcDbEntity
  8
freecads.com
100
AcDbCircle
 10
10672.1661262035
 20
29835.53033259799
 30
0.0
 40
23.0206668155727
100
AcDbArc
 50
8.151545601529495
 51
12.06446709367223
  0
ARC
  5
B409
330
1F
100
AcDbEntity
  8
freecads.com
100
AcDbCircle
 10
10669.20089351518
 20
29835.10560346124
 30
0.0
 40
26.01616339133704
100
AcDbArc
 50
4.308487516955307
 51
8.151528170679807
  0
ARC
  5
B40A
330
1F
100
AcDbEntity
  8
freecads.com
100
AcDbCircle
 10
10672.86980141716
 20
29835.38199812593
 30
0.0
 40
22.33685921752481
100
AcDbArc
 50
359.9999414675216
 51
4.308534783381747
  0
ARC
  5
B40B
330
1F
100
AcDbEntity
  8
freecads.com
100
AcDbCircle
 10
10674.62566284758
 20
29835.78686193096
 30
0.0
 40
0.4139209167673511
100
AcDbArc
 50
298.3523270572274
 51
338.0255089804031
  0
ARC
  5
B40C
330
1F
100
AcDbEntity
  8
freecads.com
100
AcDbCircle
 10
10674.7650158144
 20
29835.52861994383
 30
0.0
 40
0.120478974851337
100
AcDbArc
 50
201.974571179673
 51
298.3524907504876
  0
ARC
  5
B40D
330
1F
100
AcDbEntity
  8
freecads.com
100
AcDbCircle
 10
10676.19838182003
 20
29836.10699587548
 30
0.0
 40
1.666136383342166
100
AcDbArc
 50
184.0081620535842
 51
201.974518141049
  0
ARC
  5
B40E
330
1F
100
AcDbEntity
  8
freecads.com
100
AcDbCircle
 10
10687.25823545834
 20
29836.88197677318
 30
0.0
 40
12.75310882367043
100
AcDbArc
 50
180.0000065871471
 51
184.0082397853711
  0
ARC
  5
B40F
330
1F
100
AcDbEntity
  8
freecads.com
100
AcDbCircle
 10
10687.25823545834
 20
29836.88197384078
 30
0.0
 40
12.75310882367043
100
AcDbArc
 50
175.9917602146289
 51
179.9999934128528
  0
ARC
  5
B410
330
1F
100
AcDbEntity
  8
freecads.com
100
AcDbCircle
 10
10676.19838182003
 20
29837.65695473848
 30
0.0
 40
1.666136383342119
100
AcDbArc
 50
158.025481858951
 51
175.9918379464157
  0
ARC
  5
B411
330
1F
100
AcDbEntity
  8
freecads.com
100
AcDbCircle
 10
10674.7650158144
 20
29838.23533067013
 30
0.0
 40
0.120478974851409
100
AcDbArc
 50
61.64750924951245
 51
158.025428820327
  0
ARC
  5
B412
330
1F
100
AcDbEntity
  8
freecads.com
100
AcDbCircle
 10
10674.62566284758
 20
29837.977088683
 30
0.0
 40
0.4139209167673093
100
AcDbArc
 50
21.97449101959689
 51
61.64767294277258
  0
ARC
  5
B413
330
1F
100
AcDbEntity
  8
freecads.com
100
AcDbCircle
 10
10672.63841852565
 20
29837.17522146099
 30
0.0
 40
2.556846729006514
100
AcDbArc
 50
8.699889202812876
 51
21.97443679515597
  0
ARC
  5
B414
330
1F
100
AcDbEntity
  8
freecads.com
100
AcDbCircle
 10
10670.72206027267
 20
29836.88197820796
 30
0.0
 40
4.49551136199989
100
AcDbArc
 50
359.9999630265568
 51
8.699927319143206
  0
ARC
  5
B415
330
1F
100
AcDbEntity
  8
freecads.com
100
AcDbCircle
 10
10670.72206027267
 20
29836.881972406
 30
0.0
 40
4.495511361999914
100
AcDbArc
 50
351.3000726808568
 51
0.0000369734431508
  0
ARC
  5
B416
330
1F
100
AcDbEntity
  8
freecads.com
100
AcDbCircle
 10
10672.63841852565
 20
29836.58872915298
 30
0.0
 40
2.556846729006559
100
AcDbArc
 50
338.0255632048441
 51
351.3001107971871
  0
ARC
  5
B417
330
1F
100
AcDbEntity
  8
freecads.com
100
AcDbCircle
 10
10685.71479566289
 20
29799.06131602982
 30
0.0
 40
3.303918562735614
100
AcDbArc
 50
140.3098168202543
 51
155.8568548157631
  0
ARC
  5
B418
330
1F
100
AcDbEntity
  8
freecads.com
100
AcDbCircle
 10
10711.88594442916
 20
29787.33071190027
 30
0.0
 40
31.98380874714433
100
AcDbArc
 50
155.8568145856263
 51
158.7899691561318
  0
ARC
  5
B419
330
1F
100
AcDbEntity
  8
freecads.com
100
AcDbCircle
 10
10715.45216116207
 20
29785.9468061512
 30
0.0
 40
35.8091318584559
100
AcDbArc
 50
158.790054003577
 51
161.8769639154084
  0
ARC
  5
B41A
330
1F
100
AcDbEntity
  8
freecads.com
100
AcDbCircle
 10
10721.20151544096
 20
29784.06511468793
 30
0.0
 40
41.85858120410059
100
AcDbArc
 50
161.8770237819436
 51
164.6229644973862
  0
LINE
  5
B41B
330
1F
100
AcDbEntity
  8
freecads.com
100
AcDbLine
 10
10680.84139763467
 20
29795.16474130698
 30
0.0
 11
10679.52606663467
 21
29790.38197530698
 31
0.0
  0
LINE
  5
B41C
330
1F
100
AcDbEntity
  8
freecads.com
100
AcDbLine
 10
10679.52606663467
 20
29790.38197530698
 30
0.0
 11
10679.44280963467
 21
29794.38197530698
 31
0.0
  0
ARC
  5
B41D
330
1F
100
AcDbEntity
  8
freecads.com
100
AcDbCircle
 10
10692.83555969802
 20
29794.6607371589
 30
0.0
 40
13.39565087741342
100
AcDbArc
 50
173.7330661847727
 51
181.1924042173468
  0
ARC
  5
B41E
330
1F
100
AcDbEntity
  8
freecads.com
100
AcDbCircle
 10
10700.29362971432
 20
29793.84173259303
 30
0.0
 40
20.89855543809504
100
AcDbArc
 50
168.3877001277633
 51
173.7331143961273
  0
ARC
  5
B41F
330
1F
100
AcDbEntity
  8
freecads.com
100
AcDbCircle
 10
10699.19428672712
 20
29794.06763747607
 30
0.0
 40
19.77624174768967
100
AcDbArc
 50
162.9611891127504
 51
168.3876894051751
  0
ARC
  5
B420
330
1F
100
AcDbEntity
  8
freecads.com
100
AcDbCircle
 10
10688.09629003921
 20
29797.4688570339
 30
0.0
 40
8.168751710418536
100
AcDbArc
 50
152.4563776628017
 51
162.9611861209806
  0
ARC
  5
B421
330
1F
100
AcDbEntity
  8
freecads.com
100
AcDbCircle
 10
10673.46790497689
 20
29805.09807594808
 30
0.0
 40
8.329570348868783
100
AcDbArc
 50
332.4563621406054
 51
343.06042527075
  0
ARC
  5
B422
330
1F
100
AcDbEntity
  8
freecads.com
100
AcDbCircle
 10
10658.11954217298
 20
29809.77280139072
 30
0.0
 40
24.37404911023767
100
AcDbArc
 50
343.0605287016151
 51
347.8215813345891
  0
ARC
  5
B423
330
1F
100
AcDbEntity
  8
freecads.com
100
AcDbCircle
 10
10655.97778146744
 20
29810.23497862576
 30
0.0
 40
26.56510974717509
100
AcDbArc
 50
347.8216729406491
 51
352.4869675414535
  0
ARC
  5
B424
330
1F
100
AcDbEntity
  8
freecads.com
100
AcDbCircle
 10
10663.36700129872
 20
29809.26044909744
 30
0.0
 40
19.11190389221956
100
AcDbArc
 50
352.4869983119617
 51
358.45838792186
  0
LINE
  5
B425
330
1F
100
AcDbEntity
  8
freecads.com
100
AcDbLine
 10
10682.47198763467
 20
29808.74628230698
 30
0.0
 11
10682.59674363467
 21
29813.38197530698
 31
0.0
  0
LINE
  5
B426
330
1F
100
AcDbEntity
  8
freecads.com
100
AcDbLine
 10
10682.59674363467
 20
29813.38197530698
 30
0.0
 11
10683.39240763467
 21
29807.88855130698
 31
0.0
  0
ARC
  5
B427
330
1F
100
AcDbEntity
  8
freecads.com
100
AcDbCircle
 10
10645.81292008276
 20
29802.44551846323
 30
0.0
 40
37.97162745000639
100
AcDbArc
 50
4.61331412909788
 51
8.24143814184339
  0
ARC
  5
B428
330
1F
100
AcDbEntity
  8
freecads.com
100
AcDbCircle
 10
10666.26986328668
 20
29804.09623562298
 30
0.0
 40
17.44819225046547
100
AcDbArc
 50
358.124104797198
 51
4.613294367413879
  0
ARC
  5
B429
330
1F
100
AcDbEntity
  8
freecads.com
100
AcDbCircle
 10
10672.31990617509
 20
29803.89809363809
 30
0.0
 40
11.3949056062012
100
AcDbArc
 50
350.476300911221
 51
358.1240518244214
  0
ARC
  5
B42A
330
1F
100
AcDbEntity
  8
freecads.com
100
AcDbCircle
 10
10681.80402561782
 20
29802.30696501761
 30
0.0
 40
1.778242365203016
100
AcDbArc
 50
320.3098942514632
 51
350.4762470436655
  0
ENDSEC
  0
SECTION
  2
OBJECTS
  0
DICTIONARY
  5
C
330
0
100
AcDbDictionary
281
     1
  3
ACAD_CIP_PREVIOUS_PRODUCT_INFO
350
1A5
  3
ACAD_COLOR
350
73
  3
ACAD_DETAILVIEWSTYLE
350
1AB
  3
ACAD_GROUP
350
D
  3
ACAD_LAYOUT
350
1A
  3
ACAD_MATERIAL
350
72
  3
ACAD_MLEADERSTYLE
350
D7
  3
ACAD_MLINESTYLE
350
17
  3
ACAD_PLOTSETTINGS
350
19
  3
ACAD_PLOTSTYLENAME
350
E
  3
ACAD_SCALELIST
350
B6
  3
ACAD_SECTIONVIEWSTYLE
350
1A8
  3
ACAD_TABLESTYLE
350
86
  3
ACAD_VISUALSTYLE
350
99
  3
ACDB_RECOMPOSE_DATA
350
B482
  3
AcDbVariableDictionary
350
66
  3
AEC_PROPERTY_SET_DEFS
350
268B
  0
DICTIONARY
  5
18E
330
2
100
AcDbDictionary
280
     1
281
     1
  3
ACAD_LAYERSTATES
360
18F
  0
DICTIONARY
  5
E6
330
10
100
AcDbDictionary
280
     1
281
     1
  0
DICTIONARY
  5
15D
330
1F
100
AcDbDictionary
280
     1
281
     1
  3
ACAD_SORTENTS
360
28E
  0
XRECORD
  5
1A5
102
{ACAD_REACTORS
330
C
102
}
330
C
100
AcDbXrecord
280
     1
300
ACD
300
2022
300

  0
DICTIONARY
  5
73
102
{ACAD_REACTORS
330
C
102
}
330
C
100
AcDbDictionary
281
     1
  0
DICTIONARY
  5
1AB
102
{ACAD_REACTORS
330
C
102
}
330
C
100
AcDbDictionary
281
     1
  3
Imperial24
350
1AC
  3
Metric50
350
224
  0
DICTIONARY
  5
D
102
{ACAD_REACTORS
330
C
102
}
330
C
100
AcDbDictionary
281
     1
  0
DICTIONARY
  5
1A
102
{ACAD_REACTORS
330
C
102
}
330
C
100
AcDbDictionary
281
     1
  3
Layout1
350
59
  3
Layout2
350
5E
  3
Model
350
22
  0
DICTIONARY
  5
72
102
{ACAD_REACTORS
330
C
102
}
330
C
100
AcDbDictionary
281
     1
  3
ByBlock
350
97
  3
ByLayer
350
96
  3
Global
350
98
  0
DICTIONARY
  5
D7
102
{ACAD_REACTORS
330
C
102
}
330
C
100
AcDbDictionary
281
     1
  3
Standard
350
D8
  0
DICTIONARY
  5
17
102
{ACAD_REACTORS
330
C
102
}
330
C
100
AcDbDictionary
281
     1
  3
Standard
350
18
  0
DICTIONARY
  5
19
102
{ACAD_REACTORS
330
C
102
}
330
C
100
AcDbDictionary
281
     1
  0
ACDBDICTIONARYWDFLT
  5
E
102
{ACAD_REACTORS
330
C
102
}
330
C
100
AcDbDictionary
281
     1
  3
Normal
350
F
100
AcDbDictionaryWithDefault
340
F
  0
DICTIONARY
  5
B6
102
{ACAD_REACTORS
330
C
102
}
330
C
100
AcDbDictionary
281
     1
  3
*A1
350
47D1
  3
*A2
350
8BD6
  3
A0
350
B7
  3
A1
350
124
  3
A2
350
125
  3
A3
350
126
  3
A4
350
127
  3
A5
350
128
  3
A6
350
129
  3
A7
350
12A
  3
A8
350
12B
  3
A9
350
12C
  3
B0
350
12D
  3
B1
350
12E
  3
B2
350
12F
  3
B3
350
130
  3
B4
350
131
  3
B5
350
132
  3
B6
350
133
  3
B7
350
134
  3
B8
350
135
  3
B9
350
136
  3
C0
350
137
  3
C1
350
138
  3
C2
350
139
  3
C3
350
13A
  3
C4
350
13B
  3
C5
350
13C
  3
C6
350
13D
  3
C7
350
13E
  3
C8
350
13F
  3
C9
350
140
  3
D0
350
141
  3
D1
350
142
  3
D2
350
143
  0
DICTIONARY
  5
1A8
102
{ACAD_REACTORS
330
C
102
}
330
C
100
AcDbDictionary
281
     1
  3
Imperial24
350
1AA
  3
Metric50
350
223
  0
DICTIONARY
  5
86
102
{ACAD_REACTORS
330
C
102
}
330
C
100
AcDbDictionary
281
     1
  3
Standard
350
87
  0
DICTIONARY
  5
99
102
{ACAD_REACTORS
330
C
102
}
330
C
100
AcDbDictionary
281
     1
  3
2dWireframe
350
9F
  3
3dWireframe
350
2684
  3
Basic
350
9E
  3
Brighten
350
A5
  3
ColorChange
350
A9
  3
Conceptual
350
A2
  3
Dim
350
A4
  3
EdgeColorOff
350
175
  3
Facepattern
350
A8
  3
Flat
350
9A
  3
FlatWithEdges
350
9B
  3
Gouraud
350
9C
  3
GouraudWithEdges
350
9D
  3
Hidden
350
A1
  3
JitterOff
350
173
  3
Linepattern
350
A7
  3
OverhangOff
350
174
  3
Realistic
350
A3
  3
Shaded
350
182
  3
Shaded with edges
350
181
  3
Shades of Gray
350
17E
  3
Sketchy
350
17F
  3
Thicken
350
A6
  3
Wireframe
350
A0
  3
X-Ray
350
180
  0
XRECORD
  5
B482
102
{ACAD_REACTORS
330
C
102
}
330
C
100
AcDbXrecord
280
     1
 90
        1
330
87
  0
DICTIONARY
  5
66
102
{ACAD_REACTORS
330
C
102
}
330
C
100
AcDbDictionary
281
     1
  3
CANNOSCALE
350
F0
  3
CMLEADERSTYLE
350
EF
  3
CTABLESTYLE
350
89
  3
CVIEWDETAILSTYLE
350
1B7
  3
CVIEWSECTIONSTYLE
350
1B8
  3
DIMASSOC
350
67
  3
HIDETEXT
350
6B
  3
LAYEREVAL
350
14D
  3
LAYERNOTIFY
350
14E
  0
DICTIONARY
  5
268B
102
{ACAD_REACTORS
330
C
102
}
330
C
100
AcDbDictionary
281
     1
  0
DICTIONARY
  5
18F
102
{ACAD_REACTORS
330
18E
102
}
330
18E
100
AcDbDictionary
281
     1
  0
SORTENTSTABLE
  5
28E
102
{ACAD_REACTORS
330
15D
102
}
330
15D
100
AcDbSortentsTable
330
1F
  0
ACDBDETAILVIEWSTYLE
  5
1AC
102
{ACAD_REACTORS
330
1AB
102
}
330
1AB
100
AcDbModelDocViewStyle
 70
     0
  3
Imperial24
290
     0
300
Imperial24
 90
        0
100
AcDbDetailViewStyle
 70
     0
 71
     0
 90
        3
 71
     1
340
11
 62
   256
 40
0.24
340
0
 62
   256
 40
0.24
300

 40
0.36
280
     3
 71
     2
340
16
 90
       25
 62
   256
 71
     3
340
11
 62
   256
 40
0.24
 90
        1
 40
0.75
 90
        1
300
%<\AcVar ViewType \f "%tc1">% %<\AcVar ViewDetailId>%\PSCALE %<\AcVar ViewScale \f "%sn">%
 71
     4
340
16
 90
       25
 62
   256
340
16
 90
       25
 62
   256
280
     0
  0
ACDBDETAILVIEWSTYLE
  5
224
102
{ACAD_REACTORS
330
1AB
102
}
330
1AB
100
AcDbModelDocViewStyle
 70
     0
  3
Metric50
290
     0
300
Metric50
 90
        0
100
AcDbDetailViewStyle
 70
     0
 71
     0
 90
        3
 71
     1
340
11
 62
   256
 40
5.0
340
0
 62
   256
 40
5.0
300

 40
0.0
280
     1
 71
     2
340
16
 90
       25
 62
   256
 71
     3
340
11
 62
   256
 40
5.0
 90
        0
 40
15.0
 90
        1
300
%<\AcVar ViewDetailId>% (%<\AcVar ViewScale \f "%sn">%)
 71
     4
340
16
 90
       25
 62
   256
340
16
 90
       25
 62
   256
280
     0
  0
LAYOUT
  5
59
102
{ACAD_REACTORS
330
1A
102
}
330
1A
100
AcDbPlotSettings
  1

  2
None
  4

  6

 40
0.0
 41
0.0
 42
0.0
 43
0.0
 44
0.0
 45
0.0
 46
0.0
 47
0.0
 48
0.0
 49
0.0
140
0.0
141
0.0
142
1.0
143
1.0
 70
   688
 72
     0
 73
     0
 74
     5
  7

 75
    16
147
1.0
 76
     0
 77
     2
 78
   300
148
0.0
149
0.0
100
AcDbLayout
  1
Layout1
 70
     1
 71
     1
 10
0.0
 20
0.0
 11
12.0
 21
9.0
 12
0.0
 22
0.0
 32
0.0
 14
0.0
 24
0.0
 34
0.0
 15
0.0
 25
0.0
 35
0.0
146
0.0
 13
0.0
 23
0.0
 33
0.0
 16
1.0
 26
0.0
 36
0.0
 17
0.0
 27
1.0
 37
0.0
 76
     0
330
58
  0
LAYOUT
  5
5E
102
{ACAD_REACTORS
330
1A
102
}
330
1A
100
AcDbPlotSettings
  1

  2
None
  4

  6

 40
0.0
 41
0.0
 42
0.0
 43
0.0
 44
0.0
 45
0.0
 46
0.0
 47
0.0
 48
0.0
 49
0.0
140
0.0
141
0.0
142
1.0
143
1.0
 70
   688
 72
     0
 73
     0
 74
     5
  7

 75
    16
147
1.0
 76
     0
 77
     2
 78
   300
148
0.0
149
0.0
100
AcDbLayout
  1
Layout2
 70
     1
 71
     2
 10
0.0
 20
0.0
 11
12.0
 21
9.0
 12
0.0
 22
0.0
 32
0.0
 14
0.0
 24
0.0
 34
0.0
 15
0.0
 25
0.0
 35
0.0
146
0.0
 13
0.0
 23
0.0
 33
0.0
 16
1.0
 26
0.0
 36
0.0
 17
0.0
 27
1.0
 37
0.0
 76
     0
330
5D
  0
LAYOUT
  5
22
102
{ACAD_XDICTIONARY
360
194
102
}
102
{ACAD_REACTORS
330
1A
102
}
330
1A
100
AcDbPlotSettings
  1

  2
none_device
  4
ANSI_A_(8.50_x_11.00_Inches)
  6

 40
6.349999904632568
 41
19.04999923706055
 42
6.350006103515625
 43
19.04998779296875
 44
215.8999938964844
 45
279.3999938964844
 46
0.0
 47
0.0
 48
0.0
 49
0.0
140
0.0
141
0.0
142
1.0
143
2.584895464708373
 70
 11952
 72
     0
 73
     1
 74
     0
  7

 75
     0
147
0.3868628397755418
 76
     0
 77
     2
 78
   300
148
0.0
149
0.0
100
AcDbLayout
  1
Model
 70
     1
 71
     0
 10
0.0
 20
0.0
 11
12.0
 21
9.0
 12
0.0
 22
0.0
 32
0.0
 14
0.0
 24
0.0
 34
0.0
 15
0.0
 25
0.0
 35
0.0
146
0.0
 13
0.0
 23
0.0
 33
0.0
 16
1.0
 26
0.0
 36
0.0
 17
0.0
 27
1.0
 37
0.0
 76
     0
330
1F
331
94
  0
MATERIAL
  5
97
102
{ACAD_XDICTIONARY
360
188
102
}
102
{ACAD_REACTORS
330
72
102
}
330
72
100
AcDbMaterial
  1
ByBlock
 94
       63
  0
MATERIAL
  5
96
102
{ACAD_XDICTIONARY
360
186
102
}
102
{ACAD_REACTORS
330
72
102
}
330
72
100
AcDbMaterial
  1
ByLayer
 94
       63
  0
MATERIAL
  5
98
102
{ACAD_XDICTIONARY
360
110
102
}
102
{ACAD_REACTORS
330
72
102
}
330
72
100
AcDbMaterial
  1
Global
 43
0.0208000000566244
 43
0.0
 43
0.0
 43
0.0
 43
0.0
 43
0.0208000000566244
 43
0.0
 43
0.0
 43
0.0
 43
0.0
 43
1.0
 43
0.0
 43
0.0
 43
0.0
 43
0.0
 43
1.0
 49
0.0208000000566244
 49
0.0
 49
0.0
 49
0.0
 49
0.0
 49
0.0208000000566244
 49
0.0
 49
0.0
 49
0.0
 49
0.0
 49
1.0
 49
0.0
 49
0.0
 49
0.0
 49
0.0
 49
1.0
142
0.0208000000566244
142
0.0
142
0.0
142
0.0
142
0.0
142
0.0208000000566244
142
0.0
142
0.0
142
0.0
142
0.0
142
1.0
142
0.0
142
0.0
142
0.0
142
0.0
142
1.0
144
0.0208000000566244
144
0.0
144
0.0
144
0.0
144
0.0
144
0.0208000000566244
144
0.0
144
0.0
144
0.0
144
0.0
144
1.0
144
0.0
144
0.0
144
0.0
144
0.0
144
1.0
 94
       63
1001
ACAD
1070
    -1
1070
     3
1070
     0
1000

1071
        0
1070
     0
  0
MLEADERSTYLE
  5
D8
102
{ACAD_REACTORS
330
D7
102
}
330
D7
100
AcDbMLeaderStyle
179
     2
170
     2
171
     1
172
     0
 90
        2
 40
0.0
 41
0.0
173
     1
 91
-1056964608
340
14
 92
       -2
290
     1
 42
0.09
291
     1
 43
0.36
  3
Standard
 44
0.18
300

342
11
174
     1
178
     1
175
     1
176
     0
 93
-1056964608
 45
0.18
292
     0
297
     0
 46
0.18
 94
-1056964608
 47
1.0
 49
1.0
140
1.0
293
     1
141
0.0
294
     1
177
     0
142
1.0
295
     0
296
     0
143
0.125
271
     0
272
     9
273
     9
298
     0
  0
MLINESTYLE
  5
18
102
{ACAD_REACTORS
330
17
102
}
330
17
100
AcDbMlineStyle
  2
STANDARD
 70
     0
  3

 62
   256
 51
90.0
 52
90.0
 71
     2
 49
0.5
 62
   256
  6
BYLAYER
 49
-0.5
 62
   256
  6
BYLAYER
  0
ACDBPLACEHOLDER
  5
F
102
{ACAD_REACTORS
330
E
102
}
330
E
  0
SCALE
  5
47D1
102
{ACAD_REACTORS
330
B6
102
}
330
B6
100
AcDbScale
 70
     0
300
1:100_1_XREF_XREF_XREF_XREF
140
1.0
141
0.1
290
     0
  0
SCALE
  5
8BD6
102
{ACAD_REACTORS
330
B6
102
}
330
B6
100
AcDbScale
 70
     0
300
1:100_1_XREF_XREF_XREF_XREF_XREF_XREF_XREF_XREF_XREF
140
1.0
141
0.1
290
     0
1001
ACAD
1000
AcRTDxfName
1000
SCALE
1000
AcRTDxfName
1000
SCALE
1000
AcRTDxfName
1000
SCALE
1000
AcRTDxfName
1000
SCALE
  0
SCALE
  5
B7
102
{ACAD_REACTORS
330
B6
102
}
330
B6
100
AcDbScale
 70
     0
300
1:1
140
1.0
141
1.0
290
     1
  0
SCALE
  5
124
102
{ACAD_REACTORS
330
B6
102
}
330
B6
100
AcDbScale
 70
     0
300
1:2
140
1.0
141
2.0
290
     0
  0
SCALE
  5
125
102
{ACAD_REACTORS
330
B6
102
}
330
B6
100
AcDbScale
 70
     0
300
1:4
140
1.0
141
4.0
290
     0
  0
SCALE
  5
126
102
{ACAD_REACTORS
330
B6
102
}
330
B6
100
AcDbScale
 70
     0
300
1:5
140
1.0
141
5.0
290
     0
  0
SCALE
  5
127
102
{ACAD_REACTORS
330
B6
102
}
330
B6
100
AcDbScale
 70
     0
300
1:8
140
1.0
141
8.0
290
     0
  0
SCALE
  5
128
102
{ACAD_REACTORS
330
B6
102
}
330
B6
100
AcDbScale
 70
     0
300
1:10
140
1.0
141
10.0
290
     0
  0
SCALE
  5
129
102
{ACAD_REACTORS
330
B6
102
}
330
B6
100
AcDbScale
 70
     0
300
1:16
140
1.0
141
16.0
290
     0
  0
SCALE
  5
12A
102
{ACAD_REACTORS
330
B6
102
}
330
B6
100
AcDbScale
 70
     0
300
1:20
140
1.0
141
20.0
290
     0
  0
SCALE
  5
12B
102
{ACAD_REACTORS
330
B6
102
}
330
B6
100
AcDbScale
 70
     0
300
1:30
140
1.0
141
30.0
290
     0
  0
SCALE
  5
12C
102
{ACAD_REACTORS
330
B6
102
}
330
B6
100
AcDbScale
 70
     0
300
1:40
140
1.0
141
40.0
290
     0
  0
SCALE
  5
12D
102
{ACAD_REACTORS
330
B6
102
}
330
B6
100
AcDbScale
 70
     0
300
1:50
140
1.0
141
50.0
290
     0
  0
SCALE
  5
12E
102
{ACAD_REACTORS
330
B6
102
}
330
B6
100
AcDbScale
 70
     0
300
1:100
140
1.0
141
100.0
290
     0
  0
SCALE
  5
12F
102
{ACAD_REACTORS
330
B6
102
}
330
B6
100
AcDbScale
 70
     0
300
2:1
140
2.0
141
1.0
290
     0
  0
SCALE
  5
130
102
{ACAD_REACTORS
330
B6
102
}
330
B6
100
AcDbScale
 70
     0
300
4:1
140
4.0
141
1.0
290
     0
  0
SCALE
  5
131
102
{ACAD_REACTORS
330
B6
102
}
330
B6
100
AcDbScale
 70
     0
300
8:1
140
8.0
141
1.0
290
     0
  0
SCALE
  5
132
102
{ACAD_REACTORS
330
B6
102
}
330
B6
100
AcDbScale
 70
     0
300
10:1
140
10.0
141
1.0
290
     0
  0
SCALE
  5
133
102
{ACAD_REACTORS
330
B6
102
}
330
B6
100
AcDbScale
 70
     0
300
100:1
140
100.0
141
1.0
290
     0
  0
SCALE
  5
134
102
{ACAD_REACTORS
330
B6
102
}
330
B6
100
AcDbScale
 70
     0
300
1/128" = 1'-0"
140
0.0078125
141
12.0
290
     0
  0
SCALE
  5
135
102
{ACAD_REACTORS
330
B6
102
}
330
B6
100
AcDbScale
 70
     0
300
1/64" = 1'-0"
140
0.015625
141
12.0
290
     0
  0
SCALE
  5
136
102
{ACAD_REACTORS
330
B6
102
}
330
B6
100
AcDbScale
 70
     0
300
1/32" = 1'-0"
140
0.03125
141
12.0
290
     0
  0
SCALE
  5
137
102
{ACAD_REACTORS
330
B6
102
}
330
B6
100
AcDbScale
 70
     0
300
1/16" = 1'-0"
140
0.0625
141
12.0
290
     0
  0
SCALE
  5
138
102
{ACAD_REACTORS
330
B6
102
}
330
B6
100
AcDbScale
 70
     0
300
3/32" = 1'-0"
140
0.09375
141
12.0
290
     0
  0
SCALE
  5
139
102
{ACAD_REACTORS
330
B6
102
}
330
B6
100
AcDbScale
 70
     0
300
1/8" = 1'-0"
140
0.125
141
12.0
290
     0
  0
SCALE
  5
13A
102
{ACAD_REACTORS
330
B6
102
}
330
B6
100
AcDbScale
 70
     0
300
3/16" = 1'-0"
140
0.1875
141
12.0
290
     0
  0
SCALE
  5
13B
102
{ACAD_REACTORS
330
B6
102
}
330
B6
100
AcDbScale
 70
     0
300
1/4" = 1'-0"
140
0.25
141
12.0
290
     0
  0
SCALE
  5
13C
102
{ACAD_REACTORS
330
B6
102
}
330
B6
100
AcDbScale
 70
     0
300
3/8" = 1'-0"
140
0.375
141
12.0
290
     0
  0
SCALE
  5
13D
102
{ACAD_REACTORS
330
B6
102
}
330
B6
100
AcDbScale
 70
     0
300
1/2" = 1'-0"
140
0.5
141
12.0
290
     0
  0
SCALE
  5
13E
102
{ACAD_REACTORS
330
B6
102
}
330
B6
100
AcDbScale
 70
     0
300
3/4" = 1'-0"
140
0.75
141
12.0
290
     0
  0
SCALE
  5
13F
102
{ACAD_REACTORS
330
B6
102
}
330
B6
100
AcDbScale
 70
     0
300
1" = 1'-0"
140
1.0
141
12.0
290
     0
  0
SCALE
  5
140
102
{ACAD_REACTORS
330
B6
102
}
330
B6
100
AcDbScale
 70
     0
300
1-1/2" = 1'-0"
140
1.5
141
12.0
290
     0
  0
SCALE
  5
141
102
{ACAD_REACTORS
330
B6
102
}
330
B6
100
AcDbScale
 70
     0
300
3" = 1'-0"
140
3.0
141
12.0
290
     0
  0
SCALE
  5
142
102
{ACAD_REACTORS
330
B6
102
}
330
B6
100
AcDbScale
 70
     0
300
6" = 1'-0"
140
6.0
141
12.0
290
     0
  0
SCALE
  5
143
102
{ACAD_REACTORS
330
B6
102
}
330
B6
100
AcDbScale
 70
     0
300
1'-0" = 1'-0"
140
12.0
141
12.0
290
     0
  0
ACDBSECTIONVIEWSTYLE
  5
1AA
102
{ACAD_REACTORS
330
1A8
102
}
330
1A8
100
AcDbModelDocViewStyle
 70
     0
  3
Imperial24
290
     0
300
Imperial24
 90
        0
100
AcDbSectionViewStyle
 70
     0
 71
     0
 90
       78
 71
     1
340
11
 62
   256
 40
0.24
340
0
340
0
 62
   256
 40
0.24
300
I, O, Q, S, X, Z
 40
0.48
 90
        3
 40
0.18
 90
        1
 71
     2
340
16
 90
       25
 62
   256
340
16
 90
       50
 62
   256
 40
0.24
 40
0.0
 40
0.24
 71
     3
340
11
 62
   256
 40
0.24
 90
        1
 40
0.75
 90
        1
300
%<\AcVar ViewType \f "%tc1">% %<\AcVar ViewSectionStartId>%-%<\AcVar ViewSectionEndId>%\PSCALE %<\AcVar ViewScale \f "%sn">%
 71
     4
 62
   256
 62
   257
300
ANSI31
 40
1.0
 90
        0
290
     0
290
     0
 90
        6
 40
0.0
 40
1.570796326794896
 40
0.2617993877991494
 40
1.308996938995747
 40
-0.2617993877991494
 40
1.832595714594046
  0
ACDBSECTIONVIEWSTYLE
  5
223
102
{ACAD_REACTORS
330
1A8
102
}
330
1A8
100
AcDbModelDocViewStyle
 70
     0
  3
Metric50
290
     0
300
Metric50
 90
        0
100
AcDbSectionViewStyle
 70
     0
 71
     0
 90
      102
 71
     1
340
11
 62
   256
 40
5.0
340
0
340
0
 62
   256
 40
5.0
300
I, O, Q, S, X, Z
 40
10.0
 90
        0
 40
2.5
 90
        0
 71
     2
340
16
 90
       25
 62
   256
340
16
 90
       50
 62
   256
 40
5.0
 40
2.5
 40
5.0
 71
     3
340
11
 62
   256
 40
5.0
 90
        0
 40
15.0
 90
        1
300
%<\AcVar ViewSectionStartId>%-%<\AcVar ViewSectionEndId>% (%<\AcVar ViewScale \f "%sn">%)
 71
     4
 62
   256
 62
   257
300
ANSI31
 40
1.0
 90
        0
290
     0
290
     0
 90
        6
 40
0.0
 40
1.570796326794896
 40
0.2617993877991494
 40
1.308996938995747
 40
-0.2617993877991494
 40
1.832595714594046
  0
TABLESTYLE
  5
87
102
{ACAD_XDICTIONARY
360
104
102
}
102
{ACAD_REACTORS
330
86
102
}
330
86
100
AcDbTableStyle
280
     0
  3
Standard
 70
     0
 71
     0
 40
0.06
 41
0.06
280
     0
281
     0
  7
Standard
140
0.18
170
     2
 62
     0
 63
     7
283
     0
 90
      512
 91
        0
  1

274
    -2
284
     1
 64
     0
275
    -2
285
     1
 65
     0
276
    -2
286
     1
 66
     0
277
    -2
287
     1
 67
     0
278
    -2
288
     1
 68
     0
279
    -2
289
     1
 69
     0
  7
Standard
140
0.25
170
     5
 62
     0
 63
     7
283
     0
 90
      512
 91
        0
  1

274
    -2
284
     1
 64
     0
275
    -2
285
     1
 65
     0
276
    -2
286
     1
 66
     0
277
    -2
287
     1
 67
     0
278
    -2
288
     1
 68
     0
279
    -2
289
     1
 69
     0
  7
Standard
140
0.18
170
     5
 62
     0
 63
     7
283
     0
 90
      512
 91
        0
  1

274
    -2
284
     1
 64
     0
275
    -2
285
     1
 65
     0
276
    -2
286
     1
 66
     0
277
    -2
287
     1
 67
     0
278
    -2
288
     1
 68
     0
279
    -2
289
     1
 69
     0
  0
VISUALSTYLE
  5
9F
102
{ACAD_REACTORS
330
99
102
}
330
99
100
AcDbVisualStyle
  2
2dWireframe
 70
     4
177
     3
291
     0
 70
    58
 90
        0
176
     1
 90
        2
176
     1
 90
        1
176
     1
 90
        0
176
     1
 40
0.6
176
     1
 40
30.0
176
     1
 62
     7
420
 16777215
176
     1
 90
        1
176
     1
 90
        4
176
     1
 62
     7
176
     1
 62
   257
176
     1
 90
        1
176
     1
 90
        1
176
     1
 40
1.0
176
     1
 90
        0
176
     1
 62
   257
176
     1
 40
1.0
176
     1
 90
        1
176
     1
 90
        6
176
     1
 90
        2
176
     1
 62
     7
176
     1
 90
        5
176
     1
 90
        0
176
     1
 90
        0
176
     1
290
     0
176
     1
 90
        1
176
     1
 40
0.0
176
     1
 90
        0
176
     1
290
     1
176
     1
290
     1
176
     1
290
     0
176
     1
290
     0
176
     1
290
     0
176
     1
290
     0
176
     1
290
     0
176
     1
290
     0
176
     1
290
     0
176
     1
 90
       50
176
     1
 40
0.0
176
     1
 40
1.0
176
     1
 90
        0
176
     1
 62
    18
420
        0
176
     1
 90
       50
176
     1
 90
        3
176
     1
 62
     5
420
      255
176
     1
290
     0
176
     1
 90
       50
176
     1
 90
       50
176
     1
 90
       50
176
     1
290
     0
176
     1
 90
       50
176
     1
 62
   256
176
     0
 40
1.0
176
     0
 90
        2
176
     1
  1
strokes_ogs.tif
176
     1
290
     0
176
     1
 40
1.0
176
     1
 40
1.0
176
     1
  0
VISUALSTYLE
  5
2684
102
{ACAD_REACTORS
330
99
102
}
330
99
100
AcDbVisualStyle
  2
3dWireframe
 70
     5
177
     3
291
     0
 70
    58
 90
        0
176
     1
 90
        2
176
     1
 90
        0
176
     1
 90
        0
176
     1
 40
0.6
176
     1
 40
30.0
176
     1
 62
     7
176
     1
 90
        1
176
     1
 90
        4
176
     1
 62
     7
176
     1
 62
   257
176
     1
 90
        1
176
     1
 90
        1
176
     1
 40
1.0
176
     1
 90
        0
176
     1
 62
   257
176
     1
 40
1.0
176
     1
 90
        1
176
     1
 90
        6
176
     1
 90
        2
176
     1
 62
     7
176
     1
 90
        5
176
     1
 90
        0
176
     1
 90
        0
176
     1
290
     0
176
     1
 90
        1
176
     1
 40
0.0
176
     1
 90
        0
176
     1
290
     0
176
     1
290
     1
176
     1
290
     1
176
     1
290
     0
176
     1
290
     0
176
     1
290
     0
176
     1
290
     0
176
     1
290
     0
176
     1
290
     0
176
     1
 90
       50
176
     1
 40
0.0
176
     1
 40
1.0
176
     1
 90
        0
176
     1
 62
    18
420
        0
176
     1
 90
       50
176
     1
 90
        3
176
     1
 62
     5
420
      255
176
     1
290
     0
176
     1
 90
       50
176
     1
 90
       50
176
     1
 90
       50
176
     1
290
     0
176
     1
 90
       50
176
     1
 62
   256
176
     0
 40
1.0
176
     0
 90
        2
176
     1
  1
strokes_ogs.tif
176
     1
290
     0
176
     1
 40
1.0
176
     1
 40
1.0
176
     1
1001
ACAD
1000
AcRTDxfName
1000
VISUALSTYLE
  0
VISUALSTYLE
  5
9E
102
{ACAD_REACTORS
330
99
102
}
330
99
100
AcDbVisualStyle
  2
Basic
 70
     7
177
     3
291
     1
 70
    58
 90
        1
176
     1
 90
        0
176
     1
 90
        1
176
     1
 90
        0
176
     1
 40
0.6
176
     1
 40
30.0
176
     1
 62
     7
420
 16777215
176
     1
 90
        0
176
     1
 90
        4
176
     1
 62
     7
176
     1
 62
   257
176
     1
 90
        1
176
     1
 90
        1
176
     1
 40
1.0
176
     1
 90
        8
176
     1
 62
     7
176
     1
 40
1.0
176
     1
 90
        1
176
     1
 90
        6
176
     1
 90
        2
176
     1
 62
     7
176
     1
 90
        5
176
     1
 90
        0
176
     1
 90
        0
176
     1
290
     0
176
     1
 90
        1
176
     1
 40
0.0
176
     1
 90
        0
176
     1
290
     0
176
     1
290
     1
176
     1
290
     1
176
     1
290
     0
176
     1
290
     0
176
     1
290
     0
176
     1
290
     0
176
     1
290
     0
176
     1
290
     0
176
     1
 90
       50
176
     1
 40
0.0
176
     1
 40
1.0
176
     1
 90
        0
176
     1
 62
    18
420
        0
176
     1
 90
       50
176
     1
 90
        3
176
     1
 62
     5
420
      255
176
     1
290
     0
176
     1
 90
       50
176
     1
 90
       50
176
     1
 90
       50
176
     1
290
     0
176
     1
 90
       50
176
     1
 62
   256
176
     0
 40
1.0
176
     0
 90
        2
176
     1
  1
strokes_ogs.tif
176
     1
290
     0
176
     1
 40
1.0
176
     1
 40
1.0
176
     1
  0
VISUALSTYLE
  5
A5
102
{ACAD_REACTORS
330
99
102
}
330
99
100
AcDbVisualStyle
  2
Brighten
 70
    12
177
     3
291
     1
 70
    58
 90
        2
176
     1
 90
        2
176
     1
 90
        1
176
     1
 90
        0
176
     1
 40
0.6
176
     1
 40
30.0
176
     1
 62
     7
420
 16777215
176
     1
 90
        1
176
     1
 90
        4
176
     1
 62
     7
176
     1
 62
   257
176
     1
 90
        1
176
     1
 90
        1
176
     1
 40
1.0
176
     1
 90
        8
176
     1
 62
     7
176
     1
 40
1.0
176
     1
 90
        1
176
     1
 90
        6
176
     1
 90
        2
176
     1
 62
     7
176
     1
 90
        5
176
     1
 90
        0
176
     1
 90
        0
176
     1
290
     0
176
     1
 90
        1
176
     1
 40
50.0
176
     1
 90
        0
176
     1
290
     0
176
     1
290
     1
176
     1
290
     1
176
     1
290
     0
176
     1
290
     0
176
     1
290
     0
176
     1
290
     0
176
     1
290
     0
176
     1
290
     0
176
     1
 90
       50
176
     1
 40
0.0
176
     1
 40
1.0
176
     1
 90
        0
176
     1
 62
    18
420
        0
176
     1
 90
       50
176
     1
 90
        3
176
     1
 62
     5
420
      255
176
     1
290
     0
176
     1
 90
       50
176
     1
 90
       50
176
     1
 90
       50
176
     1
290
     0
176
     1
 90
       50
176
     1
 62
   256
176
     0
 40
1.0
176
     0
 90
        2
176
     1
  1
strokes_ogs.tif
176
     1
290
     0
176
     1
 40
1.0
176
     1
 40
1.0
176
     1
  0
VISUALSTYLE
  5
A9
102
{ACAD_REACTORS
330
99
102
}
330
99
100
AcDbVisualStyle
  2
ColorChange
 70
    16
177
     3
291
     1
 70
    58
 90
        2
176
     1
 90
        2
176
     1
 90
        3
176
     1
 90
        0
176
     1
 40
0.6
176
     1
 40
30.0
176
     1
 62
     8
420
  8421504
176
     1
 90
        1
176
     1
 90
        4
176
     1
 62
     7
176
     1
 62
   257
176
     1
 90
        1
176
     1
 90
        1
176
     1
 40
1.0
176
     1
 90
        8
176
     1
 62
     8
420
  8421504
176
     1
 40
1.0
176
     1
 90
        1
176
     1
 90
        6
176
     1
 90
        2
176
     1
 62
     7
176
     1
 90
        5
176
     1
 90
        0
176
     1
 90
        0
176
     1
290
     0
176
     1
 90
        1
176
     1
 40
0.0
176
     1
 90
        0
176
     1
290
     0
176
     1
290
     1
176
     1
290
     1
176
     1
290
     0
176
     1
290
     0
176
     1
290
     0
176
     1
290
     0
176
     1
290
     0
176
     1
290
     0
176
     1
 90
       50
176
     1
 40
0.0
176
     1
 40
1.0
176
     1
 90
        0
176
     1
 62
    18
420
        0
176
     1
 90
       50
176
     1
 90
        3
176
     1
 62
     5
420
      255
176
     1
290
     0
176
     1
 90
       50
176
     1
 90
       50
176
     1
 90
       50
176
     1
290
     0
176
     1
 90
       50
176
     1
 62
   256
176
     0
 40
1.0
176
     0
 90
        2
176
     1
  1
strokes_ogs.tif
176
     1
290
     0
176
     1
 40
1.0
176
     1
 40
1.0
176
     1
  0
VISUALSTYLE
  5
A2
102
{ACAD_REACTORS
330
99
102
}
330
99
100
AcDbVisualStyle
  2
Conceptual
 70
     9
177
     3
291
     0
 70
    58
 90
        3
176
     1
 90
        2
176
     1
 90
        1
176
     1
 90
        0
176
     1
 40
0.6
176
     1
 40
30.0
176
     1
 62
     7
420
 16777215
176
     1
 90
        2
176
     1
 90
        2
176
     1
 62
     7
176
     1
 62
   257
176
     1
 90
        1
176
     1
 90
        1
176
     1
 40
40.0
176
     1
 90
        8
176
     1
 62
     7
176
     1
 40
1.0
176
     1
 90
        1
176
     1
 90
        6
176
     1
 90
        2
176
     1
 62
     7
176
     1
 90
        3
176
     1
 90
        0
176
     1
 90
        0
176
     1
290
     0
176
     1
 90
        1
176
     1
 40
0.0
176
     1
 90
        0
176
     1
290
     0
176
     1
290
     1
176
     1
290
     1
176
     1
290
     0
176
     1
290
     0
176
     1
290
     0
176
     1
290
     0
176
     1
290
     0
176
     1
290
     0
176
     1
 90
       50
176
     1
 40
0.0
176
     1
 40
1.0
176
     1
 90
        0
176
     1
 62
    18
420
        0
176
     1
 90
       50
176
     1
 90
        3
176
     1
 62
     5
420
      255
176
     1
290
     0
176
     1
 90
       50
176
     1
 90
       50
176
     1
 90
       50
176
     1
290
     0
176
     1
 90
       50
176
     1
 62
   256
176
     0
 40
1.0
176
     0
 90
        2
176
     1
  1
strokes_ogs.tif
176
     1
290
     0
176
     1
 40
1.0
176
     1
 40
1.0
176
     1
  0
VISUALSTYLE
  5
A4
102
{ACAD_REACTORS
330
99
102
}
330
99
100
AcDbVisualStyle
  2
Dim
 70
    11
177
     3
291
     1
 70
    58
 90
        2
176
     1
 90
        2
176
     1
 90
        1
176
     1
 90
        0
176
     1
 40
0.6
176
     1
 40
30.0
176
     1
 62
     7
420
 16777215
176
     1
 90
        1
176
     1
 90
        4
176
     1
 62
     7
176
     1
 62
   257
176
     1
 90
        1
176
     1
 90
        1
176
     1
 40
1.0
176
     1
 90
        8
176
     1
 62
     7
176
     1
 40
1.0
176
     1
 90
        1
176
     1
 90
        6
176
     1
 90
        2
176
     1
 62
     7
176
     1
 90
        5
176
     1
 90
        0
176
     1
 90
        0
176
     1
290
     0
176
     1
 90
        1
176
     1
 40
-50.0
176
     1
 90
        0
176
     1
290
     0
176
     1
290
     1
176
     1
290
     1
176
     1
290
     0
176
     1
290
     0
176
     1
290
     0
176
     1
290
     0
176
     1
290
     0
176
     1
290
     0
176
     1
 90
       50
176
     1
 40
0.0
176
     1
 40
1.0
176
     1
 90
        0
176
     1
 62
    18
420
        0
176
     1
 90
       50
176
     1
 90
        3
176
     1
 62
     5
420
      255
176
     1
290
     0
176
     1
 90
       50
176
     1
 90
       50
176
     1
 90
       50
176
     1
290
     0
176
     1
 90
       50
176
     1
 62
   256
176
     0
 40
1.0
176
     0
 90
        2
176
     1
  1
strokes_ogs.tif
176
     1
290
     0
176
     1
 40
1.0
176
     1
 40
1.0
176
     1
  0
VISUALSTYLE
  5
175
102
{ACAD_REACTORS
330
99
102
}
330
99
100
AcDbVisualStyle
  2
EdgeColorOff
 70
    22
177
     3
291
     1
 70
    58
 90
        2
176
     0
 90
        2
176
     0
 90
        0
176
     0
 90
        0
176
     0
 40
0.6
176
     0
 40
30.0
176
     0
 62
     7
420
 16777215
176
     0
 90
        1
176
     0
 90
        4
176
     0
 62
     7
176
     0
 62
   257
176
     0
 90
        1
176
     0
 90
        1
176
     0
 40
1.0
176
     0
 90
        8
176
     2
 62
     7
176
     0
 40
1.0
176
     0
 90
        1
176
     0
 90
        6
176
     0
 90
        2
176
     0
 62
     7
176
     0
 90
        5
176
     0
 90
        0
176
     0
 90
        0
176
     0
290
     0
176
     0
 90
        1
176
     0
 40
0.0
176
     0
 90
        0
176
     0
290
     0
176
     1
290
     1
176
     1
290
     1
176
     1
290
     0
176
     1
290
     0
176
     1
290
     0
176
     1
290
     0
176
     1
290
     0
176
     1
290
     0
176
     1
 90
       50
176
     1
 40
0.0
176
     1
 40
1.0
176
     1
 90
        0
176
     1
 62
    18
420
        0
176
     1
 90
       50
176
     1
 90
        3
176
     1
 62
     5
420
      255
176
     1
290
     0
176
     1
 90
       50
176
     1
 90
       50
176
     1
 90
       50
176
     1
290
     0
176
     1
 90
       50
176
     1
 62
   256
176
     0
 40
1.0
176
     0
 90
        2
176
     1
  1
strokes_ogs.tif
176
     1
290
     0
176
     1
 40
1.0
176
     1
 40
1.0
176
     1
  0
VISUALSTYLE
  5
A8
102
{ACAD_REACTORS
330
99
102
}
330
99
100
AcDbVisualStyle
  2
Facepattern
 70
    15
177
     3
291
     1
 70
    58
 90
        2
176
     1
 90
        2
176
     1
 90
        1
176
     1
 90
        0
176
     1
 40
0.6
176
     1
 40
30.0
176
     1
 62
     7
420
 16777215
176
     1
 90
        1
176
     1
 90
        4
176
     1
 62
     7
176
     1
 62
   257
176
     1
 90
        1
176
     1
 90
        1
176
     1
 40
1.0
176
     1
 90
        8
176
     1
 62
     7
176
     1
 40
1.0
176
     1
 90
        1
176
     1
 90
        6
176
     1
 90
        2
176
     1
 62
     7
176
     1
 90
        5
176
     1
 90
        0
176
     1
 90
        0
176
     1
290
     0
176
     1
 90
        1
176
     1
 40
0.0
176
     1
 90
        0
176
     1
290
     0
176
     1
290
     1
176
     1
290
     1
176
     1
290
     0
176
     1
290
     0
176
     1
290
     0
176
     1
290
     0
176
     1
290
     0
176
     1
290
     0
176
     1
 90
       50
176
     1
 40
0.0
176
     1
 40
1.0
176
     1
 90
        0
176
     1
 62
    18
420
        0
176
     1
 90
       50
176
     1
 90
        3
176
     1
 62
     5
420
      255
176
     1
290
     0
176
     1
 90
       50
176
     1
 90
       50
176
     1
 90
       50
176
     1
290
     0
176
     1
 90
       50
176
     1
 62
   256
176
     0
 40
1.0
176
     0
 90
        2
176
     1
  1
strokes_ogs.tif
176
     1
290
     0
176
     1
 40
1.0
176
     1
 40
1.0
176
     1
  0
VISUALSTYLE
  5
9A
102
{ACAD_REACTORS
330
99
102
}
330
99
100
AcDbVisualStyle
  2
Flat
 70
     0
177
     3
291
     1
 70
    58
 90
        2
176
     1
 90
        1
176
     1
 90
        1
176
     1
 90
        2
176
     1
 40
0.6
176
     1
 40
30.0
176
     1
 62
     7
420
 16777215
176
     1
 90
        0
176
     1
 90
        0
176
     1
 62
     7
176
     1
 62
   257
176
     1
 90
        1
176
     1
 90
        1
176
     1
 40
1.0
176
     1
 90
        8
176
     1
 62
     7
176
     1
 40
1.0
176
     1
 90
        1
176
     1
 90
        6
176
     1
 90
        2
176
     1
 62
     7
176
     1
 90
        5
176
     1
 90
        0
176
     1
 90
        0
176
     1
290
     0
176
     1
 90
       13
176
     1
 40
0.0
176
     1
 90
        0
176
     1
290
     0
176
     1
290
     1
176
     1
290
     1
176
     1
290
     0
176
     1
290
     0
176
     1
290
     0
176
     1
290
     0
176
     1
290
     0
176
     1
290
     0
176
     1
 90
       50
176
     1
 40
0.0
176
     1
 40
1.0
176
     1
 90
        0
176
     1
 62
    18
420
        0
176
     1
 90
       50
176
     1
 90
        3
176
     1
 62
     5
420
      255
176
     1
290
     0
176
     1
 90
       50
176
     1
 90
       50
176
     1
 90
       50
176
     1
290
     0
176
     1
 90
       50
176
     1
 62
   256
176
     0
 40
1.0
176
     0
 90
        2
176
     1
  1
strokes_ogs.tif
176
     1
290
     0
176
     1
 40
1.0
176
     1
 40
1.0
176
     1
  0
VISUALSTYLE
  5
9B
102
{ACAD_REACTORS
330
99
102
}
330
99
100
AcDbVisualStyle
  2
FlatWithEdges
 70
     1
177
     3
291
     1
 70
    58
 90
        2
176
     1
 90
        1
176
     1
 90
        1
176
     1
 90
        2
176
     1
 40
0.6
176
     1
 40
30.0
176
     1
 62
     7
420
 16777215
176
     1
 90
        1
176
     1
 90
        0
176
     1
 62
     7
176
     1
 62
   257
176
     1
 90
        1
176
     1
 90
        1
176
     1
 40
1.0
176
     1
 90
        0
176
     1
 62
   257
176
     1
 40
1.0
176
     1
 90
        1
176
     1
 90
        6
176
     1
 90
        2
176
     1
 62
     7
176
     1
 90
        5
176
     1
 90
        0
176
     1
 90
        0
176
     1
290
     0
176
     1
 90
       13
176
     1
 40
0.0
176
     1
 90
        0
176
     1
290
     0
176
     1
290
     1
176
     1
290
     1
176
     1
290
     0
176
     1
290
     0
176
     1
290
     0
176
     1
290
     0
176
     1
290
     0
176
     1
290
     0
176
     1
 90
       50
176
     1
 40
0.0
176
     1
 40
1.0
176
     1
 90
        0
176
     1
 62
    18
420
        0
176
     1
 90
       50
176
     1
 90
        3
176
     1
 62
     5
420
      255
176
     1
290
     0
176
     1
 90
       50
176
     1
 90
       50
176
     1
 90
       50
176
     1
290
     0
176
     1
 90
       50
176
     1
 62
   256
176
     0
 40
1.0
176
     0
 90
        2
176
     1
  1
strokes_ogs.tif
176
     1
290
     0
176
     1
 40
1.0
176
     1
 40
1.0
176
     1
  0
VISUALSTYLE
  5
9C
102
{ACAD_REACTORS
330
99
102
}
330
99
100
AcDbVisualStyle
  2
Gouraud
 70
     2
177
     3
291
     1
 70
    58
 90
        2
176
     1
 90
        2
176
     1
 90
        1
176
     1
 90
        2
176
     1
 40
0.6
176
     1
 40
30.0
176
     1
 62
     7
420
 16777215
176
     1
 90
        0
176
     1
 90
        0
176
     1
 62
     7
176
     1
 62
   257
176
     1
 90
        1
176
     1
 90
        1
176
     1
 40
1.0
176
     1
 90
        0
176
     1
 62
     7
176
     1
 40
1.0
176
     1
 90
        1
176
     1
 90
        6
176
     1
 90
        2
176
     1
 62
     7
176
     1
 90
        5
176
     1
 90
        0
176
     1
 90
        0
176
     1
290
     0
176
     1
 90
       13
176
     1
 40
0.0
176
     1
 90
        0
176
     1
290
     0
176
     1
290
     1
176
     1
290
     1
176
     1
290
     0
176
     1
290
     0
176
     1
290
     0
176
     1
290
     0
176
     1
290
     0
176
     1
290
     0
176
     1
 90
       50
176
     1
 40
0.0
176
     1
 40
1.0
176
     1
 90
        0
176
     1
 62
    18
420
        0
176
     1
 90
       50
176
     1
 90
        3
176
     1
 62
     5
420
      255
176
     1
290
     0
176
     1
 90
       50
176
     1
 90
       50
176
     1
 90
       50
176
     1
290
     0
176
     1
 90
       50
176
     1
 62
   256
176
     0
 40
1.0
176
     0
 90
        2
176
     1
  1
strokes_ogs.tif
176
     1
290
     0
176
     1
 40
1.0
176
     1
 40
1.0
176
     1
  0
VISUALSTYLE
  5
9D
102
{ACAD_REACTORS
330
99
102
}
330
99
100
AcDbVisualStyle
  2
GouraudWithEdges
 70
     3
177
     3
291
     1
 70
    58
 90
        2
176
     1
 90
        2
176
     1
 90
        1
176
     1
 90
        2
176
     1
 40
0.6
176
     1
 40
30.0
176
     1
 62
     7
420
 16777215
176
     1
 90
        1
176
     1
 90
        0
176
     1
 62
     7
176
     1
 62
   257
176
     1
 90
        1
176
     1
 90
        1
176
     1
 40
1.0
176
     1
 90
        0
176
     1
 62
   257
176
     1
 40
1.0
176
     1
 90
        1
176
     1
 90
        6
176
     1
 90
        2
176
     1
 62
     7
176
     1
 90
        5
176
     1
 90
        0
176
     1
 90
        0
176
     1
290
     0
176
     1
 90
       13
176
     1
 40
0.0
176
     1
 90
        0
176
     1
290
     0
176
     1
290
     1
176
     1
290
     1
176
     1
290
     0
176
     1
290
     0
176
     1
290
     0
176
     1
290
     0
176
     1
290
     0
176
     1
290
     0
176
     1
 90
       50
176
     1
 40
0.0
176
     1
 40
1.0
176
     1
 90
        0
176
     1
 62
    18
420
        0
176
     1
 90
       50
176
     1
 90
        3
176
     1
 62
     5
420
      255
176
     1
290
     0
176
     1
 90
       50
176
     1
 90
       50
176
     1
 90
       50
176
     1
290
     0
176
     1
 90
       50
176
     1
 62
   256
176
     0
 40
1.0
176
     0
 90
        2
176
     1
  1
strokes_ogs.tif
176
     1
290
     0
176
     1
 40
1.0
176
     1
 40
1.0
176
     1
  0
VISUALSTYLE
  5
A1
102
{ACAD_REACTORS
330
99
102
}
330
99
100
AcDbVisualStyle
  2
Hidden
 70
     6
177
     3
291
     0
 70
    58
 90
        1
176
     1
 90
        2
176
     1
 90
        2
176
     1
 90
        0
176
     1
 40
0.6
176
     1
 40
30.0
176
     1
 62
     7
420
 16777215
176
     1
 90
        2
176
     1
 90
        2
176
     1
 62
     7
176
     1
 62
   257
176
     1
 90
        2
176
     1
 90
        1
176
     1
 40
40.0
176
     1
 90
        0
176
     1
 62
   257
176
     1
 40
1.0
176
     1
 90
        1
176
     1
 90
        6
176
     1
 90
        2
176
     1
 62
     7
176
     1
 90
        3
176
     1
 90
        0
176
     1
 90
        0
176
     1
290
     0
176
     1
 90
        1
176
     1
 40
0.0
176
     1
 90
        0
176
     1
290
     0
176
     1
290
     1
176
     1
290
     1
176
     1
290
     0
176
     1
290
     0
176
     1
290
     0
176
     1
290
     0
176
     1
290
     0
176
     1
290
     0
176
     1
 90
       50
176
     1
 40
0.0
176
     1
 40
1.0
176
     1
 90
        0
176
     1
 62
    18
420
        0
176
     1
 90
       50
176
     1
 90
        3
176
     1
 62
     5
420
      255
176
     1
290
     0
176
     1
 90
       50
176
     1
 90
       50
176
     1
 90
       50
176
     1
290
     0
176
     1
 90
       50
176
     1
 62
   256
176
     0
 40
1.0
176
     0
 90
        2
176
     1
  1
strokes_ogs.tif
176
     1
290
     0
176
     1
 40
1.0
176
     1
 40
1.0
176
     1
  0
VISUALSTYLE
  5
173
102
{ACAD_REACTORS
330
99
102
}
330
99
100
AcDbVisualStyle
  2
JitterOff
 70
    20
177
     3
291
     1
 70
    58
 90
        2
176
     0
 90
        2
176
     0
 90
        0
176
     0
 90
        0
176
     0
 40
0.6
176
     0
 40
30.0
176
     0
 62
     7
420
 16777215
176
     0
 90
        1
176
     0
 90
        4
176
     0
 62
     7
176
     0
 62
   257
176
     0
 90
        1
176
     0
 90
        1
176
     0
 40
1.0
176
     0
 90
       10
176
     2
 62
     7
176
     0
 40
1.0
176
     0
 90
        1
176
     0
 90
        6
176
     0
 90
        2
176
     0
 62
     7
176
     0
 90
        5
176
     0
 90
        0
176
     0
 90
        0
176
     0
290
     0
176
     0
 90
        1
176
     0
 40
0.0
176
     0
 90
        0
176
     0
290
     0
176
     1
290
     1
176
     1
290
     1
176
     1
290
     0
176
     1
290
     0
176
     1
290
     0
176
     1
290
     0
176
     1
290
     0
176
     1
290
     0
176
     1
 90
       50
176
     1
 40
0.0
176
     1
 40
1.0
176
     1
 90
        0
176
     1
 62
    18
420
        0
176
     1
 90
       50
176
     1
 90
        3
176
     1
 62
     5
420
      255
176
     1
290
     0
176
     1
 90
       50
176
     1
 90
       50
176
     1
 90
       50
176
     1
290
     0
176
     1
 90
       50
176
     1
 62
   256
176
     0
 40
1.0
176
     0
 90
        2
176
     1
  1
strokes_ogs.tif
176
     1
290
     0
176
     1
 40
1.0
176
     1
 40
1.0
176
     1
  0
VISUALSTYLE
  5
A7
102
{ACAD_REACTORS
330
99
102
}
330
99
100
AcDbVisualStyle
  2
Linepattern
 70
    14
177
     3
291
     1
 70
    58
 90
        2
176
     1
 90
        2
176
     1
 90
        1
176
     1
 90
        0
176
     1
 40
0.6
176
     1
 40
30.0
176
     1
 62
     7
420
 16777215
176
     1
 90
        1
176
     1
 90
        4
176
     1
 62
     7
176
     1
 62
   257
176
     1
 90
        7
176
     1
 90
        7
176
     1
 40
1.0
176
     1
 90
        8
176
     1
 62
     7
176
     1
 40
1.0
176
     1
 90
        1
176
     1
 90
        6
176
     1
 90
        2
176
     1
 62
     7
176
     1
 90
        5
176
     1
 90
        0
176
     1
 90
        0
176
     1
290
     0
176
     1
 90
        1
176
     1
 40
0.0
176
     1
 90
        0
176
     1
290
     0
176
     1
290
     1
176
     1
290
     1
176
     1
290
     0
176
     1
290
     0
176
     1
290
     0
176
     1
290
     0
176
     1
290
     0
176
     1
290
     0
176
     1
 90
       50
176
     1
 40
0.0
176
     1
 40
1.0
176
     1
 90
        0
176
     1
 62
    18
420
        0
176
     1
 90
       50
176
     1
 90
        3
176
     1
 62
     5
420
      255
176
     1
290
     0
176
     1
 90
       50
176
     1
 90
       50
176
     1
 90
       50
176
     1
290
     0
176
     1
 90
       50
176
     1
 62
   256
176
     0
 40
1.0
176
     0
 90
        2
176
     1
  1
strokes_ogs.tif
176
     1
290
     0
176
     1
 40
1.0
176
     1
 40
1.0
176
     1
  0
VISUALSTYLE
  5
174
102
{ACAD_REACTORS
330
99
102
}
330
99
100
AcDbVisualStyle
  2
OverhangOff
 70
    21
177
     3
291
     1
 70
    58
 90
        2
176
     0
 90
        2
176
     0
 90
        0
176
     0
 90
        0
176
     0
 40
0.6
176
     0
 40
30.0
176
     0
 62
     7
420
 16777215
176
     0
 90
        1
176
     0
 90
        4
176
     0
 62
     7
176
     0
 62
   257
176
     0
 90
        1
176
     0
 90
        1
176
     0
 40
1.0
176
     0
 90
        9
176
     2
 62
     7
176
     0
 40
1.0
176
     0
 90
        1
176
     0
 90
        6
176
     0
 90
        2
176
     0
 62
     7
176
     0
 90
        5
176
     0
 90
        0
176
     0
 90
        0
176
     0
290
     0
176
     0
 90
        1
176
     0
 40
0.0
176
     0
 90
        0
176
     0
290
     0
176
     1
290
     1
176
     1
290
     1
176
     1
290
     0
176
     1
290
     0
176
     1
290
     0
176
     1
290
     0
176
     1
290
     0
176
     1
290
     0
176
     1
 90
       50
176
     1
 40
0.0
176
     1
 40
1.0
176
     1
 90
        0
176
     1
 62
    18
420
        0
176
     1
 90
       50
176
     1
 90
        3
176
     1
 62
     5
420
      255
176
     1
290
     0
176
     1
 90
       50
176
     1
 90
       50
176
     1
 90
       50
176
     1
290
     0
176
     1
 90
       50
176
     1
 62
   256
176
     0
 40
1.0
176
     0
 90
        2
176
     1
  1
strokes_ogs.tif
176
     1
290
     0
176
     1
 40
1.0
176
     1
 40
1.0
176
     1
  0
VISUALSTYLE
  5
A3
102
{ACAD_REACTORS
330
99
102
}
330
99
100
AcDbVisualStyle
  2
Realistic
 70
     8
177
     3
291
     0
 70
    58
 90
        2
176
     1
 90
        2
176
     1
 90
        0
176
     1
 90
        2
176
     1
 40
0.6
176
     1
 40
30.0
176
     1
 62
     7
420
 16777215
176
     1
 90
        0
176
     1
 90
        0
176
     1
 62
     7
176
     1
 62
   257
176
     1
 90
        1
176
     1
 90
        1
176
     1
 40
1.0
176
     1
 90
        8
176
     1
 62
   257
176
     1
 40
1.0
176
     1
 90
        1
176
     1
 90
        6
176
     1
 90
        2
176
     1
 62
     7
176
     1
 90
        3
176
     1
 90
        0
176
     1
 90
        0
176
     1
290
     0
176
     1
 90
       13
176
     1
 40
0.0
176
     1
 90
        0
176
     1
290
     0
176
     1
290
     1
176
     1
290
     1
176
     1
290
     0
176
     1
290
     0
176
     1
290
     0
176
     1
290
     0
176
     1
290
     0
176
     1
290
     0
176
     1
 90
       50
176
     1
 40
0.0
176
     1
 40
1.0
176
     1
 90
        0
176
     1
 62
    18
420
        0
176
     1
 90
       50
176
     1
 90
        3
176
     1
 62
     5
420
      255
176
     1
290
     0
176
     1
 90
       50
176
     1
 90
       50
176
     1
 90
       50
176
     1
290
     0
176
     1
 90
       50
176
     1
 62
   256
176
     0
 40
1.0
176
     0
 90
        2
176
     1
  1
strokes_ogs.tif
176
     1
290
     0
176
     1
 40
1.0
176
     1
 40
1.0
176
     1
  0
VISUALSTYLE
  5
182
102
{ACAD_REACTORS
330
99
102
}
330
99
100
AcDbVisualStyle
  2
Shaded
 70
    27
177
     3
291
     0
 70
    58
 90
        2
176
     1
 90
        2
176
     1
 90
        1
176
     1
 90
        2
176
     1
 40
0.6
176
     1
 40
30.0
176
     1
 62
     7
420
 16777215
176
     1
 90
        0
176
     1
 90
        4
176
     1
 62
     7
176
     1
 62
   257
176
     1
 90
        1
176
     1
 90
        1
176
     1
 40
1.0
176
     1
 90
        8
176
     1
 62
   257
176
     1
 40
1.0
176
     1
 90
        1
176
     1
 90
        6
176
     1
 90
        2
176
     1
 62
     8
420
  7895160
176
     1
 90
        3
176
     1
 90
        0
176
     1
 90
        0
176
     1
290
     0
176
     1
 90
        5
176
     1
 40
0.0
176
     1
 90
        0
176
     1
290
     0
176
     1
290
     1
176
     1
290
     1
176
     1
290
     0
176
     1
290
     0
176
     1
290
     0
176
     1
290
     0
176
     1
290
     0
176
     1
290
     0
176
     1
 90
       50
176
     1
 40
0.0
176
     1
 40
1.0
176
     1
 90
        0
176
     1
 62
    18
420
        0
176
     1
 90
       50
176
     1
 90
        3
176
     1
 62
     5
420
      255
176
     1
290
     0
176
     1
 90
       50
176
     1
 90
       50
176
     1
 90
       50
176
     1
290
     0
176
     1
 90
       50
176
     1
 62
   256
176
     0
 40
1.0
176
     0
 90
        2
176
     1
  1
strokes_ogs.tif
176
     1
290
     0
176
     1
 40
1.0
176
     1
 40
1.0
176
     1
  0
VISUALSTYLE
  5
181
102
{ACAD_REACTORS
330
99
102
}
330
99
100
AcDbVisualStyle
  2
Shaded with edges
 70
    26
177
     3
291
     0
 70
    58
 90
        2
176
     1
 90
        2
176
     1
 90
        1
176
     1
 90
        2
176
     1
 40
0.6
176
     1
 40
30.0
176
     1
 62
     7
420
 16777215
176
     1
 90
        1
176
     1
 90
        2
176
     1
 62
     7
176
     1
 62
   257
176
     1
 90
        2
176
     1
 90
        1
176
     1
 40
1.0
176
     1
 90
        8
176
     1
 62
   257
176
     1
 40
1.0
176
     1
 90
        1
176
     1
 90
        6
176
     1
 90
        2
176
     1
 62
     7
176
     1
 90
        3
176
     1
 90
        0
176
     1
 90
        0
176
     1
290
     0
176
     1
 90
        5
176
     1
 40
0.0
176
     1
 90
        0
176
     1
290
     0
176
     1
290
     1
176
     1
290
     1
176
     1
290
     0
176
     1
290
     0
176
     1
290
     0
176
     1
290
     0
176
     1
290
     0
176
     1
290
     0
176
     1
 90
       50
176
     1
 40
0.0
176
     1
 40
1.0
176
     1
 90
        0
176
     1
 62
    18
420
        0
176
     1
 90
       50
176
     1
 90
        3
176
     1
 62
     5
420
      255
176
     1
290
     0
176
     1
 90
       50
176
     1
 90
       50
176
     1
 90
       50
176
     1
290
     0
176
     1
 90
       50
176
     1
 62
   256
176
     0
 40
1.0
176
     0
 90
        2
176
     1
  1
strokes_ogs.tif
176
     1
290
     0
176
     1
 40
1.0
176
     1
 40
1.0
176
     1
  0
VISUALSTYLE
  5
17E
102
{ACAD_REACTORS
330
99
102
}
330
99
100
AcDbVisualStyle
  2
Shades of Gray
 70
    23
177
     3
291
     0
 70
    58
 90
        2
176
     1
 90
        2
176
     1
 90
        3
176
     1
 90
        0
176
     1
 40
0.6
176
     1
 40
30.0
176
     1
 62
     7
420
 16777215
176
     1
 90
        2
176
     1
 90
        2
176
     1
 62
     7
176
     1
 62
     7
176
     1
 90
        1
176
     1
 90
        1
176
     1
 40
40.0
176
     1
 90
        8
176
     1
 62
     7
176
     1
 40
1.0
176
     1
 90
        1
176
     1
 90
        6
176
     1
 90
        2
176
     1
 62
     7
176
     1
 90
        3
176
     1
 90
        0
176
     1
 90
        0
176
     1
290
     0
176
     1
 90
        1
176
     1
 40
0.0
176
     1
 90
        0
176
     1
290
     0
176
     1
290
     1
176
     1
290
     1
176
     1
290
     0
176
     1
290
     0
176
     1
290
     0
176
     1
290
     0
176
     1
290
     0
176
     1
290
     0
176
     1
 90
       50
176
     1
 40
0.0
176
     1
 40
1.0
176
     1
 90
        0
176
     1
 62
    18
420
        0
176
     1
 90
       50
176
     1
 90
        3
176
     1
 62
     5
420
      255
176
     1
290
     0
176
     1
 90
       50
176
     1
 90
       50
176
     1
 90
       50
176
     1
290
     0
176
     1
 90
       50
176
     1
 62
   256
176
     0
 40
1.0
176
     0
 90
        2
176
     1
  1
strokes_ogs.tif
176
     1
290
     0
176
     1
 40
1.0
176
     1
 40
1.0
176
     1
  0
VISUALSTYLE
  5
17F
102
{ACAD_REACTORS
330
99
102
}
330
99
100
AcDbVisualStyle
  2
Sketchy
 70
    24
177
     3
291
     0
 70
    58
 90
        1
176
     1
 90
        2
176
     1
 90
        2
176
     1
 90
        0
176
     1
 40
0.6
176
     1
 40
30.0
176
     1
 62
     7
420
 16777215
176
     1
 90
        2
176
     1
 90
        2
176
     1
 62
     7
176
     1
 62
     7
176
     1
 90
        1
176
     1
 90
        1
176
     1
 40
40.0
176
     1
 90
       11
176
     1
 62
     7
176
     1
 40
1.0
176
     1
 90
        1
176
     1
 90
        6
176
     1
 90
        2
176
     1
 62
     7
176
     1
 90
        6
176
     1
 90
        0
176
     1
 90
        0
176
     1
290
     0
176
     1
 90
        1
176
     1
 40
0.0
176
     1
 90
        0
176
     1
290
     0
176
     1
290
     1
176
     1
290
     1
176
     1
290
     0
176
     1
290
     0
176
     1
290
     0
176
     1
290
     0
176
     1
290
     0
176
     1
290
     0
176
     1
 90
       50
176
     1
 40
0.0
176
     1
 40
1.0
176
     1
 90
        0
176
     1
 62
    18
420
        0
176
     1
 90
       50
176
     1
 90
        3
176
     1
 62
     5
420
      255
176
     1
290
     0
176
     1
 90
       50
176
     1
 90
       50
176
     1
 90
       50
176
     1
290
     0
176
     1
 90
       50
176
     1
 62
   256
176
     0
 40
1.0
176
     0
 90
        2
176
     1
  1
strokes_ogs.tif
176
     1
290
     0
176
     1
 40
1.0
176
     1
 40
1.0
176
     1
  0
VISUALSTYLE
  5
A6
102
{ACAD_REACTORS
330
99
102
}
330
99
100
AcDbVisualStyle
  2
Thicken
 70
    13
177
     3
291
     1
 70
    58
 90
        2
176
     1
 90
        2
176
     1
 90
        1
176
     1
 90
        0
176
     1
 40
0.6
176
     1
 40
30.0
176
     1
 62
     7
420
 16777215
176
     1
 90
        1
176
     1
 90
        4
176
     1
 62
     7
176
     1
 62
   257
176
     1
 90
        1
176
     1
 90
        1
176
     1
 40
1.0
176
     1
 90
       12
176
     1
 62
     7
176
     1
 40
1.0
176
     1
 90
        1
176
     1
 90
        6
176
     1
 90
        2
176
     1
 62
     7
176
     1
 90
        5
176
     1
 90
        0
176
     1
 90
        0
176
     1
290
     0
176
     1
 90
        1
176
     1
 40
0.0
176
     1
 90
        0
176
     1
290
     0
176
     1
290
     1
176
     1
290
     1
176
     1
290
     0
176
     1
290
     0
176
     1
290
     0
176
     1
290
     0
176
     1
290
     0
176
     1
290
     0
176
     1
 90
       50
176
     1
 40
0.0
176
     1
 40
1.0
176
     1
 90
        0
176
     1
 62
    18
420
        0
176
     1
 90
       50
176
     1
 90
        3
176
     1
 62
     5
420
      255
176
     1
290
     0
176
     1
 90
       50
176
     1
 90
       50
176
     1
 90
       50
176
     1
290
     0
176
     1
 90
       50
176
     1
 62
   256
176
     0
 40
1.0
176
     0
 90
        2
176
     1
  1
strokes_ogs.tif
176
     1
290
     0
176
     1
 40
1.0
176
     1
 40
1.0
176
     1
  0
VISUALSTYLE
  5
A0
102
{ACAD_REACTORS
330
99
102
}
330
99
100
AcDbVisualStyle
  2
Wireframe
 70
     5
177
     3
291
     0
 70
    58
 90
        0
176
     1
 90
        2
176
     1
 90
        0
176
     1
 90
        0
176
     1
 40
0.6
176
     1
 40
30.0
176
     1
 62
     7
420
 16777215
176
     1
 90
        1
176
     1
 90
        4
176
     1
 62
     7
176
     1
 62
   257
176
     1
 90
        1
176
     1
 90
        1
176
     1
 40
1.0
176
     1
 90
        0
176
     1
 62
   257
176
     1
 40
1.0
176
     1
 90
        1
176
     1
 90
        6
176
     1
 90
        2
176
     1
 62
     7
176
     1
 90
        3
176
     1
 90
        0
176
     1
 90
        0
176
     1
290
     0
176
     1
 90
        1
176
     1
 40
0.0
176
     1
 90
        0
176
     1
290
     0
176
     1
290
     1
176
     1
290
     1
176
     1
290
     0
176
     1
290
     0
176
     1
290
     0
176
     1
290
     0
176
     1
290
     0
176
     1
290
     0
176
     1
 90
       50
176
     1
 40
0.0
176
     1
 40
1.0
176
     1
 90
        0
176
     1
 62
    18
420
        0
176
     1
 90
       50
176
     1
 90
        3
176
     1
 62
     5
420
      255
176
     1
290
     0
176
     1
 90
       50
176
     1
 90
       50
176
     1
 90
       50
176
     1
290
     0
176
     1
 90
       50
176
     1
 62
   256
176
     0
 40
1.0
176
     0
 90
        2
176
     1
  1
strokes_ogs.tif
176
     1
290
     0
176
     1
 40
1.0
176
     1
 40
1.0
176
     1
  0
VISUALSTYLE
  5
180
102
{ACAD_REACTORS
330
99
102
}
330
99
100
AcDbVisualStyle
  2
X-Ray
 70
    25
177
     3
291
     0
 70
    58
 90
        2
176
     1
 90
        2
176
     1
 90
        1
176
     1
 90
        1
176
     1
 40
0.5
176
     1
 40
30.0
176
     1
 62
     7
420
 16777215
176
     1
 90
        1
176
     1
 90
        0
176
     1
 62
     7
176
     1
 62
   257
176
     1
 90
        1
176
     1
 90
        1
176
     1
 40
1.0
176
     1
 90
        8
176
     1
 62
     7
176
     1
 40
1.0
176
     1
 90
        1
176
     1
 90
        6
176
     1
 90
        2
176
     1
 62
     7
176
     1
 90
        3
176
     1
 90
        0
176
     1
 90
        0
176
     1
290
     0
176
     1
 90
       13
176
     1
 40
0.0
176
     1
 90
        0
176
     1
290
     0
176
     1
290
     1
176
     1
290
     1
176
     1
290
     0
176
     1
290
     0
176
     1
290
     0
176
     1
290
     0
176
     1
290
     0
176
     1
290
     0
176
     1
 90
       50
176
     1
 40
0.0
176
     1
 40
1.0
176
     1
 90
        0
176
     1
 62
    18
420
        0
176
     1
 90
       50
176
     1
 90
        3
176
     1
 62
     5
420
      255
176
     1
290
     0
176
     1
 90
       50
176
     1
 90
       50
176
     1
 90
       50
176
     1
290
     0
176
     1
 90
       50
176
     1
 62
   256
176
     0
 40
1.0
176
     0
 90
        2
176
     1
  1
strokes_ogs.tif
176
     1
290
     0
176
     1
 40
1.0
176
     1
 40
1.0
176
     1
  0
DICTIONARYVAR
  5
F0
102
{ACAD_REACTORS
330
66
102
}
330
66
100
DictionaryVariables
280
     0
  1
1:1
  0
DICTIONARYVAR
  5
EF
102
{ACAD_REACTORS
330
66
102
}
330
66
100
DictionaryVariables
280
     0
  1
STANDARD
  0
DICTIONARYVAR
  5
89
102
{ACAD_REACTORS
330
66
102
}
330
66
100
DictionaryVariables
280
     0
  1
STANDARD
  0
DICTIONARYVAR
  5
1B7
102
{ACAD_REACTORS
330
66
102
}
330
66
100
DictionaryVariables
280
     0
  1
Imperial24
  0
DICTIONARYVAR
  5
1B8
102
{ACAD_REACTORS
330
66
102
}
330
66
100
DictionaryVariables
280
     0
  1
Imperial24
  0
DICTIONARYVAR
  5
67
102
{ACAD_REACTORS
330
66
102
}
330
66
100
DictionaryVariables
280
     0
  1
2
  0
DICTIONARYVAR
  5
6B
102
{ACAD_REACTORS
330
66
102
}
330
66
100
DictionaryVariables
280
     0
  1
1
  0
DICTIONARYVAR
  5
14D
102
{ACAD_REACTORS
330
66
102
}
330
66
100
DictionaryVariables
280
     0
  1
0
  0
DICTIONARYVAR
  5
14E
102
{ACAD_REACTORS
330
66
102
}
330
66
100
DictionaryVariables
280
     0
  1
0
  0
DICTIONARY
  5
194
330
22
100
AcDbDictionary
280
     1
281
     1
  0
DICTIONARY
  5
188
330
97
100
AcDbDictionary
280
     1
281
     1
  3
FBXASSET
360
189
  0
DICTIONARY
  5
186
330
96
100
AcDbDictionary
280
     1
281
     1
  3
FBXASSET
360
187
  0
DICTIONARY
  5
110
330
98
100
AcDbDictionary
280
     1
281
     1
  3
BUMPTILE
360
112
  3
DIFFUSETILE
360
111
  3
FBXASSET
360
18A
  3
OPACITYTILE
360
113
  3
REFLECTIONTILE
360
114
  0
DICTIONARY
  5
104
330
87
100
AcDbDictionary
280
     1
281
     1
  3
ACAD_ROUNDTRIP_2008_TABLESTYLE_CELLSTYLEMAP
360
B481
  0
XRECORD
  5
189
102
{ACAD_REACTORS
330
188
102
}
330
188
100
AcDbXrecord
280
     1
 70
     1
 90
429727718
  1
508B35C9-AEE7-456F-BE74-D52651303AC6
310
504B03040A0000080000B670623B3DEE336E79000000790000001B0000006175746F6465736B2D64657369676E2D7061636B6167652E786D6C3C3F786D6C2076657273696F6E3D22312E302220656E636F64696E673D227574662D3822203F3E3C666F726D6174733E3C666F726D61743E687474703A2F2F736368656D612E
310
6175746F6465736B2E636F6D2F64657369676E2D7061636B6167652F323030393C2F666F726D61743E3C2F666F726D6174733E504B0304140006080800B670623BD486FD9CA0000000F4000000130000005B436F6E74656E745F54797065735D2E786D6C7D8EC10E82300C865F65E91D8A1E8C310C0EEA1BF002731658846E
310
D98AC1B77784ABF1D8FE5FBFBF75BBCE937A534CCEB38643598122B6FEE978D0B0485F9C41B54DDD7D022595594E1A469170414C76A4D9A4D207E29CF43ECE46F218070CC6BECC4078ACAA135ACF422C856C0E68EA1BF5669944DDD7BCDE7B1F8E415D77AECB980613C2E4AC91FC167A2B244592486606FC29C8FD7F045B9A
310
EF7053A7E60B504B0304140006080800B670623B28ED286BEB0000007C01000008000000636F72652E786D6C8D90416EC3201045AF82665B6183218D6D61A254764FD00B204C5C94182C03558F5F9C3852BBEB6A467FFE9B197D71FA9E6FE8CBACC17AD7012D0820E3B41FAD9B3A48F1826B40272956EFE32F1B20A766D3C1
310
268314D3EAD3B24BDABB685CCCAAF3A3D94515828980F42D371D04FD696655A814B3235C8B45E9AB9A4C419F5D8653B2237A1CB163DE672FD6AC209BF3C08E0D1B30EB19C3FC9D72FCC6EB231EFA33EDE96BDD341517E5064B11EDFCBCAF57A3A2194156843498524CAA0FCA5B7268F9E185D42D21A2DCEC7FA0B48CFF8492
310
759155FBBB0F2C80A4F991FB408A72CB22977B50B96EB9C91F504B0304140006080800B670623B55019EA25F0000007C00000007000000636E782E786D6C4DCB3B0E80201045D1AD90E915ED2CF8AC45050C11660C8261F98AB1B07AC9C97D42D718D865D3E909258CFD00CCE24AC6E326A164D74DC0B4128928FF32603847
310
2BA13128B1252AC747C6BAB984FC68F0B87FE8960A5C09FE86CFB69FBA01504B0304140006080800B670623B7BC41AC871010000D40300000C0000006662782F636F72652E786D6CC553ED6E8320147D15C2DF4501B56B6D90A64BBB27D80B50A5CE54C120983EFEAE1F4DD7A56BBA5FF3879273EEE59E7310BE393735EA95
310
ED2AA333CC428A91D2B9292A5D66D8BB63B0C26823B835C67D2BC348CB46657880B1E0A535BE9DA1DC68A7B403549B42CDA0EC3AE530CA6B5864B8CB3F552343E91D5474A7B095F949962A6421D0502778E72C0840D390E18DC5F170E664C205F7BE2A66B62A605A75AC94C522DDEEE3651AEF837817C741F2CE92E02D592D
310
83FD6ECB76EC7595A651C2C9D02CB8AB9A8BBADC2AE954814544691A3016D0E883256BBA58278B17BA5A53CAC9507ED3E4DBE2C9265F691747B3DCA9ADC382819091F8E1162272A8933DE82182932144F88C09DF060D8140C84E1EEA8B8F1340BDCA9DB1093085F157AA97B557309586747CD0EF0B4EA64E983A6E0EAEEFCE
310
889E9EF17847386AA94B30211D2C0FDE0D3AF9A4610EAD5536E8DD1969631B593F67E381C33F5157F17725E5A636F6BF1491F980C8FC7B90E13E8A2F504B0304140006080800B670623B70102A487D0000009D0000000B0000006662782F636E782E786D6C4DCCD10A83201886E15B91FFDC95A5C30335ACCDFB886521330D
310
A76397BF1A1DECE883878F57749FD5A3B74D2F17830472A901D9F088930B8B849267CC01754AA418F3DF0D5018572BE160506249B16C274D761E8BCFBB7A179E27F65CB39A0F14D396184C9921B81F34C3ACA1B4B99ABB6E6F062A25AA5F69DF23ACBE504B0304140006080800B670623B3610CA3329010000120200003100
310
00006662782F42384135303843342D343331462D343546312D424341352D3532343432364645413344462F636F72652E786D6C8D515B6EC32010BC0AE22B55850D0E446E848992B43E412FE000495162B07854397EA176A4F62F3F2C9A9D991D58BEBB8F37F0AD7D30CE76905418026DA553C65E3A98E219B510EC04F7CEC5
310
3F3408EC30EA0E16180A7EF12E4D0B249D8DDAC68C5AA7F4020E21E80881BCE54B0783FCD2E3500D296646B856D320AFC34557A4CAEDCC133C449F0380794839A138B47B86DB2345744D7A44594FD0E1B867883594369BFE63BF7EEF793D0B054FC9A8456E548E63CE46FB674D8A58F068C6477CE9F510B582A2C1F80D1182
310
70F349E816B32D65AFB8DD62CCEB42FF274A937A52948C8DEB66893BCB021484D7734370E5D2E9F608A3EF93F3119479ABA0E50B14B8C298119A43CCC4FCFCECB8A18B6388CEE7EF5D5D4F994BD86CBBA182D76543B9FCAE2FD7B24DF103504B0304140006080800B670623B1B8617914E0100003303000030000000666278
310
2F42384135303843342D343331462D343546312D424341352D3532343432364645413344462F636E782E786D6CD593C16EC32010447F0571AD6CE3D489D20813A9877E410FBD62D82434182CC055F3F75D1292E692438FBD206B7698593D61BEFD1E2DF982108D773D6D6B460938E5B571FB9ECE6957AD29D90A1EBC4F7736
310
4A9C1CA1A759A682EF839FA72269D8C9D92654AD71C72206887E0E0A22CAF926B15E498B01E0AA19451807D01A34B919F16B070157417138917400F2F6FA41FCF0092A45DEE414C19BDC21783E4BD39D891265658C3D8DEA00A3ACE59CBC8678ACB54CB26EEB6BD7839D7E9348BE70AD9C8321B9BCA7F9A4A26C542347DEE0
310
50F09802D22BA6749A800A394DD62899107273365E3C82CFC6A55557BC06C10774B7ABE7AEC3B0F34CF06446280E154026D0542C187BA9DAB6628BF7B6DBB0E5A65B3EB1F58631DE64BBE083F7B65CC218087E22CABB042E51D1F2268F1FE12B3EA24D40D63E9CFE00120194D60B9D5BC67FE6D39CDF37E20AF817881F504B
310
0304140006080800B670623BBFEF2E3B690500003C100000340000006662782F42384135303843342D343331462D343546312D424341352D3532343432364645413344462F6F626A656374732E786D6CAD575D739B3814FD2B0CFB0C98D84E931D4227B6938EA793B6534F3BFB90198F0099B001899144EAECAFDF231018B0
310
D37A3FFC609090EEE7B94757C1FB7D915B2F54C88CB31BDB7727B64559CC938CA53776A576CE956DBD0F03C1B9EA2DB32D460A7A63EB693B0C52C1ABD24C257447AA5C8D66EF177F5832A68CDA569C13296F6C193FD182B8A4523CA1F2D94D88226EBADBBBBEDB2C1C8A4D05299F46424B222853B014F30C52ACC6287F389C
310
D85E1878FA7B18E87FB36AFAF62AAFF667A83F635211161F291B8999FAB3D5DDC5FCDA99CF6653677679E13B8BFBC5CAF1DF4D27CBCBE5F2FAF6EE1A8AA51290642C117467871F101B91C581D77CEA2C36869F3229E68CD1B8F61F1ED6361B89092D294B90C78C4A68EB793D190E7D1D9BDEE7A91E1B95FDE9F3BCEAEFE809
310
6A6D6F9F7D4B79F4275C90E7A04248AA51D5C4C738DAE06F72885AC4796EBE65D22A88A22223B995679120E2D50EB1542F098381188D4EA111AE3DB043FF20AF6F2B4AE3D7D83D65E5AECA730D4D3BAC91BD05FEA992B565D95F549CD6069B90AB2A63EACA38A45E4B6A87D781574F86817E4C2FCCC72690D62E2729520E37
310
9BAF234797BAF6D62B3BFC781FED37BA1E4F2B2F052FA9501A3E80569BB8F6A9A364D4FA67654E6F803383981F82F21591FF84F23D9882BC896C3FDBCF8C162508933B2E0AE4C69DD43F6BD2BE38DDDBF10BF86CB4FA784D37F3AF16075E67EC9030DECA1FC0A55373F5DFF3378C591FA9BDF485C10B0A8C8BA909E5262639
310
A8E72163488806A595734C81CB77D1DE0ED7604A303B76913CEC0272F412782FF88EFF4636D8AA56DF7B322474C4B767303F625997056C7B032C473C592B36CEBD15F3F9FF5233B7ABCDC74D257624A60F8658567497B14CE1EC3C80B76FD02011038F9EE9EB0F2E12387A9C844D3F09855125116D1D731DF8B43D2CF4E0A0
310
79A020C6BE946BCE0B7EA1E1219331CD73C228AF5A2DDD31A4B1DA918CE91350854D40A71723140BFA92E94E62B0626016CEFA5864A50E5977E8753CEDBEE1CBB7F52780D20E17AF0BA0F5F9B02A3AD07DCC732EB6D1EBB661421BE0C39E21BABF0FE16D22EA6929407C8DE596724C88B749B6DB5512BC7B228ADFD7CB7EA6
310
3A22397E690BA8D5D8D4E40CEC8CDA23C2C0B7D5898640101CEC9C6D331CE328CB93CAFBBAC70A642DF70DF95155945B52F08AA973C23469FD69ADEF84F7BB18F983A8F8C90E37F5D35980B2139A1C523540813E824EF83448CF7C72B598CE97D7CEEDDDDD3B6736BFBC771677EF66CE6A7E7139F7A793E9EDF2B2B3A8B624
310
0CDA13AA5F8388264EC4A0129909F3B7F5A16CEDF08128E97D680ACA4B9BE7B7B58BB638F0B00700EF36AE8B32A705658A68F83EE897FC2B41573190D1CCAF0B92D233A47CFEB019D9809933F67DD1A5467F8CF69AD9A5AE859342D45355448C64F968A371DC2D596ADC6E43D93D1B466F877A64E2893E54F23C4B40388995
310
525E5005DA3983ED45412510D3EFCA13737B3863F74BD30F2A12E5B4B5E489A025CE25500DB855B11ACE5BBFA185D35DD48D8DC3CE7DC69F2944DB42AA6F6CF09BCA622ADD08C7A36E7C6AE18000BAB08E040135C2D21C9D75B3A91B77BB746C403F38018DFE6EC939DD92F16B40BC05294B9CDA035AAD6D330AE27FE4786B
310
8E45145EA34A75BE1C263A676A35A8ACC6297337400BF16C54EF515F3F77CB77EB3583889C754FFA29081AA98E2222ADEF05DA3E63D2EDEA8B8756C05A7FB6CABC4A91CBF325398202CC952E70A008A830324BA200D5E5EF8F5F04C75DB4B0EE3340E071C98B823333B83577596BF3849B69F2085AA0FAFA212F26BEFF5877
310
FDE622B28D88A42E49E43326DA82D31E8CB006401E1DA726059ECEC168F97A6599036306A135688F9AD2E61A6EA178F4CD51974A9F2CCB9F36FE5EBD14601068D9C3BF01504B0304140006080000B670623B000000000000000000000000350000006662782F42384135303843342D343331462D343546312D424341352D35
310
32343432364645413344462F76657274696365732E62696E504B0304140006080800B670623BF270F1330600000004000000360000006662782F42384135303843342D343331462D343546312D424341352D3532343432364645413344462F747269616E676C65732E62696E636660600000504B0304140006080000B67062
310
3B000000000000000000000000370000006662782F42384135303843342D343331462D343546312D424341352D3532343432364645413344462F617474726962757465732E62696E504B0304140006080800B670623B08DA0BD19000000041010000360000006662782F42384135303843342D343331462D343546312D4243
310
41352D3532343432364645413344462F6469726563746F72792E786D6C858F410AC3201045AF22B36F53E9A60B35CBEEBAE80D244E44489C6234F4F835464A48035D0DF398FF9F8AF63D0E6CC63039F212F8F9020C7D47C6792B21C5FE7403D62A1188E2E60C98D7234A5830286103A55745067B9D86B8A3CF9C7F90C11DE6
310
07FB144396D7B6A82D282E9A152AD114D5EF2CB866EEE831B8EEA07A7BB5A8D7D61A2BAAEB7FD5F70921FF497D00504B0304140006080800B670623B3B4606F3FE000000A00100003B0000006662782F42384135303843342D343331462D343546312D424341352D3532343432364645413344462F7265736F75726365732F
310
636F72652E786D6C8D504B6E833010BD0A9A6D65B08134808CA354A427E8052C332156828DFCA97AFC9A40A576D7CDCCE87D344F8F9FBEE647F689CE6B6B7A6039850C8DB2A336530F315C4903D94970676DF82583CCC8197B5861107C72362E3BA4AC096842428D1D7107A5F71820538F74F4E0D50D6799CB1892C2DFF345
310
AABB9C306779A2934E701F5C0A906D4FD609C2A1B7D129F4BCD858C163D4E3AED163FAA9AF1A1D88F67CA98E6D35906AA82A52BFB39ABCD5CD915C86331BD86BD3B665CD8BD52C78D0F34F46E550061C419494B6843142CB0F5677F4D0D58717DA7494F26295FF31C565FCA7296A13AA728FBBD93C0896823C09C18BB5AFB4
310
9E65A6BD762BBE01504B010214000A0000080000B670623B3DEE336E79000000790000001B00000000000000000000000000000000006175746F6465736B2D64657369676E2D7061636B6167652E786D6C504B01021400140006080800B670623BD486FD9CA0000000F40000001300000000000000000000000000B2000000
310
5B436F6E74656E745F54797065735D2E786D6C504B01021400140006080800B670623B28ED286BEB0000007C010000080000000000000000000000000083010000636F72652E786D6C504B01021400140006080800B670623B55019EA25F0000007C000000070000000000000000000000000094020000636E782E786D6C50
310
4B01021400140006080800B670623B7BC41AC871010000D40300000C00000000000000000000000000180300006662782F636F72652E786D6C504B01021400140006080800B670623B70102A487D0000009D0000000B00000000000000000000000000B30400006662782F636E782E786D6C504B01021400140006080800B6
310
70623B3610CA3329010000120200003100000000000000000000000000590500006662782F42384135303843342D343331462D343546312D424341352D3532343432364645413344462F636F72652E786D6C504B01021400140006080800B670623B1B8617914E010000330300003000000000000000000000000000D10600
310
006662782F42384135303843342D343331462D343546312D424341352D3532343432364645413344462F636E782E786D6C504B01021400140006080800B670623BBFEF2E3B690500003C10000034000000000000000000000000006D0800006662782F42384135303843342D343331462D343546312D424341352D35323434
310
32364645413344462F6F626A656374732E786D6C504B01021400140006080000B670623B0000000000000000000000003500000000000000000000000000280E00006662782F42384135303843342D343331462D343546312D424341352D3532343432364645413344462F76657274696365732E62696E504B010214001400
310
06080800B670623BF270F133060000000400000036000000000000000000000000007B0E00006662782F42384135303843342D343331462D343546312D424341352D3532343432364645413344462F747269616E676C65732E62696E504B01021400140006080000B670623B00000000000000000000000037000000000000
310
00000000000000D50E00006662782F42384135303843342D343331462D343546312D424341352D3532343432364645413344462F617474726962757465732E62696E504B01021400140006080800B670623B08DA0BD1900000004101000036000000000000000000000000002A0F00006662782F42384135303843342D3433
310
31462D343546312D424341352D3532343432364645413344462F6469726563746F72792E786D6C504B01021400140006080800B670623B3B4606F3FE000000A00100003B000000000000000000000000000E1000006662782F42384135303843342D343331462D343546312D424341352D3532343432364645413344462F72
310
65736F75726365732F636F72652E786D6C504B0506000000000E000E0080040000651100000000
  0
XRECORD
  5
187
102
{ACAD_REACTORS
330
186
102
}
330
186
100
AcDbXrecord
280
     1
 70
     1
 90
429727718
  1
887D55A9-D0DD-414E-B741-A7DCD4DA2B4C
310
504B03040A0000080000B670623B3DEE336E79000000790000001B0000006175746F6465736B2D64657369676E2D7061636B6167652E786D6C3C3F786D6C2076657273696F6E3D22312E302220656E636F64696E673D227574662D3822203F3E3C666F726D6174733E3C666F726D61743E687474703A2F2F736368656D612E
310
6175746F6465736B2E636F6D2F64657369676E2D7061636B6167652F323030393C2F666F726D61743E3C2F666F726D6174733E504B0304140006080800B670623BD486FD9CA0000000F4000000130000005B436F6E74656E745F54797065735D2E786D6C7D8EC10E82300C865F65E91D8A1E8C310C0EEA1BF002731658846E
310
D98AC1B77784ABF1D8FE5FBFBF75BBCE937A534CCEB38643598122B6FEE978D0B0485F9C41B54DDD7D022595594E1A469170414C76A4D9A4D207E29CF43ECE46F218070CC6BECC4078ACAA135ACF422C856C0E68EA1BF5669944DDD7BCDE7B1F8E415D77AECB980613C2E4AC91FC167A2B244592486606FC29C8FD7F045B9A
310
EF7053A7E60B504B0304140006080800B670623BBC1638F5EC0000007C01000008000000636F72652E786D6C8D90416EC3201045AF82665B61836BE2D8C24471DB9CA01740401C94182C03558F5F9C3852BBEB6A467FFE9B197D7EF89E6EE8CB2CC17AD7032D0820E394D7D68D3DA478C67B4007C117EFE32F1B202727D3C3
310
2A83E0E3E2D3BC49CABB685CCCAAF3DA6CA20CC14440EA969B1E82BA98491632C5EC08D76296EA2A4753D06797E194AC468F2356E77DF66CCD02825543D50CACC62D39ED70FDC68EB8FD68F6F8787A6784342D1DDA1D2F5758F068A7E77DB518198D065111D2624A31A93E69DD11D6D5EC85EC3B4278B9DAFF4069D6FF8492
310
75F1B5DADE7D600104CD8FDC0782976B16B9DC83CA75CD4DFC00504B0304140006080800B670623B55019EA25F0000007C00000007000000636E782E786D6C4DCB3B0E80201045D1AD90E915ED2CF8AC45050C11660C8261F98AB1B07AC9C97D42D718D865D3E909258CFD00CCE24AC6E326A164D74DC0B4128928FF326038
310
472BA13128B1252AC747C6BAB984FC68F0B87FE8960A5C09FE86CFB69FBA01504B0304140006080800B670623B3586FFB671010000D40300000C0000006662782F636F72652E786D6CC553ED6E8320147D15C2DF4541A76D6D90A6DDD627D80B50A4CE54C120983EFEAE1F4DD7A55BBA5FF3879273EEE59E7310B6393735EA
310
95ED2AA3731C851423A5A5292A5DE6D8BB63B0C268C39935C67D29C3488B46E578803167A535BE9D2169B453DA01AA4DA16650749D7218C91A1639EEE4876A4428BC838AEE14B6429E44A9C228041AEA38EB9C0501681A32BC313F1ECE8C4C3867DE57C5CC56054CAB8E95B298A7F12E5EEED224C8E87E11242FE936C8DE96
310
AB60BB7F4D295D66D12E5B30323473E6AAE6A24E5A259C2A308F29CD82280A68FC1E256B9AAE93F489AED694323294DF34F9B678B0C957DA3DC7B3DCA9ADC33C022123F1CD2D44E450277AD04338234388F01913BE0D1A0281909D38D4171F27807A259DB1093085F157AA17B557309586747CD0CF0B46A64E983A6E0EAEEF
310
CE881F9EF1FB8E70D44297604238581EBC1B74B249C31C5AAB6CD0BB33D2C636A27ECCC62F0EFF445DC5DF95244D6DEC7F2922F30191F9F720C37DE49F504B0304140006080800B670623B4220A0FF7D0000009D0000000B0000006662782F636E782E786D6C4DCCD10A83201886E15B91FFDCE542CB0335D0EC3E6259C84A
310
C3E9D8E5AF46073BFAE0E1E315DD675BD1DBA5978F41C2FD4600B9F088930F8B849267CC01754AA418F3DF0D50183727E164506249B1EC174D6E1ECB9A0F5D7D785E68DB8151CD286E5A5363CA6B8A39E90D36D40E96B086F55A43A544F52B1D7B86D517504B0304140006080800B670623B2FA3FEDE290100001202000031
310
0000006662782F45374635344235342D363743322D343832342D383044432D4334454645303536354442422F636F72652E786D6C8D515B6EC32010BC0AE22B55850D2E386E848994D7097A0117488A1283C5A3CAF10BB523B57FF961D1ECCCECC0F2ED7DBC816FED8371B687A4C210682B9D32F6D2C314CFA883602BB8772E
310
FEA141608751F7B0C050F08B77695A20E96CD43666D43AA5177008414708E42D5F7A18E4971E876A483133C2B59A06791D2EBA22556E679EE021FA1C00CC43CA09C5717D6274C7286AD7FB06D1AEA1A8C3873DDAD3E3E98859CB0EBB1DAF67A1E02919B5C88DCA71CCD968FFAC49110B1ECDF8882FBD1EA256503418BF2342
310
106E3E08DD60B6A1EC15771B8C795DE8FF4469524F8A92B1F1AD59E2CEB20005E1F5DC105CB9F4797B84D1F7C9F908CABC55D0F2050A5C61CC1AD2F27A26E6E767C7962E8E213A9FBF7775FDCC5CC266DB960A5E970DE5F2BBBE5CCB36C50F504B0304140006080800B670623B1B8617914E01000033030000300000006662
310
782F45374635344235342D363743322D343832342D383044432D4334454645303536354442422F636E782E786D6CD593C16EC32010447F0571AD6CE3D489D20813A9877E410FBD62D82434182CC055F3F75D1292E692438FBD206B7698593D61BEFD1E2DF982108D773D6D6B460938E5B571FB9ECE6957AD29D90A1EBC4F77
310
364A9C1CA1A759A682EF839FA72269D8C9D92654AD71C72206887E0E0A22CAF926B15E498B01E0AA19451807D01A34B919F16B070157417138917400F2F6FA41FCF0092A45DEE414C19BDC21783E4BD39D891265658C3D8DEA00A3ACE59CBC8678ACB54CB26EEB6BD7839D7E9348BE70AD9C8321B9BCA7F9A4A26C542347DE
310
E050F09802D22BA6749A800A394DD62899107273365E3C82CFC6A55557BC06C10774B7ABE7AEC3B0F34CF06446280E154026D0542C187BA9DAB6628BF7B6DBB0E5A65B3EB1F58631DE64BBE083F7B65CC218087E22CABB042E51D1F2268F1FE12B3EA24D40D63E9CFE00120194D60B9D5BC67FE6D39CDF37E20AF817881F50
310
4B0304140006080800B670623B29652116630500003C100000340000006662782F45374635344235342D363743322D343832342D383044432D4334454645303536354442422F6F626A656374732E786D6CAD575D739B3814FD2B0CFB0C989834C90EA1639B24E3E9A6EDD4D3CE3E64C623834CD8006224913AFDF57B040203
310
B65BEF871F0C12D2FD3CF7E8CA7FBFCB33E3957291B2E2D674ED8969D02262715A24B76625B7D6B569BC0F7CCE98EC2D338D82E4F4D654D366E0279C55A59E8AE99654991CCDDECFFF3444440B6A1A514684B83545F44C7362934AB2988A173B2692D8C97667BB76B3702836E1A47C1E092D09A78584A5982F20C5688C7287
310
C389E904BEA3BE07BEFAD7ABA6A75739B53F43FD69212429A20365233153D70BEF2E2E6FAC4BCF9B5ADEBB0BD79ADFCF43CBBD9A4E16EF168B9BD9DD0D140BC921495BC2E9D60C1E101B9E46BED37CEA2CD6861F3329624541A3DA7F7858DBAC25C6B4A4458C3CA654405BCFEBC970E8AAD8F43E4FD558ABEC4F9FE7557F47
310
4F506B7BFBEC5BCA367FC105710E2AB8A00A554D7CB4A30DFE26FBA86D18CBF4B75418399194A72433B274C3097F33032C554B027F2046A1932B842B0FCCC0DDCBEBDB8AD2F835768F59B9ADB24C41D30C6A64AF817F2A456D59FA83F2E3DA60137255A585BCD60EC9B7929AC18DEFD49381AF1ED30BFDB109A4B1CD488294
310
C3CDE6EBC8D185AABD6568061FEE37BB95AAC7E3CA4BCE4ACAA5820FA0D526AE7DAA2869B5EE5999531BE0CC20E6FBA07C41E43FA27CF7A6206F3CDD793B4F6B919C1462CB788EDCD893FA674CDA17AB7B3B7C019F8D561FAEE966FED562DFE98C1D12C6A9FC015C2A35D7FF3D7FC398F591DA4B5FE0BFA2C0189FEA50AE22
310
92817A1ED3020951A03432862970F976B33383259812CC8E5D240BBA801CBCF8CE2BBEE3BF910DB6AAD5F79E05123AE2DB33981FB1ACCB02B69D00CB014FD68AB573A7627EF9BFD4CC2C5C7D58557C4B22FAA88925A4DBB44825CECE3D78FB060D1231F0E885BE7D673C86A3874958F593906B5502D1563157814FDAC3420D
310
F69A070A22EC4B98E23CFF171A1E5311D12C23056555ABA53B8614563B92D17D02AAB009E8F46284624E5F53D5490C560CCCC2591FF1B45421EB0EBD8EA7ED13BE7C5D7E0428CD60FEF60779EB13E6664FF711CB185F6FDED60D139A001FF60CD1FD6D086F1D51474901E26B2CB794A343BC8ED3EDB612E0DD2351FCB65CF4
310
33D511C9E14B5B40ADC6A6263DB0336A8F700DDF56271A024E70B0B3629DE21847591E55DED73D56206AB927E46FAABC5C939C55853C274C93D69FD6FA4E78BF8B11DF898C9ECD60553FAD39283BA6F18984AA23E8884F83F45C5F5F859797B31B2B9C84A1E5B9DE9D35BFF25C6B76152E422F9C5DCC3D847F5801ED09D5AF
310
41441327A25FF15487F9EB725FB666F048A4701E9A827292E6F97569A32DF61DEC01C0BB8DCBBCCC684E0B49147C1FD54BF685A0AB18C868E6973949E819523E3DAC463660E68C7D9F55A9D1EFA3BD7A76A16AE1A810F95CE59B82A4D968A376DC2E8B44BBDD86B27B368CDE0ED548C7137DA860591A83706223A12CA712B4
310
7306DBF39C0A20A6DF95C7FAF670C6EED7A61F946493D1D6926782963813403548A78AE470DEF80D2D9CEAA26E4D1C76F60BFE74219A06527D6B82DF641A51616F703CAAC6A7160E08A00BEB4810A0274592A1B36E3675E36E978A0DE80727A0D6DF2D39A75BD27E0D8837276589537B40ABB56D5A41F48F1C6FCD3188C4EB
310
A6929D2FFB89CE995A4D00AE813BDD032DC48B56BD437DFDDC2DD7AED70C2272D63DE9A72068A45A92F0A4BE17A8A06B9366E16707AD80B1FC649459952097E74BB23805982B55E0401150A165964402AA8BDF9F3E7386BB686EDCA780C0D382E5392BF460A6EFB2C6EA1937D3F809B440D5F5435C4C5CF7A9EEFAF54564BD
310
2182DA24162F98680B4E7930C21A0079709CEAEB99A372305ABE0C0D7D6078105A83F6A0296DAEE1068A47DD1C55A9F4C9B2FC69E3EFD44B81028E963DF81B504B0304140006080000B670623B000000000000000000000000350000006662782F45374635344235342D363743322D343832342D383044432D433445464530
310
3536354442422F76657274696365732E62696E504B0304140006080800B670623BF270F1330600000004000000360000006662782F45374635344235342D363743322D343832342D383044432D4334454645303536354442422F747269616E676C65732E62696E636660600000504B0304140006080000B670623B00000000
310
0000000000000000370000006662782F45374635344235342D363743322D343832342D383044432D4334454645303536354442422F617474726962757465732E62696E504B0304140006080800B670623B08DA0BD19000000041010000360000006662782F45374635344235342D363743322D343832342D383044432D4334
310
454645303536354442422F6469726563746F72792E786D6C858F410AC3201045AF22B36F53E9A60B35CBEEBAE80D244E44489C6234F4F835464A48035D0DF398FF9F8AF63D0E6CC63039F212F8F9020C7D47C6792B21C5FE7403D62A1188E2E60C98D7234A5830286103A55745067B9D86B8A3CF9C7F90C11DE607FB144396
310
D7B6A82D282E9A152AD114D5EF2CB866EEE831B8EEA07A7BB5A8D7D61A2BAAEB7FD5F70921FF497D00504B0304140006080800B670623B6378F24DFF000000A00100003B0000006662782F45374635344235342D363743322D343832342D383044432D4334454645303536354442422F7265736F75726365732F636F72652E
310
786D6C8D504B6E833010BD0A9A6D65B0094E42641C85B639412F6099496225D8C89FAAC7AF09546A77DDCC8CDE47F3F4C4F16B7C149FE88371B603565228D06A37187BED20C50BD9437194C23B177FC9A0B06AC40E6618A4B87A97A615D2CE46B431A3D60DB8822A048C50E8473E3A08FA86A32A558A5911EEE5A4F45D5DB1
310
6465A6B34E8A107D0E502C4FE609D26370C96B0CA25A58295232C3AA3143FE692E063D485EF7F5AEE71BD2D2F39634AFFC44DAF7DD9E9CCE6F9CD25DCBFA762BAAD92C4534E34F46ED51451C40D694B6843142EB0FD61C283F34FC85EE0F948A6A96FF31A569F8A729191B37F51A77B105902C0779125254735F793DCBCC7B
310
EE567E03504B010214000A0000080000B670623B3DEE336E79000000790000001B00000000000000000000000000000000006175746F6465736B2D64657369676E2D7061636B6167652E786D6C504B01021400140006080800B670623BD486FD9CA0000000F40000001300000000000000000000000000B20000005B436F6E
310
74656E745F54797065735D2E786D6C504B01021400140006080800B670623BBC1638F5EC0000007C010000080000000000000000000000000083010000636F72652E786D6C504B01021400140006080800B670623B55019EA25F0000007C000000070000000000000000000000000095020000636E782E786D6C504B010214
310
00140006080800B670623B3586FFB671010000D40300000C00000000000000000000000000190300006662782F636F72652E786D6C504B01021400140006080800B670623B4220A0FF7D0000009D0000000B00000000000000000000000000B40400006662782F636E782E786D6C504B01021400140006080800B670623B2F
310
A3FEDE290100001202000031000000000000000000000000005A0500006662782F45374635344235342D363743322D343832342D383044432D4334454645303536354442422F636F72652E786D6C504B01021400140006080800B670623B1B8617914E010000330300003000000000000000000000000000D2060000666278
310
2F45374635344235342D363743322D343832342D383044432D4334454645303536354442422F636E782E786D6C504B01021400140006080800B670623B29652116630500003C10000034000000000000000000000000006E0800006662782F45374635344235342D363743322D343832342D383044432D4334454645303536
310
354442422F6F626A656374732E786D6C504B01021400140006080000B670623B0000000000000000000000003500000000000000000000000000230E00006662782F45374635344235342D363743322D343832342D383044432D4334454645303536354442422F76657274696365732E62696E504B01021400140006080800
310
B670623BF270F13306000000040000003600000000000000000000000000760E00006662782F45374635344235342D363743322D343832342D383044432D4334454645303536354442422F747269616E676C65732E62696E504B01021400140006080000B670623B0000000000000000000000003700000000000000000000
310
000000D00E00006662782F45374635344235342D363743322D343832342D383044432D4334454645303536354442422F617474726962757465732E62696E504B01021400140006080800B670623B08DA0BD190000000410100003600000000000000000000000000250F00006662782F45374635344235342D363743322D34
310
3832342D383044432D4334454645303536354442422F6469726563746F72792E786D6C504B01021400140006080800B670623B6378F24DFF000000A00100003B00000000000000000000000000091000006662782F45374635344235342D363743322D343832342D383044432D4334454645303536354442422F7265736F75
310
726365732F636F72652E786D6C504B0506000000000E000E0080040000611100000000
  0
XRECORD
  5
112
102
{ACAD_REACTORS
330
110
102
}
330
110
100
AcDbXrecord
280
     1
270
     1
271
     1
  0
XRECORD
  5
111
102
{ACAD_REACTORS
330
110
102
}
330
110
100
AcDbXrecord
280
     1
270
     1
271
     1
  0
XRECORD
  5
18A
102
{ACAD_REACTORS
330
110
102
}
330
110
100
AcDbXrecord
280
     1
 70
     0
 90
1778669749
  1
9BF507EE-FAF7-4A99-A33D-4EE51894BC40
310
504B03040A0000080000B670623B3DEE336E79000000790000001B0000006175746F6465736B2D64657369676E2D7061636B6167652E786D6C3C3F786D6C2076657273696F6E3D22312E302220656E636F64696E673D227574662D3822203F3E3C666F726D6174733E3C666F726D61743E687474703A2F2F736368656D612E
310
6175746F6465736B2E636F6D2F64657369676E2D7061636B6167652F323030393C2F666F726D61743E3C2F666F726D6174733E504B0304140006080800B670623BD486FD9CA0000000F4000000130000005B436F6E74656E745F54797065735D2E786D6C7D8EC10E82300C865F65E91D8A1E8C310C0EEA1BF002731658846E
310
D98AC1B77784ABF1D8FE5FBFBF75BBCE937A534CCEB38643598122B6FEE978D0B0485F9C41B54DDD7D022595594E1A469170414C76A4D9A4D207E29CF43ECE46F218070CC6BECC4078ACAA135ACF422C856C0E68EA1BF5669944DDD7BCDE7B1F8E415D77AECB980613C2E4AC91FC167A2B244592486606FC29C8FD7F045B9A
310
EF7053A7E60B504B0304140006080800B670623BCA089DFFEC0000007C01000008000000636F72652E786D6C8D90416E83301045AF62CDB632D8402020E32882F604BD80653BC44AB011B6AB1EBF262152BBEB6A467FFE9B197D76FA9EEFE84BAFDE38DB03CD08206DA553C64E3DC470C1474027CE56E7C22F1B202B66DDC3
310
260367D3EAE2B24BD2D9A06D48AA754AEFA2F05E0740F29E9A1EBCBCEA59642286E4F0B76C11F226269DD15797E0188D42CF2346A57DE662F40ABCAEC77628C6120F654571D50C04B7F5B9C1E3997CD4F550BE3745C3F20DE62C98F9755FAE5A04AD801784B498524C8A4F5A75E4D055873772EC0861F966FF03C545FD138A
310
C686B2D8DF7D621E384D8F3C069CE55B16A93C824A75CB8DFF00504B0304140006080800B670623B55019EA25F0000007C00000007000000636E782E786D6C4DCB3B0E80201045D1AD90E915ED2CF8AC45050C11660C8261F98AB1B07AC9C97D42D718D865D3E909258CFD00CCE24AC6E326A164D74DC0B4128928FF326038
310
472BA13128B1252AC747C6BAB984FC68F0B87FE8960A5C09FE86CFB69FBA01504B0304140006080800B670623B68FC0B7272010000D40300000C0000006662782F636F72652E786D6CC5535B6E833010BC8AE5DF0A6C1E8124328E22D29EA01770C0A128602363A31CBFCB234A53A555FA553EC09AD9F5CE8C31DB5DDA060D
310
D2F4B556190E7C8A9154852E6B5565D8D993B7C668C799D1DA7E29C3488956667884316795D1AE5BA0422B2B950554E9522EA0E87B69312A1A5864B82F3E642B7CE12C54F467BF13C55954D20F7CA0A18EB3DE1A1080E621E31BF3D3F1C2C88C73E65C5D2E6C5DC2B4FA544B8379921C36797888BC3C8A032F4E73EA6D927D
310
EA1DF6F42D49F2E8350D5346C666CE6CDD5ED515460A2B4BCC434A375E1078347C0FE22D5D6DE3D50B5D6F2965642CBF6B725DF96493AB958DC245EEDCD6631E809089F8E61622B2A81703E8219C913144F84C09DF070D8140C8561C9BAB8F3340832CAC363130A576376A108D933095FA747AD0CF0B46E64E983A6D0EAE1F
310
CE089F9EF1FB8E70D44255604258581E9D1D75B259C3125A278D37D80B52DAB4A279CEC62F0EFF44DDC43F9454E8469BFF5244960322CBEF41C6FBC83F01504B0304140006080800B670623B0F71DDB67E0000009D0000000B0000006662782F636E782E786D6C4DCCD10A83201886E15B91FFDCA54DB73F502386BB8F5816
310
32D3703976F9ABD1C18E3E78F87855FB990379BBFCF2296AE02706C4C5471A7C9C349475A408A4352AA7B4FEDD80C47E761A7606A3A69CCA72D0E0C6BE8475D3E0E3F3409428EA6B27A84079A782899AA2EC1A7AE3ECCC2FD858CB2D544655BFD2B67BD87C01504B0304140006080800B670623BE134B4FB28010000120200
310
00310000006662782F38353834323741342D343835462D343034322D383541392D4331303331363839454531452F636F72652E786D6C8D515B6EC32010BC0AE22B55850D0EA424C24451959EA0172086A42831583CAA1CBF503B52FB971F16CDCECC0EACD8DFC71BF836215AEF7A481A0C817183D7D65D7A98D3197108F652
310
04EFD31F1A044E8DA6871586525C82CFD3020DDE25E352419DD76601558C264130DCCAA58771F832A36A544E8511AFCDA486ABBA988634A55D7852C4144A00300FA927949C71DABD1D28A29C7D208A6987383B6CD13BC16BB2E1DBE3911C453B0BA5C8D9EA456E758963CFD684674DAA588A64C747FC2118958C86B2C3788B
310
0841B8FB247487D98EB257CC77188BB6D2FF89F2A49F1465EBD2BA5BE2CEB2082511EDDC9042FB7CBA3DC298FBE4430275DE2A9AE1054ADC60CC08E3A29D89E5F9C5714317C7987C28DFBBBA9E0A97B0D97643A568EB864AF95D5FA9759BF207504B0304140006080800B670623B1B8617914E010000330300003000000066
310
62782F38353834323741342D343835462D343034322D383541392D4331303331363839454531452F636E782E786D6CD593C16EC32010447F0571AD6CE3D489D20813A9877E410FBD62D82434182CC055F3F75D1292E692438FBD206B7698593D61BEFD1E2DF982108D773D6D6B460938E5B571FB9ECE6957AD29D90A1EBC4F
310
77364A9C1CA1A759A682EF839FA72269D8C9D92654AD71C72206887E0E0A22CAF926B15E498B01E0AA19451807D01A34B919F16B070157417138917400F2F6FA41FCF0092A45DEE414C19BDC21783E4BD39D891265658C3D8DEA00A3ACE59CBC8678ACB54CB26EEB6BD7839D7E9348BE70AD9C8321B9BCA7F9A4A26C542347
310
DEE050F09802D22BA6749A800A394DD62899107273365E3C82CFC6A55557BC06C10774B7ABE7AEC3B0F34CF06446280E154026D0542C187BA9DAB6628BF7B6DBB0E5A65B3EB1F58631DE64BBE083F7B65CC218087E22CABB042E51D1F2268F1FE12B3EA24D40D63E9CFE00120194D60B9D5BC67FE6D39CDF37E20AF817881F
310
504B0304140006080800B670623B5933D422630500003B100000340000006662782F38353834323741342D343835462D343034322D383541392D4331303331363839454531452F6F626A656374732E786D6CAD575B6FA33814FE2B887D0642934E9B156594264D158D3A534DD4D13E548A0C38942D60649B4EBABF7E3F8321
310
40924EF6928780CDF1B97EE762EFF32E4B8D37CA45C2F21BD3B547A641F39045491EDF98A5DC5AD7A6F1D9F73863B243661A39C9E88DA9B64DDF8B392B0BBD15D12D295339D85DDEFE618890E6D434C2940871638AF08566C426A5641115AF764424B1E3EDCE76ED9AB0CF36E6A47819302D08A7B984A6D8CFC1C5A89572FB
310
CB91E9F89EA3BEFB9EFAD754E3D3544E654F5F7E920B49F2F040D880CDD89D2CEE2E2EA7D6E56432B6269F2E5CEB7679BBB0DCABF168FE693E9FCEEEA6102C240727AD09A75BD3BF876F78127A4EFDA9D5582B7E4CA590E5390D2BFB6161A5B3E618D182E611E2985001691DAB47FDA5AB7CD3F93C566B2DB2BB7D9E55DD13
310
1D468DEECDB3AB290BFE8409E21C54704115AA6AFF68436BFC8DF65E0B184BF5B74418199194272435D224E084BF9B3E481589EFF5D828747285706581E9BB7B7E5D5D911ABFC6EE312DB7659A2A689A7E85EC0DF04FA5A8344BFEA2FCB834E8845895492EAFB541F2BDA0A63FF59C6AD3F7D4637CA13FD68E34B629891172
310
98597F1D183A57B9B75A98FE9765B05BAB7C3C2EBCE0ACA05C2AF8005A4DE09AA7F29216EB9E15397500C6F47CBE77CA7778FE2BD277AF0AE2C693DD6437D1522427B9D8329E2136F6A8FA19A3E6C56ADF0E5F50CF06D48734EDCEBF22F69C56D97EC138153F804B85E6FABFC7AFEFB32E523BE1F3BD372418E363EDCA7548
310
52949E8724474014288D94610BB57C1BEC4C7F854A89CA8E5324F55B871CBC78CE1BBEE3BFE68D6A5589EF3C730474506FCFA8FCF0659516D0ED04580EEA6425581B77CAE797FF4BCECC16EB2FEB926F49481F746159D06D922712BD730FDEAE42BD40F42C7AA5EF3F198F60E86110D6DD20645A9480B795CF95E3E3A659A8
310
C55E724F408873315335CFFB8584874484344D494E59D94869DB90C26A5B64F49C802CAC1D3ABE18A098D3B7444D123D8A9E5AE8F5214F0AE5B2B6E9B575DA3E61CBD3EA2B4009FA940524DD1305FB6A1FB294F14DF0BEA90BA109ECE1481FDC3FFAE8D60E75141700BE82725371B4873751B2DD960265F788137FACE6DD40
310
B575E4F0A5C99F46629D92131467A41EE11ABD8D4CCC039CA0AFB37C93A08B232B8F0AEFCA1E0A1015DF13FC83322B362463652ECF71D3A8B1A7D1BE65DE1D62C44F22C317D35F574FEB16153BA2D13E543D10A80E74C4A65E78A6B7CBCBD1D5DD9DB59C2DAFACC96C3AB566E3F1C29ADCDD5DBAD7D3C9ED7C822ED74F80A6
310
41755310DE4443F44A9E68373FADF6596BFA0F440AE7BECE2727AE9F4F2B1B53B1E7E00CF0DD1E5C65454A339A4BA2D0FBA05ED2EF0443458F47BDBFCA484CCFE0F2ED7E3DD0013B679C7B5499467F0ECEEADDB9CA85A34CE44B99053949D2C1416DB85DE4B136BB7165FBAC0B7AB3542BED4F8CA182A549847A1319316519
310
95A83A67147B9E5101C47487F2485F1ECE38FD568F839204296D3479219888530154036E6528FBFBC66F98E0D4107563A2D7D9AFF8D389681A08F58D89F22693900A3B407754734FC51C10C010D6D640809EE4718AC1BA3ED4AEDB53CA37283F68805A7E4B72CEB0A4EDEAD5DD8C14059A76AFAA56BA6901E13F32BC51C720
310
12AF41295B5BF61BAD3195181FB506E6B40F4C10AF5AF40EF9F5B159AE5DD1F43C72D635E94310D45C2D49785C5D0B94D3B54AB3C5A38349C0587D338AB48C11CBF339599C02CCA54A70A008A8D03C0B2201D5F9EFCF8F9CE12A9A19CB0410789EB32C63B95ECCF455D658BFE0621A3DA32C5075FB101723D77DAE867E7D0F
310
D90444509B44E2151B4DC2290B065803200FBAA9BE9D392A0603F2D5C2D00D6302A615680F66D2FA166E2079D4C551A54AB758161FCEFD4E450A14704CECFEDF504B0304140006080000B670623B000000000000000000000000350000006662782F38353834323741342D343835462D343034322D383541392D4331303331
310
363839454531452F76657274696365732E62696E504B0304140006080800B670623BF270F1330600000004000000360000006662782F38353834323741342D343835462D343034322D383541392D4331303331363839454531452F747269616E676C65732E62696E636660600000504B0304140006080000B670623B000000
310
000000000000000000370000006662782F38353834323741342D343835462D343034322D383541392D4331303331363839454531452F617474726962757465732E62696E504B0304140006080800B670623B08DA0BD19000000041010000360000006662782F38353834323741342D343835462D343034322D383541392D43
310
31303331363839454531452F6469726563746F72792E786D6C858F410AC3201045AF22B36F53E9A60B35CBEEBAE80D244E44489C6234F4F835464A48035D0DF398FF9F8AF63D0E6CC63039F212F8F9020C7D47C6792B21C5FE7403D62A1188E2E60C98D7234A5830286103A55745067B9D86B8A3CF9C7F90C11DE607FB1443
310
96D7B6A82D282E9A152AD114D5EF2CB866EEE831B8EEA07A7BB5A8D7D61A2BAAEB7FD5F70921FF497D00504B0304140006080800B670623BD9A3B367FE000000A00100003B0000006662782F38353834323741342D343835462D343034322D383541392D4331303331363839454531452F7265736F75726365732F636F7265
310
2E786D6C8D504B6E833010BD0A9A6D65B01D0201194711694FD00B586642AD043BF2A7EAF16B122AB5BB6E6646EFA3797AE2F8B5DC8A4FF4C1383B002B291468B59B8C9D0748F1420E501CA5F0CEC55F3228AC5A708015062966EFD27D83B4B3116DCCA875136EA00A012314FA968F0182FEC045952AC5AC08D7F2AEF455CD
310
58B232D3592745883E07289E4FD609D26370C96B0CA27AB252A464A64D63A6FCD35C0C7A904D73EE467EE664DCD58CD4ED4849D79C5A723ED1B7A61977AF2D6F45B59AA58866F9C9A83DAA8813484E6947182394BFB3BAA7FBBEDEBFD0434FA9A856F91F53BA4FFF342563E38E6F719FB60092E5200F428A6AED2BAF479979
310
AFDDCA6F504B010214000A0000080000B670623B3DEE336E79000000790000001B00000000000000000000000000000000006175746F6465736B2D64657369676E2D7061636B6167652E786D6C504B01021400140006080800B670623BD486FD9CA0000000F40000001300000000000000000000000000B20000005B436F6E
310
74656E745F54797065735D2E786D6C504B01021400140006080800B670623BCA089DFFEC0000007C010000080000000000000000000000000083010000636F72652E786D6C504B01021400140006080800B670623B55019EA25F0000007C000000070000000000000000000000000095020000636E782E786D6C504B010214
310
00140006080800B670623B68FC0B7272010000D40300000C00000000000000000000000000190300006662782F636F72652E786D6C504B01021400140006080800B670623B0F71DDB67E0000009D0000000B00000000000000000000000000B50400006662782F636E782E786D6C504B01021400140006080800B670623BE1
310
34B4FB280100001202000031000000000000000000000000005C0500006662782F38353834323741342D343835462D343034322D383541392D4331303331363839454531452F636F72652E786D6C504B01021400140006080800B670623B1B8617914E010000330300003000000000000000000000000000D3060000666278
310
2F38353834323741342D343835462D343034322D383541392D4331303331363839454531452F636E782E786D6C504B01021400140006080800B670623B5933D422630500003B10000034000000000000000000000000006F0800006662782F38353834323741342D343835462D343034322D383541392D4331303331363839
310
454531452F6F626A656374732E786D6C504B01021400140006080000B670623B0000000000000000000000003500000000000000000000000000240E00006662782F38353834323741342D343835462D343034322D383541392D4331303331363839454531452F76657274696365732E62696E504B01021400140006080800
310
B670623BF270F13306000000040000003600000000000000000000000000770E00006662782F38353834323741342D343835462D343034322D383541392D4331303331363839454531452F747269616E676C65732E62696E504B01021400140006080000B670623B0000000000000000000000003700000000000000000000
310
000000D10E00006662782F38353834323741342D343835462D343034322D383541392D4331303331363839454531452F617474726962757465732E62696E504B01021400140006080800B670623B08DA0BD190000000410100003600000000000000000000000000260F00006662782F38353834323741342D343835462D34
310
3034322D383541392D4331303331363839454531452F6469726563746F72792E786D6C504B01021400140006080800B670623BD9A3B367FE000000A00100003B000000000000000000000000000A1000006662782F38353834323741342D343835462D343034322D383541392D4331303331363839454531452F7265736F75
310
726365732F636F72652E786D6C504B0506000000000E000E0080040000611100000000
  0
XRECORD
  5
113
102
{ACAD_REACTORS
330
110
102
}
330
110
100
AcDbXrecord
280
     1
270
     1
271
     1
  0
XRECORD
  5
114
102
{ACAD_REACTORS
330
110
102
}
330
110
100
AcDbXrecord
280
     1
270
     1
271
     1
  0
CELLSTYLEMAP
  5
B481
102
{ACAD_REACTORS
330
104
102
}
330
104
100
AcDbCellStyleMap
 90
        3
300
CELLSTYLE
  1
TABLEFORMAT_BEGIN
 90
        5
170
     1
 91
        0
 92
    32768
 62
   257
 93
        1
300
CONTENTFORMAT
  1
CONTENTFORMAT_BEGIN
 90
        0
 91
        0
 92
      512
 93
        0
300

 40
0.0
140
1.0
 94
        5
 62
     0
340
11
144
0.25
309
CONTENTFORMAT_END
171
     1
301
MARGIN
  1
CELLMARGIN_BEGIN
 40
0.06
 40
0.06
 40
0.06
 40
0.06
 40
0.18
 40
0.18
309
CELLMARGIN_END
 94
        6
 95
        1
302
GRIDFORMAT
  1
GRIDFORMAT_BEGIN
 90
        0
 91
        1
 62
     0
 92
       -2
340
0
 93
        0
 40
0.045
309
GRIDFORMAT_END
 95
        2
302
GRIDFORMAT
  1
GRIDFORMAT_BEGIN
 90
        0
 91
        1
 62
     0
 92
       -2
340
0
 93
        0
 40
0.045
309
GRIDFORMAT_END
 95
        4
302
GRIDFORMAT
  1
GRIDFORMAT_BEGIN
 90
        0
 91
        1
 62
     0
 92
       -2
340
0
 93
        0
 40
0.045
309
GRIDFORMAT_END
 95
        8
302
GRIDFORMAT
  1
GRIDFORMAT_BEGIN
 90
        0
 91
        1
 62
     0
 92
       -2
340
0
 93
        0
 40
0.045
309
GRIDFORMAT_END
 95
       16
302
GRIDFORMAT
  1
GRIDFORMAT_BEGIN
 90
        0
 91
        1
 62
     0
 92
       -2
340
0
 93
        0
 40
0.045
309
GRIDFORMAT_END
 95
       32
302
GRIDFORMAT
  1
GRIDFORMAT_BEGIN
 90
        0
 91
        1
 62
     0
 92
       -2
340
0
 93
        0
 40
0.045
309
GRIDFORMAT_END
309
TABLEFORMAT_END
  1
CELLSTYLE_BEGIN
 90
        1
 91
        1
300
_TITLE
309
CELLSTYLE_END
300
CELLSTYLE
  1
TABLEFORMAT_BEGIN
 90
        5
170
     1
 91
        0
 92
        0
 62
   257
 93
        1
300
CONTENTFORMAT
  1
CONTENTFORMAT_BEGIN
 90
        0
 91
        0
 92
      512
 93
        0
300

 40
0.0
140
1.0
 94
        5
 62
     0
340
11
144
0.18
309
CONTENTFORMAT_END
171
     1
301
MARGIN
  1
CELLMARGIN_BEGIN
 40
0.06
 40
0.06
 40
0.06
 40
0.06
 40
0.18
 40
0.18
309
CELLMARGIN_END
 94
        6
 95
        1
302
GRIDFORMAT
  1
GRIDFORMAT_BEGIN
 90
        0
 91
        1
 62
     0
 92
       -2
340
0
 93
        0
 40
0.045
309
GRIDFORMAT_END
 95
        2
302
GRIDFORMAT
  1
GRIDFORMAT_BEGIN
 90
        0
 91
        1
 62
     0
 92
       -2
340
0
 93
        0
 40
0.045
309
GRIDFORMAT_END
 95
        4
302
GRIDFORMAT
  1
GRIDFORMAT_BEGIN
 90
        0
 91
        1
 62
     0
 92
       -2
340
0
 93
        0
 40
0.045
309
GRIDFORMAT_END
 95
        8
302
GRIDFORMAT
  1
GRIDFORMAT_BEGIN
 90
        0
 91
        1
 62
     0
 92
       -2
340
0
 93
        0
 40
0.045
309
GRIDFORMAT_END
 95
       16
302
GRIDFORMAT
  1
GRIDFORMAT_BEGIN
 90
        0
 91
        1
 62
     0
 92
       -2
340
0
 93
        0
 40
0.045
309
GRIDFORMAT_END
 95
       32
302
GRIDFORMAT
  1
GRIDFORMAT_BEGIN
 90
        0
 91
        1
 62
     0
 92
       -2
340
0
 93
        0
 40
0.045
309
GRIDFORMAT_END
309
TABLEFORMAT_END
  1
CELLSTYLE_BEGIN
 90
        2
 91
        1
300
_HEADER
309
CELLSTYLE_END
300
CELLSTYLE
  1
TABLEFORMAT_BEGIN
 90
        5
170
     1
 91
        0
 92
        0
 62
   257
 93
        1
300
CONTENTFORMAT
  1
CONTENTFORMAT_BEGIN
 90
        0
 91
        0
 92
      512
 93
        0
300

 40
0.0
140
1.0
 94
        2
 62
     0
340
11
144
0.18
309
CONTENTFORMAT_END
171
     1
301
MARGIN
  1
CELLMARGIN_BEGIN
 40
0.06
 40
0.06
 40
0.06
 40
0.06
 40
0.18
 40
0.18
309
CELLMARGIN_END
 94
        6
 95
        1
302
GRIDFORMAT
  1
GRIDFORMAT_BEGIN
 90
        0
 91
        1
 62
     0
 92
       -2
340
0
 93
        0
 40
0.045
309
GRIDFORMAT_END
 95
        2
302
GRIDFORMAT
  1
GRIDFORMAT_BEGIN
 90
        0
 91
        1
 62
     0
 92
       -2
340
0
 93
        0
 40
0.045
309
GRIDFORMAT_END
 95
        4
302
GRIDFORMAT
  1
GRIDFORMAT_BEGIN
 90
        0
 91
        1
 62
     0
 92
       -2
340
0
 93
        0
 40
0.045
309
GRIDFORMAT_END
 95
        8
302
GRIDFORMAT
  1
GRIDFORMAT_BEGIN
 90
        0
 91
        1
 62
     0
 92
       -2
340
0
 93
        0
 40
0.045
309
GRIDFORMAT_END
 95
       16
302
GRIDFORMAT
  1
GRIDFORMAT_BEGIN
 90
        0
 91
        1
 62
     0
 92
       -2
340
0
 93
        0
 40
0.045
309
GRIDFORMAT_END
 95
       32
302
GRIDFORMAT
  1
GRIDFORMAT_BEGIN
 90
        0
 91
        1
 62
     0
 92
       -2
340
0
 93
        0
 40
0.045
309
GRIDFORMAT_END
309
TABLEFORMAT_END
  1
CELLSTYLE_BEGIN
 90
        3
 91
        2
300
_DATA
309
CELLSTYLE_END
  0
ENDSEC
  0
SECTION
  2
ACDSDATA
 70
     2
 71
     8
  0
ACDSSCHEMA
 90
        0
  1
AcDb_Thumbnail_Schema
  2
AcDbDs::ID
280
    10
 91
        8
  2
Thumbnail_Data
280
    15
 91
        0
101
ACDSRECORD
 95
        0
 90
        1
  2
AcDbDs::TreatedAsObjectData
280
     1
291
     1
101
ACDSRECORD
 95
        0
 90
        2
  2
AcDbDs::Legacy
280
     1
291
     1
101
ACDSRECORD
  1
AcDbDs::ID
 90
        3
  2
AcDs:Indexable
280
     1
291
     1
101
ACDSRECORD
  1
AcDbDs::ID
 90
        4
  2
AcDbDs::HandleAttribute
280
     7
282
     1
  0
ACDSSCHEMA
 90
        1
  1
AcDbDs::TreatedAsObjectDataSchema
  2
AcDbDs::TreatedAsObjectData
280
     1
 91
        0
  0
ACDSSCHEMA
 90
        2
  1
AcDbDs::LegacySchema
  2
AcDbDs::Legacy
280
     1
 91
        0
  0
ACDSSCHEMA
 90
        3
  1
AcDbDs::IndexedPropertySchema
  2
AcDs:Indexable
280
     1
 91
        0
  0
ACDSSCHEMA
 90
        4
  1
AcDbDs::HandleAttributeSchema
  2
AcDbDs::HandleAttribute
280
     7
 91
        1
284
     1
  0
ACDSRECORD
 90
        0
  2
AcDbDs::ID
280
    10
320
22
  2
Thumbnail_Data
280
    15
 94
     1767
310
89504E470D0A1A0A0000000D49484452000001000000006D080300000079B14F6400000300504C5445212830FFFFFF2128300000000000000000000000000000000000000000000000000000330000660000990000CC0000FF0033000033330033660033990033CC0033FF0066000066330066660066990066CC0066FF0099
310
000099330099660099990099CC0099FF00CC0000CC3300CC6600CC9900CCCC00CCFF00FF0000FF3300FF6600FF9900FFCC00FFFF3300003300333300663300993300CC3300FF3333003333333333663333993333CC3333FF3366003366333366663366993366CC3366FF3399003399333399663399993399CC3399FF33CC00
310
33CC3333CC6633CC9933CCCC33CCFF33FF0033FF3333FF6633FF9933FFCC33FFFF6600006600336600666600996600CC6600FF6633006633336633666633996633CC6633FF6666006666336666666666996666CC6666FF6699006699336699666699996699CC6699FF66CC0066CC3366CC6666CC9966CCCC66CCFF66FF0066
310
FF3366FF6666FF9966FFCC66FFFF9900009900339900669900999900CC9900FF9933009933339933669933999933CC9933FF9966009966339966669966999966CC9966FF9999009999339999669999999999CC9999FF99CC0099CC3399CC6699CC9999CCCC99CCFF99FF0099FF3399FF6699FF9999FFCC99FFFFCC0000CC00
310
33CC0066CC0099CC00CCCC00FFCC3300CC3333CC3366CC3399CC33CCCC33FFCC6600CC6633CC6666CC6699CC66CCCC66FFCC9900CC9933CC9966CC9999CC99CCCC99FFCCCC00CCCC33CCCC66CCCC99CCCCCCCCCCFFCCFF00CCFF33CCFF66CCFF99CCFFCCCCFFFFFF0000FF0033FF0066FF0099FF00CCFF00FFFF3300FF3333
310
FF3366FF3399FF33CCFF33FFFF6600FF6633FF6666FF6699FF66CCFF66FFFF9900FF9933FF9966FF9999FF99CCFF99FFFFCC00FFCC33FFCC66FFCC99FFCCCCFFCCFFFFFF00FFFF33FFFF66FFFF99FFFFCCFFFFFF0000000D0D0D1A1A1A2828283535354343435050505D5D5D6B6B6B787878868686939393A1A1A1AEAEAEBB
310
BBBBC9C9C9D6D6D6E4E4E4F1F1F1FFFFFF0000000000000000000000000000000000000000000000000000000000002E4550F1000003A24944415478DAED9DD172DC200C45F5FFFF7BDE9BB6F1AE0D1202D2CEE48AF86127937532ABE38B904062CD7EAEEF79F1711D6DFEEF9783EDBF6138D8FE6309DCCC3E9580FBA3B037
310
67DB7E7D005C140E05B0E5CE2868FF2600751FB8A9650A0A600F40110FB80E80820AD89A05F801702880572E74E424F06135E70AE0F9D0C509B00CA0D33C67D9EF3C71610DB0036042149A1E804D010813D87166CC3906B919701240789322801D6FCEC63B2AF6CF9880D501C0868AD97E5303809D04807182E77A75AC0E00
310
7F367F2D0FFB775402E07FDC4F02F877607500C0C00FE05B84D50140B813F2D8F0C6B38FC87D228360B49613026010F3120AEA7B0F7FFC31C00000AEF71405E0BB7ADC2D9FB76886D9B016017C578FAF957E80F4AAA10200CFF37105473606A03311307A9E9D4F7C3E5D3F42442C277EDB9485F7ED730F42683127302D01A6
310
C241042BC65ECF75752130CA21D424F07AFC33CF0CB2144272B39C5909A44BE7C200A602787217A0592E814D2D676355014CFAEC74FB9867AC2C05807F020033C159603D7B2C0860AE4036DD3FBDAFA3C911585200E3A0EA4A9811D5F73680EEA65A04F20A02BAB9B228817067B855BDD81EC9D70148570D2D84C24CFB52A8
310
A80056022A4E0260983280D483B16393AE1B20AC1CD96E29121B04B10258905449002BFFF03800940110970233BDB4A00D209200F392A7D62C9002F893020B2B802C8C251D00DA0A200B6C33005E2AA09C0C4C01C8EACC95156013009E9D16E24D2499023C1FD8741AA02C800C003E0052CD547182F8D1D2680820BD30DC7C
310
7A37156AB60341D9FE240E08AB0609677DB4EBA60300F79D9FC7BE32D500D810C0BB97202E1E44BC756000C02D16214DA8A5A741A268280620DE3B81AD01E0D66A52210C08001003A08B16D50178766223004D818C761860AB005A9918EA00204A85F0C7465322A5EE034300EEF4F010802600462E206E2EE80000A2A55223
310
17300780478A289D0C613B43E022807E32888BC45B15C2791B93AB10FA2A80070610F40003ABBA103005A068FF0200CF09D2CC9E8267897800989E053A00560240571D3A0540D37E6773BC3F5F8A74B0D40140BC009C00B00AA70941DB05090B00F48F13BAF5C9F27A8568B0388BE67AB3601FF8FE35FA02303A51C269A804
310
6509BCF3DA4BF90980C67B2AA6028F4FDC6D71DD1B409C3D339A7584CFBFD093C0A0169291B7689A6A4563E1C752465421E5F704B45DC5C2074B0627EB8467637401836A26D08C78487FF770100DAB7A5F3BB4F48D031CFEBD4B3FD7FFBB7E01C0E51CF9A6D5D20C0000000049454E44AE426082
  0
ENDSEC
  0
EOF
