  0
SECTION
  2
HEADER
  9
$ACADVER
  1
AC1032
  9
$ACADMAINTVER
 90
      197
  9
$DWGCODEPAGE
  3
ANSI_1252
  9
$LASTSAVEDBY
  1
gregb
  9
$REQUIREDVERSIONS
160
                 0
  9
$INSBASE
 10
0.0
 20
0.0
 30
0.0
  9
$EXTMIN
 10
10898.04691849332
 20
29840.67908538294
 30
0.0
  9
$EXTMAX
 10
11084.50602518471
 20
30008.48930513186
 30
0.0
  9
$LIMMIN
 10
0.0
 20
0.0
  9
$LIMMAX
 10
12.0
 20
9.0
  9
$ORTHOMODE
 70
     1
  9
$REGENMODE
 70
     1
  9
$FILLMODE
 70
     1
  9
$QTEXTMODE
 70
     0
  9
$MIRRTEXT
 70
     0
  9
$LTSCALE
 40
1.0
  9
$ATTMODE
 70
     1
  9
$TEXTSIZE
 40
0.2
  9
$TRACEWID
 40
0.05
  9
$TEXTSTYLE
  7
Standard
  9
$CLAYER
  8
freecads.com
  9
$CELTYPE
  6
ByLayer
  9
$CECOLOR
 62
   256
  9
$CELTSCALE
 40
1.0
  9
$DISPSILH
 70
     1
  9
$DIMSCALE
 40
1.0
  9
$DIMASZ
 40
0.18
  9
$DIMEXO
 40
0.0625
  9
$DIMDLI
 40
0.38
  9
$DIMRND
 40
0.0
  9
$DIMDLE
 40
0.0
  9
$DIMEXE
 40
0.18
  9
$DIMTP
 40
0.0
  9
$DIMTM
 40
0.0
  9
$DIMTXT
 40
0.18
  9
$DIMCEN
 40
0.09
  9
$DIMTSZ
 40
0.0
  9
$DIMTOL
 70
     0
  9
$DIMLIM
 70
     0
  9
$DIMTIH
 70
     1
  9
$DIMTOH
 70
     1
  9
$DIMSE1
 70
     0
  9
$DIMSE2
 70
     0
  9
$DIMTAD
 70
     0
  9
$DIMZIN
 70
     0
  9
$DIMBLK
  1

  9
$DIMASO
 70
     1
  9
$DIMSHO
 70
     1
  9
$DIMPOST
  1

  9
$DIMAPOST
  1

  9
$DIMALT
 70
     0
  9
$DIMALTD
 70
     2
  9
$DIMALTF
 40
25.4
  9
$DIMLFAC
 40
1.0
  9
$DIMTOFL
 70
     0
  9
$DIMTVP
 40
0.0
  9
$DIMTIX
 70
     0
  9
$DIMSOXD
 70
     0
  9
$DIMSAH
 70
     0
  9
$DIMBLK1
  1

  9
$DIMBLK2
  1

  9
$DIMSTYLE
  2
Standard
  9
$DIMCLRD
 70
     0
  9
$DIMCLRE
 70
     0
  9
$DIMCLRT
 70
     0
  9
$DIMTFAC
 40
1.0
  9
$DIMGAP
 40
0.09
  9
$DIMJUST
 70
     0
  9
$DIMSD1
 70
     0
  9
$DIMSD2
 70
     0
  9
$DIMTOLJ
 70
     1
  9
$DIMTZIN
 70
     0
  9
$DIMALTZ
 70
     0
  9
$DIMALTTZ
 70
     0
  9
$DIMUPT
 70
     0
  9
$DIMDEC
 70
     4
  9
$DIMTDEC
 70
     4
  9
$DIMALTU
 70
     2
  9
$DIMALTTD
 70
     2
  9
$DIMTXSTY
  7
Standard
  9
$DIMAUNIT
 70
     0
  9
$DIMADEC
 70
     0
  9
$DIMALTRND
 40
0.0
  9
$DIMAZIN
 70
     0
  9
$DIMDSEP
 70
    46
  9
$DIMATFIT
 70
     3
  9
$DIMFRAC
 70
     0
  9
$DIMLDRBLK
  1

  9
$DIMLUNIT
 70
     2
  9
$DIMLWD
 70
    -2
  9
$DIMLWE
 70
    -2
  9
$DIMTMOVE
 70
     0
  9
$DIMFXL
 40
1.0
  9
$DIMFXLON
 70
     0
  9
$DIMJOGANG
 40
0.7853981633974483
  9
$DIMTFILL
 70
     0
  9
$DIMTFILLCLR
 70
     0
  9
$DIMARCSYM
 70
     0
  9
$DIMLTYPE
  6

  9
$DIMLTEX1
  6

  9
$DIMLTEX2
  6

  9
$DIMTXTDIRECTION
 70
     0
  9
$LUNITS
 70
     2
  9
$LUPREC
 70
     4
  9
$SKETCHINC
 40
0.1
  9
$FILLETRAD
 40
0.0
  9
$AUNITS
 70
     0
  9
$AUPREC
 70
     0
  9
$MENU
  1
.
  9
$ELEVATION
 40
0.0
  9
$PELEVATION
 40
0.0
  9
$THICKNESS
 40
0.0
  9
$LIMCHECK
 70
     0
  9
$CHAMFERA
 40
0.0
  9
$CHAMFERB
 40
0.0
  9
$CHAMFERC
 40
0.0
  9
$CHAMFERD
 40
0.0
  9
$SKPOLY
 70
     0
  9
$TDCREATE
 40
2458157.371250000
  9
$TDUCREATE
 40
2458157.287916667
  9
$TDUPDATE
 40
2461016.546516204
  9
$TDUUPDATE
 40
2461016.463182871
  9
$TDINDWG
 40
0.1095023148
  9
$TDUSRTIMER
 40
0.1095023148
  9
$USRTIMER
 70
     1
  9
$ANGBASE
 50
0.0
  9
$ANGDIR
 70
     0
  9
$PDMODE
 70
     0
  9
$PDSIZE
 40
0.0
  9
$PLINEWID
 40
0.0
  9
$SPLFRAME
 70
     0
  9
$SPLINETYPE
 70
     6
  9
$SPLINESEGS
 70
     8
  9
$HANDSEED
  5
DB61
  9
$SURFTAB1
 70
     6
  9
$SURFTAB2
 70
     6
  9
$SURFTYPE
 70
     6
  9
$SURFU
 70
     6
  9
$SURFV
 70
     6
  9
$UCSBASE
  2

  9
$UCSNAME
  2

  9
$UCSORG
 10
0.0
 20
0.0
 30
0.0
  9
$UCSXDIR
 10
1.0
 20
0.0
 30
0.0
  9
$UCSYDIR
 10
0.0
 20
1.0
 30
0.0
  9
$UCSORTHOREF
  2

  9
$UCSORTHOVIEW
 70
     0
  9
$UCSORGTOP
 10
0.0
 20
0.0
 30
0.0
  9
$UCSORGBOTTOM
 10
0.0
 20
0.0
 30
0.0
  9
$UCSORGLEFT
 10
0.0
 20
0.0
 30
0.0
  9
$UCSORGRIGHT
 10
0.0
 20
0.0
 30
0.0
  9
$UCSORGFRONT
 10
0.0
 20
0.0
 30
0.0
  9
$UCSORGBACK
 10
0.0
 20
0.0
 30
0.0
  9
$PUCSBASE
  2

  9
$PUCSNAME
  2

  9
$PUCSORG
 10
0.0
 20
0.0
 30
0.0
  9
$PUCSXDIR
 10
1.0
 20
0.0
 30
0.0
  9
$PUCSYDIR
 10
0.0
 20
1.0
 30
0.0
  9
$PUCSORTHOREF
  2

  9
$PUCSORTHOVIEW
 70
     0
  9
$PUCSORGTOP
 10
0.0
 20
0.0
 30
0.0
  9
$PUCSORGBOTTOM
 10
0.0
 20
0.0
 30
0.0
  9
$PUCSORGLEFT
 10
0.0
 20
0.0
 30
0.0
  9
$PUCSORGRIGHT
 10
0.0
 20
0.0
 30
0.0
  9
$PUCSORGFRONT
 10
0.0
 20
0.0
 30
0.0
  9
$PUCSORGBACK
 10
0.0
 20
0.0
 30
0.0
  9
$USERI1
 70
     0
  9
$USERI2
 70
     0
  9
$USERI3
 70
     0
  9
$USERI4
 70
     0
  9
$USERI5
 70
     0
  9
$USERR1
 40
0.0
  9
$USERR2
 40
0.0
  9
$USERR3
 40
0.0
  9
$USERR4
 40
0.0
  9
$USERR5
 40
0.0
  9
$WORLDVIEW
 70
     1
  9
$SHADEDGE
 70
     3
  9
$SHADEDIF
 70
    70
  9
$TILEMODE
 70
     1
  9
$MAXACTVP
 70
    64
  9
$PINSBASE
 10
0.0
 20
0.0
 30
0.0
  9
$PLIMCHECK
 70
     0
  9
$PEXTMIN
 10
0.0
 20
0.0
 30
0.0
  9
$PEXTMAX
 10
0.0
 20
0.0
 30
0.0
  9
$PLIMMIN
 10
0.0
 20
0.0
  9
$PLIMMAX
 10
12.0
 20
9.0
  9
$UNITMODE
 70
     0
  9
$VISRETAIN
 70
     1
  9
$PLINEGEN
 70
     0
  9
$PSLTSCALE
 70
     1
  9
$TREEDEPTH
 70
  3020
  9
$CMLSTYLE
  2
Standard
  9
$CMLJUST
 70
     0
  9
$CMLSCALE
 40
1.0
  9
$PROXYGRAPHICS
 70
     1
  9
$MEASUREMENT
 70
     0
  9
$CELWEIGHT
370
    -1
  9
$ENDCAPS
280
     0
  9
$JOINSTYLE
280
     0
  9
$LWDISPLAY
290
     0
  9
$INSUNITS
 70
     1
  9
$HYPERLINKBASE
  1

  9
$STYLESHEET
  1
monochrome.ctb
  9
$XEDIT
290
     1
  9
$CEPSNTYPE
380
     0
  9
$PSTYLEMODE
290
     1
  9
$FINGERPRINTGUID
  2
{358EB121-6EE0-9143-8A3E-6E8E8869FDA6}
  9
$VERSIONGUID
  2
{241C4265-6ED3-4443-8028-90B70F1D5506}
  9
$EXTNAMES
290
     1
  9
$PSVPSCALE
 40
0.0
  9
$OLESTARTUP
290
     0
  9
$SORTENTS
280
   127
  9
$INDEXCTL
280
     0
  9
$HIDETEXT
280
     1
  9
$XCLIPFRAME
280
     2
  9
$HALOGAP
280
     0
  9
$OBSCOLOR
 70
   257
  9
$OBSLTYPE
280
     0
  9
$INTERSECTIONDISPLAY
280
     0
  9
$INTERSECTIONCOLOR
 70
   257
  9
$DIMASSOC
280
     2
  9
$PROJECTNAME
  1

  9
$CAMERADISPLAY
290
     0
  9
$LENSLENGTH
 40
50.0
  9
$CAMERAHEIGHT
 40
0.0
  9
$STEPSPERSEC
 40
2.0
  9
$STEPSIZE
 40
6.0
  9
$3DDWFPREC
 40
2.0
  9
$PSOLWIDTH
 40
0.25
  9
$PSOLHEIGHT
 40
4.0
  9
$LOFTANG1
 40
1.570796326794896
  9
$LOFTANG2
 40
1.570796326794896
  9
$LOFTMAG1
 40
0.0
  9
$LOFTMAG2
 40
0.0
  9
$LOFTPARAM
 70
     7
  9
$LOFTNORMALS
280
     1
  9
$LATITUDE
 40
37.795
  9
$LONGITUDE
 40
-122.394
  9
$NORTHDIRECTION
 40
0.0
  9
$TIMEZONE
 70
 -8000
  9
$LIGHTGLYPHDISPLAY
280
     1
  9
$TILEMODELIGHTSYNCH
280
     1
  9
$CMATERIAL
347
96
  9
$SOLIDHIST
280
     0
  9
$SHOWHIST
280
     1
  9
$DWFFRAME
280
     2
  9
$DGNFRAME
280
     0
  9
$REALWORLDSCALE
290
     1
  9
$INTERFERECOLOR
 62
     1
  9
$INTERFEREOBJVS
345
A3
  9
$INTERFEREVPVS
346
A0
  9
$CSHADOW
280
     0
  9
$SHADOWPLANELOCATION
 40
0.0
  0
ENDSEC
  0
SECTION
  2
CLASSES
  0
CLASS
  1
ACDBDICTIONARYWDFLT
  2
AcDbDictionaryWithDefault
  3
ObjectDBX Classes
 90
        0
 91
        1
280
     0
281
     0
  0
CLASS
  1
DICTIONARYVAR
  2
AcDbDictionaryVar
  3
ObjectDBX Classes
 90
        0
 91
        9
280
     0
281
     0
  0
CLASS
  1
TABLESTYLE
  2
AcDbTableStyle
  3
ObjectDBX Classes
 90
     4095
 91
        1
280
     0
281
     0
  0
CLASS
  1
MATERIAL
  2
AcDbMaterial
  3
ObjectDBX Classes
 90
     1153
 91
        3
280
     0
281
     0
  0
CLASS
  1
VISUALSTYLE
  2
AcDbVisualStyle
  3
ObjectDBX Classes
 90
     4095
 91
       25
280
     0
281
     0
  0
CLASS
  1
SCALE
  2
AcDbScale
  3
ObjectDBX Classes
 90
     1153
 91
       35
280
     0
281
     0
  0
CLASS
  1
MLEADERSTYLE
  2
AcDbMLeaderStyle
  3
ACDB_MLEADERSTYLE_CLASS
 90
     4095
 91
        1
280
     0
281
     0
  0
CLASS
  1
CELLSTYLEMAP
  2
AcDbCellStyleMap
  3
ObjectDBX Classes
 90
     1152
 91
        1
280
     0
281
     0
  0
CLASS
  1
EXACXREFPANELOBJECT
  2
ExAcXREFPanelObject
  3
EXAC_ESW
 90
     1025
 91
        0
280
     0
281
     0
  0
CLASS
  1
NPOCOLLECTION
  2
AcDbImpNonPersistentObjectsCollection
  3
ObjectDBX Classes
 90
     1153
 91
        0
280
     0
281
     0
  0
CLASS
  1
LAYER_INDEX
  2
AcDbLayerIndex
  3
ObjectDBX Classes
 90
        0
 91
        0
280
     0
281
     0
  0
CLASS
  1
SPATIAL_INDEX
  2
AcDbSpatialIndex
  3
ObjectDBX Classes
 90
        0
 91
        0
280
     0
281
     0
  0
CLASS
  1
IDBUFFER
  2
AcDbIdBuffer
  3
ObjectDBX Classes
 90
        0
 91
        0
280
     0
281
     0
  0
CLASS
  1
ACDBSECTIONVIEWSTYLE
  2
AcDbSectionViewStyle
  3
ObjectDBX Classes
 90
     1025
 91
        2
280
     0
281
     0
  0
CLASS
  1
ACDBDETAILVIEWSTYLE
  2
AcDbDetailViewStyle
  3
ObjectDBX Classes
 90
     1025
 91
        2
280
     0
281
     0
  0
CLASS
  1
SORTENTSTABLE
  2
AcDbSortentsTable
  3
ObjectDBX Classes
 90
        0
 91
        1
280
     0
281
     0
  0
CLASS
  1
SPATIAL_FILTER
  2
AcDbSpatialFilter
  3
ObjectDBX Classes
 90
        0
 91
        0
280
     0
281
     0
  0
CLASS
  1
SOLID_BACKGROUND
  2
AcDbSolidBackground
  3
SCENEOE
 90
     4095
 91
        0
280
     0
281
     0
  0
ENDSEC
  0
SECTION
  2
TABLES
  0
TABLE
  2
VPORT
  5
8
330
0
100
AcDbSymbolTable
 70
     1
  0
VPORT
  5
94
330
8
100
AcDbSymbolTableRecord
100
AcDbViewportTableRecord
  2
*Active
 70
     0
 10
0.0
 20
0.0
 11
1.0
 21
1.0
 12
10991.29849282934
 22
29937.90632330401
 13
0.0
 23
0.0
 14
0.5
 24
0.5
 15
0.5
 25
0.5
 16
0.0
 26
0.0
 36
1.0
 17
0.0
 27
0.0
 37
0.0
 40
192.5566081768612
 41
2.066284779050736
 42
50.0
 43
0.0
 44
0.0
 50
0.0
 51
0.0
 71
     0
 72
  1000
 73
     1
 74
     3
 75
     0
 76
     0
 77
     0
 78
     0
281
     0
 65
     1
110
0.0
120
0.0
130
0.0
111
1.0
121
0.0
131
0.0
112
0.0
122
1.0
132
0.0
 79
     0
146
0.0
348
9F
 60
     3
 61
     5
292
     1
282
     1
141
0.0
142
0.0
 63
   250
421
  3355443
1001
ACAD_NAV_VCDISPLAY
1070
     3
  0
ENDTAB
  0
TABLE
  2
LTYPE
  5
5
330
0
100
AcDbSymbolTable
 70
     1
  0
LTYPE
  5
14
330
5
100
AcDbSymbolTableRecord
100
AcDbLinetypeTableRecord
  2
ByBlock
 70
     0
  3

 72
    65
 73
     0
 40
0.0
  0
LTYPE
  5
15
330
5
100
AcDbSymbolTableRecord
100
AcDbLinetypeTableRecord
  2
ByLayer
 70
     0
  3

 72
    65
 73
     0
 40
0.0
  0
LTYPE
  5
16
330
5
100
AcDbSymbolTableRecord
100
AcDbLinetypeTableRecord
  2
Continuous
 70
     0
  3
Solid line
 72
    65
 73
     0
 40
0.0
  0
ENDTAB
  0
TABLE
  2
LAYER
  5
2
102
{ACAD_XDICTIONARY
360
18E
102
}
330
0
100
AcDbSymbolTable
 70
     2
  0
LAYER
  5
10
102
{ACAD_XDICTIONARY
360
E6
102
}
330
2
100
AcDbSymbolTableRecord
100
AcDbLayerTableRecord
  2
0
 70
     0
 62
     7
  6
Continuous
370
    -3
390
F
347
98
348
0
  0
LAYER
  5
204
330
2
100
AcDbSymbolTableRecord
100
AcDbLayerTableRecord
  2
freecads.com
 70
     0
 62
     7
  6
Continuous
370
    -3
390
F
347
98
348
0
1001
AcAecLayerStandard
1000

1000

1001
AcCmTransparency
1071
        0
  0
ENDTAB
  0
TABLE
  2
STYLE
  5
3
330
0
100
AcDbSymbolTable
 70
     1
  0
STYLE
  5
11
330
3
100
AcDbSymbolTableRecord
100
AcDbTextStyleTableRecord
  2
Standard
 70
     0
 40
0.0
 41
1.0
 50
0.0
 71
     0
 42
0.2
  3
arial.ttf
  4

1001
ACAD
1000
Arial
1071
       34
  0
ENDTAB
  0
TABLE
  2
VIEW
  5
6
330
0
100
AcDbSymbolTable
 70
     0
  0
ENDTAB
  0
TABLE
  2
UCS
  5
7
330
0
100
AcDbSymbolTable
 70
     0
  0
ENDTAB
  0
TABLE
  2
APPID
  5
9
330
0
100
AcDbSymbolTable
 70
    23
  0
APPID
  5
12
330
9
100
AcDbSymbolTableRecord
100
AcDbRegAppTableRecord
  2
ACAD
 70
     0
  0
APPID
  5
DD
330
9
100
AcDbSymbolTableRecord
100
AcDbRegAppTableRecord
  2
AcadAnnoPO
 70
     0
  0
APPID
  5
DE
330
9
100
AcDbSymbolTableRecord
100
AcDbRegAppTableRecord
  2
AcadAnnotative
 70
     0
  0
APPID
  5
DF
330
9
100
AcDbSymbolTableRecord
100
AcDbRegAppTableRecord
  2
ACAD_DSTYLE_DIMJAG
 70
     0
  0
APPID
  5
E0
330
9
100
AcDbSymbolTableRecord
100
AcDbRegAppTableRecord
  2
ACAD_DSTYLE_DIMTALN
 70
     0
  0
APPID
  5
107
330
9
100
AcDbSymbolTableRecord
100
AcDbRegAppTableRecord
  2
ACAD_MLEADERVER
 70
     0
  0
APPID
  5
1A6
330
9
100
AcDbSymbolTableRecord
100
AcDbRegAppTableRecord
  2
ACAD_NAV_VCDISPLAY
 70
     0
  0
APPID
  5
205
330
9
100
AcDbSymbolTableRecord
100
AcDbRegAppTableRecord
  2
AcAecLayerStandard
 70
     0
  0
APPID
  5
206
330
9
100
AcDbSymbolTableRecord
100
AcDbRegAppTableRecord
  2
AcCmTransparency
 70
     0
  0
APPID
  5
222
330
9
100
AcDbSymbolTableRecord
100
AcDbRegAppTableRecord
  2
ACAD_PSEXT
 70
     0
  0
APPID
  5
2DA
330
9
100
AcDbSymbolTableRecord
100
AcDbRegAppTableRecord
  2
GradientColor1ACI
 70
     0
  0
APPID
  5
2DB
330
9
100
AcDbSymbolTableRecord
100
AcDbRegAppTableRecord
  2
GradientColor2ACI
 70
     0
  0
APPID
  5
2F3
330
9
100
AcDbSymbolTableRecord
100
AcDbRegAppTableRecord
  2
ACAD_EXEMPT_FROM_CAD_STANDARDS
 70
     0
  0
APPID
  5
A1A
330
9
100
AcDbSymbolTableRecord
100
AcDbRegAppTableRecord
  2
AcDbBlockRepETag
 70
     0
  0
APPID
  5
228C
330
9
100
AcDbSymbolTableRecord
100
AcDbRegAppTableRecord
  2
RAK
 70
     0
  0
APPID
  5
2683
330
9
100
AcDbSymbolTableRecord
100
AcDbRegAppTableRecord
  2
ACAD_DSTYLE_DIMJOGGED_JOGANGLE_SYMBOL
 70
     0
  0
APPID
  5
47CF
330
9
100
AcDbSymbolTableRecord
100
AcDbRegAppTableRecord
  2
ACAD_DSTYLE_DIMBREAK
 70
     0
  0
APPID
  5
47D0
330
9
100
AcDbSymbolTableRecord
100
AcDbRegAppTableRecord
  2
AcDbDynamicBlockGUID
 70
     0
  0
APPID
  5
8BD5
330
9
100
AcDbSymbolTableRecord
100
AcDbRegAppTableRecord
  2
AcLayerTools
 70
     0
  0
APPID
  5
92D9
330
9
100
AcDbSymbolTableRecord
100
AcDbRegAppTableRecord
  2
AutoGrph01
 70
     0
  0
APPID
  5
92DA
330
9
100
AcDbSymbolTableRecord
100
AcDbRegAppTableRecord
  2
AutoGrphVars
 70
     0
  0
APPID
  5
92DB
330
9
100
AcDbSymbolTableRecord
100
AcDbRegAppTableRecord
  2
AutoGrphZ
 70
     0
  0
APPID
  5
92DC
330
9
100
AcDbSymbolTableRecord
100
AcDbRegAppTableRecord
  2
AutoGrph05
 70
     0
  0
ENDTAB
  0
TABLE
  2
DIMSTYLE
  5
A
330
0
100
AcDbSymbolTable
 70
     1
100
AcDbDimStyleTable
 71
     1
340
27
  0
DIMSTYLE
105
27
330
A
100
AcDbSymbolTableRecord
100
AcDbDimStyleTableRecord
  2
Standard
 70
     0
340
11
  0
ENDTAB
  0
TABLE
  2
BLOCK_RECORD
  5
1
330
0
100
AcDbSymbolTable
 70
     1
  0
BLOCK_RECORD
  5
1F
102
{ACAD_XDICTIONARY
360
15D
102
}
330
1
100
AcDbSymbolTableRecord
100
AcDbBlockTableRecord
  2
*Model_Space
340
22
 70
     0
280
     1
281
     0
  0
BLOCK_RECORD
  5
58
330
1
100
AcDbSymbolTableRecord
100
AcDbBlockTableRecord
  2
*Paper_Space
340
59
 70
     0
280
     1
281
     0
  0
BLOCK_RECORD
  5
5D
330
1
100
AcDbSymbolTableRecord
100
AcDbBlockTableRecord
  2
*Paper_Space0
340
5E
 70
     0
280
     1
281
     0
  0
ENDTAB
  0
ENDSEC
  0
SECTION
  2
BLOCKS
  0
BLOCK
  5
20
330
1F
100
AcDbEntity
  8
0
100
AcDbBlockBegin
  2
*Model_Space
 70
     0
 10
0.0
 20
0.0
 30
0.0
  3
*Model_Space
  1

  0
ENDBLK
  5
21
330
1F
100
AcDbEntity
  8
0
100
AcDbBlockEnd
  0
BLOCK
  5
5A
330
58
100
AcDbEntity
 67
     1
  8
0
100
AcDbBlockBegin
  2
*Paper_Space
 70
     0
 10
0.0
 20
0.0
 30
0.0
  3
*Paper_Space
  1

  0
ENDBLK
  5
5B
330
58
100
AcDbEntity
 67
     1
  8
0
100
AcDbBlockEnd
  0
BLOCK
  5
5F
330
5D
100
AcDbEntity
 67
     1
  8
0
100
AcDbBlockBegin
  2
*Paper_Space0
 70
     0
 10
0.0
 20
0.0
 30
0.0
  3
*Paper_Space0
  1

  0
ENDBLK
  5
60
330
5D
100
AcDbEntity
 67
     1
  8
0
100
AcDbBlockEnd
  0
ENDSEC
  0
SECTION
  2
ENTITIES
  0
ARC
  5
D8F7
330
1F
100
AcDbEntity
  8
freecads.com
100
AcDbCircle
 10
10921.18470060625
 20
30002.86100293342
 30
0.0
 40
5.436124003482625
100
AcDbArc
 50
110.3006957272884
 51
141.1685952025571
  0
ARC
  5
D8F8
330
1F
100
AcDbEntity
  8
freecads.com
100
AcDbCircle
 10
10930.81267734275
 20
29995.11121722662
 30
0.0
 40
17.79561891791788
100
AcDbArc
 50
141.1685924587834
 51
153.931196359724
  0
ARC
  5
D8F9
330
1F
100
AcDbEntity
  8
freecads.com
100
AcDbCircle
 10
10948.61716451808
 20
29986.40085327939
 30
0.0
 40
37.61657256975795
100
AcDbArc
 50
153.9311235405517
 51
162.4429648288127
  0
ARC
  5
D8FA
330
1F
100
AcDbEntity
  8
freecads.com
100
AcDbCircle
 10
11058.31657345218
 20
29951.69249088829
 30
0.0
 40
152.6758213955544
100
AcDbArc
 50
162.4429013354766
 51
165.4482364706538
  0
ARC
  5
D8FB
330
1F
100
AcDbEntity
  8
freecads.com
100
AcDbCircle
 10
10668.26427872476
 20
30052.9429693595
 30
0.0
 40
250.303647079922
100
AcDbArc
 50
344.0030160477307
 51
345.4482256336422
  0
ARC
  5
D8FC
330
1F
100
AcDbEntity
  8
freecads.com
100
AcDbCircle
 10
10887.26799987876
 20
29990.15711574839
 30
0.0
 40
22.47763168008157
100
AcDbArc
 50
335.5424981710068
 51
344.0030727958584
  0
ARC
  5
D8FD
330
1F
100
AcDbEntity
  8
freecads.com
100
AcDbCircle
 10
10900.56671227617
 20
29984.10843825297
 30
0.0
 40
7.867968751994697
100
AcDbArc
 50
319.1446169676241
 51
335.542589648568
  0
ARC
  5
D8FE
330
1F
100
AcDbEntity
  8
freecads.com
100
AcDbCircle
 10
10901.47777057162
 20
29983.3204865445
 30
0.0
 40
6.663437676207981
100
AcDbArc
 50
300.5709659039193
 51
319.1446768698793
  0
ARC
  5
D8FF
330
1F
100
AcDbEntity
  8
freecads.com
100
AcDbCircle
 10
10909.33983510918
 20
29970.01107170736
 30
0.0
 40
8.794653476961489
100
AcDbArc
 50
120.5709609304574
 51
140.9887816915646
  0
ARC
  5
D900
330
1F
100
AcDbEntity
  8
freecads.com
100
AcDbCircle
 10
10911.6736727109
 20
29968.12039704027
 30
0.0
 40
11.79822612431134
100
AcDbArc
 50
140.9887306955013
 51
157.3707424673604
  0
ARC
  5
D901
330
1F
100
AcDbEntity
  8
freecads.com
100
AcDbCircle
 10
10920.35828025446
 20
29964.50010520771
 30
0.0
 40
21.20720700100906
100
AcDbArc
 50
157.3706566980617
 51
169.0168750883028
  0
ARC
  5
D902
330
1F
100
AcDbEntity
  8
freecads.com
100
AcDbCircle
 10
10975.18950997822
 20
29953.85861109568
 30
0.0
 40
77.06152778240209
100
AcDbArc
 50
169.0167720566477
 51
173.4756544931108
  0
ARC
  5
D903
330
1F
100
AcDbEntity
  8
freecads.com
100
AcDbCircle
 10
10984.34608646366
 20
29952.81137923279
 30
0.0
 40
86.27779532992539
100
AcDbArc
 50
173.4756344757241
 51
179.5782549095748
  0
ARC
  5
D904
330
1F
100
AcDbEntity
  8
freecads.com
100
AcDbCircle
 10
11773.37676744566
 20
29947.00381564254
 30
0.0
 40
875.3298489523389
100
AcDbArc
 50
179.5782856891989
 51
180.691877696072
  0
ARC
  5
D905
330
1F
100
AcDbEntity
  8
freecads.com
100
AcDbCircle
 10
13273.11308308636
 20
29965.11511823053
 30
0.0
 40
2375.175519590804
100
AcDbArc
 50
180.6918847074901
 51
181.1287072015764
  0
ARC
  5
D906
330
1F
100
AcDbEntity
  8
freecads.com
100
AcDbCircle
 10
10905.36851036744
 20
29918.46533473644
 30
0.0
 40
6.971439715099078
100
AcDbArc
 50
181.1287652861311
 51
207.7596548731591
  0
ARC
  5
D907
330
1F
100
AcDbEntity
  8
freecads.com
100
AcDbCircle
 10
10886.41586110317
 20
29908.48976293496
 30
0.0
 40
14.44619196772486
100
AcDbArc
 50
24.53098668832922
 51
27.75973401460194
  0
ARC
  5
D908
330
1F
100
AcDbEntity
  8
freecads.com
100
AcDbCircle
 10
10874.92889677837
 20
29903.24732617627
 30
0.0
 40
27.07288957905738
100
AcDbArc
 50
22.51335120487417
 51
24.53102724703294
  0
ARC
  5
D909
330
1F
100
AcDbEntity
  8
freecads.com
100
AcDbCircle
 10
10875.3442150747
 20
29903.41948918951
 30
0.0
 40
26.62330155643618
100
AcDbArc
 50
20.48876213567016
 51
22.51331313661791
  0
ARC
  5
D90A
330
1F
100
AcDbEntity
  8
freecads.com
100
AcDbCircle
 10
10888.88557786436
 20
29908.47937392004
 30
0.0
 40
12.16747436851038
100
AcDbArc
 50
16.85306078149009
 51
20.4887459379789
  0
ARC
  5
D90B
330
1F
100
AcDbEntity
  8
freecads.com
100
AcDbCircle
 10
10901.99312189072
 20
29912.45002010137
 30
0.0
 40
1.528281963302466
100
AcDbArc
 50
196.8529320534955
 51
226.2497671547591
  0
ARC
  5
D90C
330
1F
100
AcDbEntity
  8
freecads.com
100
AcDbCircle
 10
10904.52177119564
 20
29915.09145297569
 30
0.0
 40
5.184951887817908
100
AcDbArc
 50
226.2497124377493
 51
238.0883968662109
  0
ARC
  5
D90D
330
1F
100
AcDbEntity
  8
freecads.com
100
AcDbCircle
 10
10905.29235554936
 20
29916.32888045824
 30
0.0
 40
6.642699129540851
100
AcDbArc
 50
238.088354011658
 51
248.768570679545
  0
ARC
  5
D90E
330
1F
100
AcDbEntity
  8
freecads.com
100
AcDbCircle
 10
10905.54070299197
 20
29916.96811011209
 30
0.0
 40
7.328476792193907
100
AcDbArc
 50
248.7685479832981
 51
258.6900996310183
  0
LINE
  5
D90F
330
1F
100
AcDbEntity
  8
freecads.com
100
AcDbLine
 10
10904.10347447372
 20
29909.78194658207
 30
0.0
 11
10907.18942247372
 21
29909.16475658208
 31
0.0
  0
LINE
  5
D910
330
1F
100
AcDbEntity
  8
freecads.com
100
AcDbLine
 10
10907.18942247372
 20
29909.16475658208
 30
0.0
 11
10907.39892147372
 21
29901.38975658208
 31
0.0
  0
ARC
  5
D911
330
1F
100
AcDbEntity
  8
freecads.com
100
AcDbCircle
 10
10610.46728802574
 20
29893.3889224611
 30
0.0
 40
297.0394052793667
100
AcDbArc
 50
0.9196285807056378
 51
1.543463487286461
  0
ARC
  5
D912
330
1F
100
AcDbEntity
  8
freecads.com
100
AcDbCircle
 10
10590.9349389446
 20
29893.07551562256
 30
0.0
 40
316.5742685872837
100
AcDbArc
 50
0.3248771100952748
 51
0.9196059665491784
  0
ARC
  5
D913
330
1F
100
AcDbEntity
  8
freecads.com
100
AcDbCircle
 10
10625.32566189456
 20
29893.27096251394
 30
0.0
 40
282.1829902701368
100
AcDbArc
 50
359.7353294065961
 51
0.324787086388445
  0
ARC
  5
D914
330
1F
100
AcDbEntity
  8
freecads.com
100
AcDbCircle
 10
10857.34502285429
 20
29892.19928525211
 30
0.0
 40
50.16115433170392
100
AcDbArc
 50
357.6182944797965
 51
359.7351987363537
  0
ARC
  5
D915
330
1F
100
AcDbEntity
  8
freecads.com
100
AcDbCircle
 10
11158.44936167212
 20
29879.67529100428
 30
0.0
 40
251.2035305384071
100
AcDbArc
 50
177.6182276597249
 51
178.0930944007495
  0
ARC
  5
D916
330
1F
100
AcDbEntity
  8
freecads.com
100
AcDbCircle
 10
14358.23139572286
 20
29773.13985631191
 30
0.0
 40
3452.75860023169
100
AcDbArc
 50
178.0930670166789
 51
178.1629678654065
  0
ARC
  5
D917
330
1F
100
AcDbEntity
  8
freecads.com
100
AcDbCircle
 10
14523.1099707985
 20
29767.85309262758
 30
0.0
 40
3617.721912478031
100
AcDbArc
 50
178.1629904718013
 51
178.2418294613134
  0
ARC
  5
D918
330
1F
100
AcDbEntity
  8
freecads.com
100
AcDbCircle
 10
15327.48499864262
 20
29743.16496526787
 30
0.0
 40
4422.475718959474
100
AcDbArc
 50
178.2418626920052
 51
178.3097008929087
  0
ARC
  5
D919
330
1F
100
AcDbEntity
  8
freecads.com
100
AcDbCircle
 10
10585.13176405461
 20
29883.11130902877
 30
0.0
 40
321.9419671997182
100
AcDbArc
 50
357.3441174600138
 51
358.3096602238318
  0
ARC
  5
D91A
330
1F
100
AcDbEntity
  8
freecads.com
100
AcDbCircle
 10
10555.20170359611
 20
29884.49981791718
 30
0.0
 40
351.9042180491548
100
AcDbArc
 50
356.44088878247
 51
357.3440947745851
  0
ARC
  5
D91B
330
1F
100
AcDbEntity
  8
freecads.com
100
AcDbCircle
 10
10593.40873786338
 20
29882.12324738507
 30
0.0
 40
313.623340904485
100
AcDbArc
 50
355.5411497676031
 51
356.4409180663168
  0
ARC
  5
D91C
330
1F
100
AcDbEntity
  8
freecads.com
100
AcDbCircle
 10
10846.72055224805
 20
29862.37018816333
 30
0.0
 40
59.54252963479291
100
AcDbArc
 50
352.4604572702766
 51
355.5411803584157
  0
ARC
  5
D91D
330
1F
100
AcDbEntity
  8
freecads.com
100
AcDbCircle
 10
10981.52571454322
 20
29844.52804450037
 30
0.0
 40
76.43825530160665
100
AcDbArc
 50
172.4604198812444
 51
174.9813325062775
  0
ARC
  5
D91E
330
1F
100
AcDbEntity
  8
freecads.com
100
AcDbCircle
 10
10914.63607382897
 20
29850.40208373493
 30
0.0
 40
9.291190050698027
100
AcDbArc
 50
174.9812911290994
 51
186.8796320774156
  0
ARC
  5
D91F
330
1F
100
AcDbEntity
  8
freecads.com
100
AcDbCircle
 10
10909.36905839268
 20
29849.76660601865
 30
0.0
 40
3.985977186538937
100
AcDbArc
 50
186.8796533561096
 51
207.186740687363
  0
ARC
  5
D920
330
1F
100
AcDbEntity
  8
freecads.com
100
AcDbCircle
 10
10910.04612825983
 20
29850.11437710927
 30
0.0
 40
4.747139676730911
100
AcDbArc
 50
207.1867674407036
 51
225.000048997054
  0
ARC
  5
D921
330
1F
100
AcDbEntity
  8
freecads.com
100
AcDbCircle
 10
10910.29000868064
 20
29850.35825801123
 30
0.0
 40
5.092039015662402
100
AcDbArc
 50
225.0000495064336
 51
236.462472624204
  0
ARC
  5
D922
330
1F
100
AcDbEntity
  8
freecads.com
100
AcDbCircle
 10
10910.6314753668
 20
29850.87343796683
 30
0.0
 40
5.710108497478697
100
AcDbArc
 50
236.4625475197421
 51
246.9813067584429
  0
ARC
  5
D923
330
1F
100
AcDbEntity
  8
freecads.com
100
AcDbCircle
 10
10910.31185229839
 20
29850.12114728793
 30
0.0
 40
4.892734549160682
100
AcDbArc
 50
246.981359742693
 51
258.1941268867357
  0
ARC
  5
D924
330
1F
100
AcDbEntity
  8
freecads.com
100
AcDbCircle
 10
10909.70243335435
 20
29847.20551232705
 30
0.0
 40
1.914090784878874
100
AcDbArc
 50
258.1941019198644
 51
280.7909273341736
  0
ARC
  5
D925
330
1F
100
AcDbEntity
  8
freecads.com
100
AcDbCircle
 10
10909.83078956783
 20
29846.53205109393
 30
0.0
 40
1.228506836676198
100
AcDbArc
 50
280.791058778686
 51
332.2641810633359
  0
ARC
  5
D926
330
1F
100
AcDbEntity
  8
freecads.com
100
AcDbCircle
 10
10905.58987084405
 20
29848.76197041581
 30
0.0
 40
6.01995043998614
100
AcDbArc
 50
332.2641467301961
 51
348.1328172496354
  0
ARC
  5
D927
330
1F
100
AcDbEntity
  8
freecads.com
100
AcDbCircle
 10
10889.85775618323
 20
29852.06780133088
 30
0.0
 40
22.0956448181495
100
AcDbArc
 50
348.1329079418949
 51
355.5487470263092
  0
ARC
  5
D928
330
1F
100
AcDbEntity
  8
freecads.com
100
AcDbCircle
 10
10678.22233760095
 20
29868.54277683952
 30
0.0
 40
234.3713504853508
100
AcDbArc
 50
355.5487303014352
 51
356.8598726153272
  0
ARC
  5
D929
330
1F
100
AcDbEntity
  8
freecads.com
100
AcDbCircle
 10
11024.41279590659
 20
29849.55074495431
 30
0.0
 40
112.3396685161307
100
AcDbArc
 50
174.1339442584724
 51
176.8599488841168
  0
ARC
  5
D92A
330
1F
100
AcDbEntity
  8
freecads.com
100
AcDbCircle
 10
10959.30623183295
 20
29856.2399446396
 30
0.0
 40
46.89037457118604
100
AcDbArc
 50
168.8976505167215
 51
174.134031753808
  0
ARC
  5
D92B
330
1F
100
AcDbEntity
  8
freecads.com
100
AcDbCircle
 10
10952.85281252467
 20
29857.50639790302
 30
0.0
 40
40.31386146531281
100
AcDbArc
 50
163.1753155386892
 51
168.8977452322658
  0
ARC
  5
D92C
330
1F
100
AcDbEntity
  8
freecads.com
100
AcDbCircle
 10
10975.03217408687
 20
29850.79966669683
 30
0.0
 40
63.48505743741953
100
AcDbArc
 50
159.1031952387249
 51
163.1753506571873
  0
ARC
  5
D92D
330
1F
100
AcDbEntity
  8
freecads.com
100
AcDbCircle
 10
10974.36294415668
 20
29851.05514285948
 30
0.0
 40
62.76872178421118
100
AcDbArc
 50
156.2016328519595
 51
159.1031652768263
  0
ARC
  5
D92E
330
1F
100
AcDbEntity
  8
freecads.com
100
AcDbCircle
 10
10949.56654515357
 20
29861.99074028452
 30
0.0
 40
35.66800787192121
100
AcDbArc
 50
151.7712794835874
 51
156.2015248032789
  0
ARC
  5
D92F
330
1F
100
AcDbEntity
  8
freecads.com
100
AcDbCircle
 10
10951.8179759632
 20
29860.78208780275
 30
0.0
 40
38.22335158896077
100
AcDbArc
 50
148.4527206847699
 51
151.7712894630968
  0
ARC
  5
D930
330
1F
100
AcDbEntity
  8
freecads.com
100
AcDbCircle
 10
10919.84092347599
 20
29880.41396440157
 30
0.0
 40
0.7007921805067255
100
AcDbArc
 50
90.000000185825
 51
148.4526887928359
  0
ARC
  5
D931
330
1F
100
AcDbEntity
  8
freecads.com
100
AcDbCircle
 10
10919.84092270273
 20
29879.82257710303
 30
0.0
 40
1.292179479051813
100
AcDbArc
 50
8.200237333153268
 51
89.99996581361921
  0
ARC
  5
D932
330
1F
100
AcDbEntity
  8
freecads.com
100
AcDbCircle
 10
10839.13099688676
 20
29868.19176615827
 30
0.0
 40
82.83583581386643
100
AcDbArc
 50
4.016271155824571
 51
8.200231652372748
  0
ARC
  5
D933
330
1F
100
AcDbEntity
  8
freecads.com
100
AcDbCircle
 10
10855.23214683428
 20
29869.32222611661
 30
0.0
 40
66.69504991762995
100
AcDbArc
 50
358.1049189396233
 51
4.016302918919837
  0
ARC
  5
D934
330
1F
100
AcDbEntity
  8
freecads.com
100
AcDbCircle
 10
10871.29566584485
 20
29868.79068328006
 30
0.0
 40
50.62273892052369
100
AcDbArc
 50
350.8361115311497
 51
358.1049660227701
  0
ARC
  5
D935
330
1F
100
AcDbEntity
  8
freecads.com
100
AcDbCircle
 10
10989.11004683997
 20
29849.78514286008
 30
0.0
 40
68.71476120378803
100
AcDbArc
 50
170.8361371431691
 51
174.6157116284735
  0
ARC
  5
D936
330
1F
100
AcDbEntity
  8
freecads.com
100
AcDbCircle
 10
10937.82508473321
 20
29854.61880080498
 30
0.0
 40
17.2025142384319
100
AcDbArc
 50
174.6156796124361
 51
185.1961872693457
  0
ARC
  5
D937
330
1F
100
AcDbEntity
  8
freecads.com
100
AcDbCircle
 10
10930.10098344419
 20
29853.9163704931
 30
0.0
 40
9.446539182638478
100
AcDbArc
 50
185.196185581549
 51
200.2366995893663
  0
ARC
  5
D938
330
1F
100
AcDbEntity
  8
freecads.com
100
AcDbCircle
 10
10928.26071353737
 20
29853.23794876045
 30
0.0
 40
7.485200512938591
100
AcDbArc
 50
200.2367310914749
 51
218.1443193849021
  0
ARC
  5
D939
330
1F
100
AcDbEntity
  8
freecads.com
100
AcDbCircle
 10
11083.90878456356
 20
29975.47640356523
 30
0.0
 40
205.3956899955119
100
AcDbArc
 50
218.144372344411
 51
219.5508514827416
  0
ARC
  5
D93A
330
1F
100
AcDbEntity
  8
freecads.com
100
AcDbCircle
 10
10944.38827563949
 20
29860.25643169438
 30
0.0
 40
24.44924949902099
100
AcDbArc
 50
219.5508253056065
 51
226.289387471004
  0
ARC
  5
D93B
330
1F
100
AcDbEntity
  8
freecads.com
100
AcDbCircle
 10
10933.30425312165
 20
29848.66196252832
 30
0.0
 40
8.409072741306301
100
AcDbArc
 50
226.2893758434891
 51
238.7816783791349
  0
ARC
  5
D93C
330
1F
100
AcDbEntity
  8
freecads.com
100
AcDbCircle
 10
10930.2193004532
 20
29843.57178000569
 30
0.0
 40
2.457023423612898
100
AcDbArc
 50
238.7817465926778
 51
269.9999771592621
  0
ARC
  5
D93D
330
1F
100
AcDbEntity
  8
freecads.com
100
AcDbCircle
 10
10930.21930053836
 20
29844.19164585332
 30
0.0
 40
3.076889271247594
100
AcDbArc
 50
269.999980174984
 51
302.2476475347843
  0
ARC
  5
D93E
330
1F
100
AcDbEntity
  8
freecads.com
100
AcDbCircle
 10
10931.18035356086
 20
29842.66833228915
 30
0.0
 40
1.275748763994142
100
AcDbArc
 50
302.2476025861509
 51
4.234079191443631
  0
ARC
  5
D93F
330
1F
100
AcDbEntity
  8
freecads.com
100
AcDbCircle
 10
10925.4897527736
 20
29842.24704249471
 30
0.0
 40
6.981922824690012
100
AcDbArc
 50
4.234038737729181
 51
24.13767622813089
  0
ARC
  5
D940
330
1F
100
AcDbEntity
  8
freecads.com
100
AcDbCircle
 10
10813.61482325909
 20
29792.11472923915
 30
0.0
 40
129.5757590736137
100
AcDbArc
 50
24.1376465613056
 51
26.51166956583545
  0
LINE
  5
D941
330
1F
100
AcDbEntity
  8
freecads.com
100
AcDbLine
 10
10929.56484447372
 20
29849.95476658207
 30
0.0
 11
10926.00515647372
 21
29857.09075358208
 31
0.0
  0
LINE
  5
D942
330
1F
100
AcDbEntity
  8
freecads.com
100
AcDbLine
 10
10926.00515647372
 20
29857.09075358208
 30
0.0
 11
10929.09728947372
 21
29867.94683658207
 31
0.0
  0
ARC
  5
D943
330
1F
100
AcDbEntity
  8
freecads.com
100
AcDbCircle
 10
10642.27791953699
 20
29949.64167724326
 30
0.0
 40
298.2270912602686
100
AcDbArc
 50
344.1014423417323
 51
344.9544579679876
  0
ARC
  5
D944
330
1F
100
AcDbEntity
  8
freecads.com
100
AcDbCircle
 10
10740.07497610591
 20
29923.35377431584
 30
0.0
 40
196.9585467172665
100
AcDbArc
 50
344.9544374349435
 51
346.1184484826154
  0
ARC
  5
D945
330
1F
100
AcDbEntity
  8
freecads.com
100
AcDbCircle
 10
10691.71152208899
 20
29935.30595249144
 30
0.0
 40
246.7769995995738
100
AcDbArc
 50
346.1184579224067
 51
346.8967607993696
  0
ARC
  5
D946
330
1F
100
AcDbEntity
  8
freecads.com
100
AcDbCircle
 10
10927.34260720811
 20
29880.45883937279
 30
0.0
 40
4.846815265612217
100
AcDbArc
 50
346.8967499578964
 51
359.9999788313744
  0
ARC
  5
D947
330
1F
100
AcDbEntity
  8
freecads.com
100
AcDbCircle
 10
10933.77195127235
 20
29880.45883689007
 30
0.0
 40
1.582528798628951
100
AcDbArc
 50
151.868933051595
 51
179.9999749460373
  0
ARC
  5
D948
330
1F
100
AcDbEntity
  8
freecads.com
100
AcDbCircle
 10
10933.51864180811
 20
29880.59426747572
 30
0.0
 40
1.295288257959579
100
AcDbArc
 50
119.1843657058669
 51
151.8689084167818
  0
ARC
  5
D949
330
1F
100
AcDbEntity
  8
freecads.com
100
AcDbCircle
 10
10934.12083920348
 20
29879.51607726938
 30
0.0
 40
2.530252153800668
100
AcDbArc
 50
97.57666936532904
 51
119.1844309038947
  0
ARC
  5
D94A
330
1F
100
AcDbEntity
  8
freecads.com
100
AcDbCircle
 10
10935.1542295871
 20
29871.74713416246
 30
0.0
 40
10.36762241962029
100
AcDbArc
 50
89.99995088883878
 51
97.57673338755591
  0
ARC
  5
D94B
330
1F
100
AcDbEntity
  8
freecads.com
100
AcDbCircle
 10
10935.15424427233
 20
29888.24203157805
 30
0.0
 40
6.127274995984422
100
AcDbArc
 50
269.9999457775569
 51
294.161049299041
  0
ARC
  5
D94C
330
1F
100
AcDbEntity
  8
freecads.com
100
AcDbCircle
 10
10936.28909757737
 20
29885.71227910107
 30
0.0
 40
3.354633724791676
100
AcDbArc
 50
294.1609876513677
 51
332.0705551938968
  0
ARC
  5
D94D
330
1F
100
AcDbEntity
  8
freecads.com
100
AcDbCircle
 10
10935.2542700031
 20
29886.26088114731
 30
0.0
 40
4.525886179881347
100
AcDbArc
 50
332.0704660514086
 51
3.506426529981967
  0
ARC
  5
D94E
330
1F
100
AcDbEntity
  8
freecads.com
100
AcDbCircle
 10
10927.32333596528
 20
29885.77490792426
 30
0.0
 40
12.47169543292823
100
AcDbArc
 50
3.506443115818034
 51
18.26442590260283
  0
ARC
  5
D94F
330
1F
100
AcDbEntity
  8
freecads.com
100
AcDbCircle
 10
10949.06734551746
 20
29892.95106767379
 30
0.0
 40
10.42588566543341
100
AcDbArc
 50
184.2773028739057
 51
198.2643748087006
  0
ARC
  5
D950
330
1F
100
AcDbEntity
  8
freecads.com
100
AcDbCircle
 10
11035.29318931585
 20
29899.40001845031
 30
0.0
 40
96.89255615101137
100
AcDbArc
 50
181.5606619269702
 51
184.277271369744
  0
ARC
  5
D951
330
1F
100
AcDbEntity
  8
freecads.com
100
AcDbCircle
 10
11092.82036525453
 20
29900.96738572514
 30
0.0
 40
154.4410801256027
100
AcDbArc
 50
179.2423300587032
 51
181.5606674018243
  0
ARC
  5
D952
330
1F
100
AcDbEntity
  8
freecads.com
100
AcDbCircle
 10
11426.29992893203
 20
29896.55699439169
 30
0.0
 40
487.9498070612383
100
AcDbArc
 50
178.2586521577418
 51
179.2423000604013
  0
ARC
  5
D953
330
1F
100
AcDbEntity
  8
freecads.com
100
AcDbCircle
 10
2876.349769484542
 20
30156.50481021861
 30
0.0
 40
8065.951092294788
100
AcDbArc
 50
358.2585419068654
 51
358.3094205582693
  0
ARC
  5
D954
330
1F
100
AcDbEntity
  8
freecads.com
100
AcDbCircle
 10
5689.219901338345
 20
30073.48712953147
 30
0.0
 40
5251.856155381051
100
AcDbArc
 50
358.3093828349042
 51
358.3795128668071
  0
ARC
  5
D955
330
1F
100
AcDbEntity
  8
freecads.com
100
AcDbCircle
 10
3862.289591036476
 20
30125.17417027756
 30
0.0
 40
7079.51747763859
100
AcDbArc
 50
358.3794927342093
 51
358.4232667092406
  0
ARC
  5
D956
330
1F
100
AcDbEntity
  8
freecads.com
100
AcDbCircle
 10
10829.98926224306
 20
29933.3803787802
 30
0.0
 40
109.178636047814
100
AcDbArc
 50
358.4232357004715
 51
359.2920647388848
  0
ARC
  5
D957
330
1F
100
AcDbEntity
  8
freecads.com
100
AcDbCircle
 10
10945.51387420785
 20
29931.95291735665
 30
0.0
 40
6.354794679980075
100
AcDbArc
 50
165.7958319808088
 51
179.2921581212513
  0
ARC
  5
D958
330
1F
100
AcDbEntity
  8
freecads.com
100
AcDbCircle
 10
10939.67781091699
 20
29933.43011979565
 30
0.0
 40
0.3346815763298785
100
AcDbArc
 50
55.1021136472589
 51
165.7957752374272
  0
ARC
  5
D959
330
1F
100
AcDbEntity
  8
freecads.com
100
AcDbCircle
 10
10938.98966114545
 20
29932.44359820949
 30
0.0
 40
1.537501158823879
100
AcDbArc
 50
14.69735087926906
 51
55.10220891432629
  0
ARC
  5
D95A
330
1F
100
AcDbEntity
  8
freecads.com
100
AcDbCircle
 10
10924.70791806064
 20
29928.69754970355
 30
0.0
 40
16.30236028274902
100
AcDbArc
 50
7.548042624049124
 51
14.69738186398101
  0
ARC
  5
D95B
330
1F
100
AcDbEntity
  8
freecads.com
100
AcDbCircle
 10
10973.98441341134
 20
29935.22694493007
 30
0.0
 40
33.4048423751296
100
AcDbArc
 50
187.5480125371323
 51
193.2633419770207
  0
ARC
  5
D95C
330
1F
100
AcDbEntity
  8
freecads.com
100
AcDbCircle
 10
10998.81603553018
 20
29941.08008549612
 30
0.0
 40
58.9169710894935
100
AcDbArc
 50
193.2633102121103
 51
197.0002680998566
  0
ARC
  5
D95D
330
1F
100
AcDbEntity
  8
freecads.com
100
AcDbCircle
 10
11026.7188053513
 20
29949.61109140502
 30
0.0
 40
88.09474731554972
100
AcDbArc
 50
197.0003491482374
 51
199.3365609313092
  0
ARC
  5
D95E
330
1F
100
AcDbEntity
  8
freecads.com
100
AcDbCircle
 10
10945.24894769748
 20
29921.02237762095
 30
0.0
 40
1.754419183437944
100
AcDbArc
 50
199.3365530195023
 51
238.2825841232666
  0
ARC
  5
D95F
330
1F
100
AcDbEntity
  8
freecads.com
100
AcDbCircle
 10
10943.93659504376
 20
29918.8989441309
 30
0.0
 40
0.7418258514939402
100
AcDbArc
 50
10.06359097676484
 51
58.28248018478344
  0
ARC
  5
D960
330
1F
100
AcDbEntity
  8
freecads.com
100
AcDbCircle
 10
10911.73888520266
 20
29913.18470904999
 30
0.0
 40
33.44266684329998
100
AcDbArc
 50
6.947904594164408
 51
10.06368629123615
  0
ARC
  5
D961
330
1F
100
AcDbEntity
  8
freecads.com
100
AcDbCircle
 10
10914.05921295428
 20
29913.4674769841
 30
0.0
 40
31.10517276215214
100
AcDbArc
 50
2.818226531509015
 51
6.947888495831459
  0
ARC
  5
D962
330
1F
100
AcDbEntity
  8
freecads.com
100
AcDbCircle
 10
10893.38099747608
 20
29912.44960775569
 30
0.0
 40
51.80842499765765
100
AcDbArc
 50
0.0000396210585939
 51
2.81816238067465
  0
ARC
  5
D963
330
1F
100
AcDbEntity
  8
freecads.com
100
AcDbCircle
 10
11009.43517657997
 20
29912.44966867749
 30
0.0
 40
64.24575410625279
100
AcDbArc
 50
180.000022380709
 51
183.3987880233183
  0
ARC
  5
D964
330
1F
100
AcDbEntity
  8
freecads.com
100
AcDbCircle
 10
10955.44449154357
 20
29909.24319411899
 30
0.0
 40
10.15993757555347
100
AcDbArc
 50
183.3988841656763
 51
196.6798273705748
  0
ARC
  5
D965
330
1F
100
AcDbEntity
  8
freecads.com
100
AcDbCircle
 10
10953.27009971388
 20
29908.59168148715
 30
0.0
 40
7.890037018605936
100
AcDbArc
 50
196.6798399206712
 51
212.3689969465313
  0
ARC
  5
D966
330
1F
100
AcDbEntity
  8
freecads.com
100
AcDbCircle
 10
10970.79967237783
 20
29919.70296061742
 30
0.0
 40
28.64446887522678
100
AcDbArc
 50
212.3689546487328
 51
218.3797368236817
  0
ARC
  5
D967
330
1F
100
AcDbEntity
  8
freecads.com
100
AcDbCircle
 10
10980.69599274134
 20
29927.5410270405
 30
0.0
 40
41.26874873545129
100
AcDbArc
 50
218.3797765849634
 51
222.4681988474932
  0
ARC
  5
D968
330
1F
100
AcDbEntity
  8
freecads.com
100
AcDbCircle
 10
10953.83527577034
 20
29902.95512703872
 30
0.0
 40
4.854951967006409
100
AcDbArc
 50
222.468193593365
 51
242.2207897245706
  0
ARC
  5
D969
330
1F
100
AcDbEntity
  8
freecads.com
100
AcDbCircle
 10
10953.12003007876
 20
29901.59735006353
 30
0.0
 40
3.320307150226457
100
AcDbArc
 50
242.2207989417553
 51
267.7169120184776
  0
ARC
  5
D96A
330
1F
100
AcDbEntity
  8
freecads.com
100
AcDbCircle
 10
10953.51845481637
 20
29911.59087631386
 30
0.0
 40
13.32177250223814
100
AcDbArc
 50
267.716921570361
 51
276.7960711418872
  0
ARC
  5
D96B
330
1F
100
AcDbEntity
  8
freecads.com
100
AcDbCircle
 10
10951.45076221589
 20
29928.94129966353
 30
0.0
 40
30.79496749064273
100
AcDbArc
 50
276.7960462488216
 51
279.5949205175323
  0
ARC
  5
D96C
330
1F
100
AcDbEntity
  8
freecads.com
100
AcDbCircle
 10
10951.10859010655
 20
29930.96540792065
 30
0.0
 40
32.84779383228279
100
AcDbArc
 50
279.594928082746
 51
282.2615824968841
  0
ARC
  5
D96D
330
1F
100
AcDbEntity
  8
freecads.com
100
AcDbCircle
 10
10951.92981515245
 20
29927.18676537804
 30
0.0
 40
28.98094110159619
100
AcDbArc
 50
282.2615797549196
 51
284.9335046657761
  0
ARC
  5
D96E
330
1F
100
AcDbEntity
  8
freecads.com
100
AcDbCircle
 10
10957.98167156869
 20
29904.49562165519
 30
0.0
 40
5.496627836481318
100
AcDbArc
 50
284.9335123120473
 51
294.0888591464489
  0
ARC
  5
D96F
330
1F
100
AcDbEntity
  8
freecads.com
100
AcDbCircle
 10
10960.61602996268
 20
29898.6033675149
 30
0.0
 40
0.957712021446698
100
AcDbArc
 50
46.5873561186828
 51
114.0888916138729
  0
ARC
  5
D970
330
1F
100
AcDbEntity
  8
freecads.com
100
AcDbCircle
 10
10959.90151118916
 20
29897.8481204472
 30
0.0
 40
1.997392362218665
100
AcDbArc
 50
7.38955180211819
 51
46.58732797660055
  0
ARC
  5
D971
330
1F
100
AcDbEntity
  8
freecads.com
100
AcDbCircle
 10
10929.65342375787
 20
29893.92521930741
 30
0.0
 40
32.49880129039829
100
AcDbArc
 50
1.394747785622211
 51
7.389498145492995
  0
ARC
  5
D972
330
1F
100
AcDbEntity
  8
freecads.com
100
AcDbCircle
 10
8210.010210064515
 20
29827.70854926604
 30
0.0
 40
2752.948002650289
100
AcDbArc
 50
1.143093906922695
 51
1.394736869466904
  0
ARC
  5
D973
330
1F
100
AcDbEntity
  8
freecads.com
100
AcDbCircle
 10
11563.28116862
 20
29894.61736364599
 30
0.0
 40
600.9904152300878
100
AcDbArc
 50
181.1430613465697
 51
181.8989045295091
  0
ARC
  5
D974
330
1F
100
AcDbEntity
  8
freecads.com
100
AcDbCircle
 10
10998.60609721169
 20
29875.89599812922
 30
0.0
 40
36.0050828569531
100
AcDbArc
 50
181.8989485146696
 51
187.7830777596781
  0
ARC
  5
D975
330
1F
100
AcDbEntity
  8
freecads.com
100
AcDbCircle
 10
10970.98412952503
 20
29872.1205685075
 30
0.0
 40
8.126292214035522
100
AcDbArc
 50
187.7830667907334
 51
202.0422888577388
  0
ARC
  5
D976
330
1F
100
AcDbEntity
  8
freecads.com
100
AcDbCircle
 10
10964.60039122524
 20
29869.535888515
 30
0.0
 40
1.23915308782473
100
AcDbArc
 50
202.0422961318753
 51
259.1045886549883
  0
ARC
  5
D977
330
1F
100
AcDbEntity
  8
freecads.com
100
AcDbCircle
 10
10963.99579706459
 20
29866.39491038634
 30
0.0
 40
1.959483763052981
100
AcDbArc
 50
12.69011275241951
 51
79.10464647144801
  0
ARC
  5
D978
330
1F
100
AcDbEntity
  8
freecads.com
100
AcDbCircle
 10
10918.65031763594
 20
29856.18409590687
 30
0.0
 40
48.44037485765788
100
AcDbArc
 50
6.178700464275162
 51
12.69010291807671
  0
ARC
  5
D979
330
1F
100
AcDbEntity
  8
freecads.com
100
AcDbCircle
 10
10922.48884694744
 20
29856.59969943015
 30
0.0
 40
44.57941208119918
100
AcDbArc
 50
358.3571343203917
 51
6.178637162648455
  0
ARC
  5
D97A
330
1F
100
AcDbEntity
  8
freecads.com
100
AcDbCircle
 10
10945.20263907759
 20
29855.94824287484
 30
0.0
 40
21.85627962603458
100
AcDbArc
 50
345.0261585631319
 51
358.3571238788428
  0
ARC
  5
D97B
330
1F
100
AcDbEntity
  8
freecads.com
100
AcDbCircle
 10
11000.56587078839
 20
29841.1408341266
 30
0.0
 40
35.45294109194929
100
AcDbArc
 50
165.0262159931065
 51
170.172116336827
  0
ARC
  5
D97C
330
1F
100
AcDbEntity
  8
freecads.com
100
AcDbCircle
 10
10969.6064455466
 20
29846.50396982532
 30
0.0
 40
4.032418565656674
100
AcDbArc
 50
170.1720715512041
 51
195.6380785172495
  0
ARC
  5
D97D
330
1F
100
AcDbEntity
  8
freecads.com
100
AcDbCircle
 10
10967.17616786789
 20
29845.82368100893
 30
0.0
 40
1.508722373695283
100
AcDbArc
 50
195.6380159270075
 51
244.1470300294502
  0
ARC
  5
D97E
330
1F
100
AcDbEntity
  8
freecads.com
100
AcDbCircle
 10
10968.04843971258
 20
29847.62380567687
 30
0.0
 40
3.509049094796658
100
AcDbArc
 50
244.1469781922823
 51
269.9999960999678
  0
ARC
  5
D97F
330
1F
100
AcDbEntity
  8
freecads.com
100
AcDbCircle
 10
10968.04843536479
 20
29848.21909999682
 30
0.0
 40
4.104343414752758
100
AcDbArc
 50
270.0000573597902
 51
295.1525010625397
  0
ARC
  5
D980
330
1F
100
AcDbEntity
  8
freecads.com
100
AcDbCircle
 10
10968.32686546662
 20
29847.62612410889
 30
0.0
 40
3.449252791050881
100
AcDbArc
 50
295.152545690683
 51
323.8058195149646
  0
ARC
  5
D981
330
1F
100
AcDbEntity
  8
freecads.com
100
AcDbCircle
 10
10967.22453048545
 20
29848.43273097307
 30
0.0
 40
4.815179964805408
100
AcDbArc
 50
323.8059007112146
 51
347.2612293876333
  0
ARC
  5
D982
330
1F
100
AcDbEntity
  8
freecads.com
100
AcDbCircle
 10
10961.29203849109
 20
29849.77390376257
 30
0.0
 40
10.89738398262728
100
AcDbArc
 50
347.2611827822142
 51
0.0000253397350165
  0
ARC
  5
D983
330
1F
100
AcDbEntity
  8
freecads.com
100
AcDbCircle
 10
10993.34572709587
 20
29849.77390142232
 30
0.0
 40
21.15630462214775
100
AcDbArc
 50
175.2648145551127
 51
179.9999806097916
  0
ARC
  5
D984
330
1F
100
AcDbEntity
  8
freecads.com
100
AcDbCircle
 10
11103.93662316278
 20
29840.61317372011
 30
0.0
 40
132.1259636507048
100
AcDbArc
 50
174.0420804669741
 51
175.2647608019328
  0
ARC
  5
D985
330
1F
100
AcDbEntity
  8
freecads.com
100
AcDbCircle
 10
11120.19140195676
 20
29838.91665155338
 30
0.0
 40
148.4690362224315
100
AcDbArc
 50
172.7998643886957
 51
174.0420247254094
  0
ARC
  5
D986
330
1F
100
AcDbEntity
  8
freecads.com
100
AcDbCircle
 10
11117.48491910037
 20
29839.25858511696
 30
0.0
 40
145.7410391525126
100
AcDbArc
 50
171.5402939704903
 51
172.7998717051238
  0
ARC
  5
D987
330
1F
100
AcDbEntity
  8
freecads.com
100
AcDbCircle
 10
11174.01258620585
 20
29830.85120070934
 30
0.0
 40
202.8905033753676
100
AcDbArc
 50
170.3527041069328
 51
171.5403203943891
  0
ARC
  5
D988
330
1F
100
AcDbEntity
  8
freecads.com
100
AcDbCircle
 10
10982.66221862729
 20
29863.37818824247
 30
0.0
 40
8.795248177232043
100
AcDbArc
 50
158.7666075445894
 51
170.3527054880045
  0
ARC
  5
D989
330
1F
100
AcDbEntity
  8
freecads.com
100
AcDbCircle
 10
10974.92609665865
 20
29866.38402116311
 30
0.0
 40
0.4956930891281221
100
AcDbArc
 50
83.67880285183682
 51
158.766693557581
  0
ARC
  5
D98A
330
1F
100
AcDbEntity
  8
freecads.com
100
AcDbCircle
 10
10974.89280312562
 20
29866.0834792408
 30
0.0
 40
0.7980734893064887
100
AcDbArc
 50
30.61875876650379
 51
83.67874237029775
  0
ARC
  5
D98B
330
1F
100
AcDbEntity
  8
freecads.com
100
AcDbCircle
 10
10972.60992631438
 20
29864.73238253
 30
0.0
 40
3.450805827334059
100
AcDbArc
 50
9.622843250470996
 51
30.61873165393101
  0
ARC
  5
D98C
330
1F
100
AcDbEntity
  8
freecads.com
100
AcDbCircle
 10
10931.69922391322
 20
29857.79604671086
 30
0.0
 40
44.94536360967745
100
AcDbArc
 50
6.412235552138867
 51
9.622880985194035
  0
ARC
  5
D98D
330
1F
100
AcDbEntity
  8
freecads.com
100
AcDbCircle
 10
10927.39361472788
 20
29857.3121120443
 30
0.0
 40
49.27808368094367
100
AcDbArc
 50
2.911566795655395
 51
6.412295818373228
  0
ARC
  5
D98E
330
1F
100
AcDbEntity
  8
freecads.com
100
AcDbCircle
 10
10913.68343769502
 20
29856.61474967053
 30
0.0
 40
63.00598477869963
100
AcDbArc
 50
0.0000062851163954
 51
2.911621145267211
  0
ARC
  5
D98F
330
1F
100
AcDbEntity
  8
freecads.com
100
AcDbCircle
 10
11208.25562492042
 20
29856.61461700932
 30
0.0
 40
231.5662024467431
100
AcDbArc
 50
179.9999654659399
 51
181.2237916836773
  0
ARC
  5
D990
330
1F
100
AcDbEntity
  8
freecads.com
100
AcDbCircle
 10
10984.76980085347
 20
29851.84041088054
 30
0.0
 40
8.02938981167512
100
AcDbArc
 50
181.2237705698493
 51
195.1610657860151
  0
ARC
  5
D991
330
1F
100
AcDbEntity
  8
freecads.com
100
AcDbCircle
 10
10978.66500785874
 20
29850.18623396065
 30
0.0
 40
1.704455125008017
100
AcDbArc
 50
195.1612225892486
 51
235.1127696882568
  0
ARC
  5
D992
330
1F
100
AcDbEntity
  8
freecads.com
100
AcDbCircle
 10
10979.35251617525
 20
29851.1722225
 30
0.0
 40
2.90647055127516
100
AcDbArc
 50
235.1127724812859
 51
261.9179716116869
  0
ARC
  5
D993
330
1F
100
AcDbEntity
  8
freecads.com
100
AcDbCircle
 10
10979.36421274201
 20
29851.25458710341
 30
0.0
 40
2.989661521750051
100
AcDbArc
 50
261.9179582401734
 51
294.7163413880834
  0
ARC
  5
D994
330
1F
100
AcDbEntity
  8
freecads.com
100
AcDbCircle
 10
10979.84781415177
 20
29850.20395812956
 30
0.0
 40
1.833075353668105
100
AcDbArc
 50
294.7162567028192
 51
341.9727161349842
  0
ARC
  5
D995
330
1F
100
AcDbEntity
  8
freecads.com
100
AcDbCircle
 10
10971.21055979085
 20
29853.01492130882
 30
0.0
 40
10.91622881986078
100
AcDbArc
 50
341.9727102040529
 51
356.0862729815826
  0
ARC
  5
D996
330
1F
100
AcDbEntity
  8
freecads.com
100
AcDbCircle
 10
10641.12365489306
 20
29875.59710136839
 30
0.0
 40
341.7746874411363
100
AcDbArc
 50
356.0863297074318
 51
357.2572160701719
  0
ARC
  5
D997
330
1F
100
AcDbEntity
  8
freecads.com
100
AcDbCircle
 10
11101.93593606569
 20
29853.52106232662
 30
0.0
 40
119.5660868021637
100
AcDbArc
 50
175.6299059576849
 51
177.2573079258373
  0
ARC
  5
D998
330
1F
100
AcDbEntity
  8
freecads.com
100
AcDbCircle
 10
11061.32494786276
 20
29856.62463774654
 30
0.0
 40
78.83668043279238
100
AcDbArc
 50
173.4064788157069
 51
175.6299436646212
  0
ARC
  5
D999
330
1F
100
AcDbEntity
  8
freecads.com
100
AcDbCircle
 10
11074.64905229956
 20
29855.08453050732
 30
0.0
 40
92.24949853155782
100
AcDbArc
 50
171.8256095061227
 51
173.4064895807653
  0
ARC
  5
D99A
330
1F
100
AcDbEntity
  8
freecads.com
100
AcDbCircle
 10
10985.48156905876
 20
29867.89308114321
 30
0.0
 40
2.166764132065245
100
AcDbArc
 50
148.2825217957299
 51
171.8256151307303
  0
ARC
  5
D99B
330
1F
100
AcDbEntity
  8
freecads.com
100
AcDbCircle
 10
10982.31110853801
 20
29869.85253621435
 30
0.0
 40
1.560337166458756
100
AcDbArc
 50
328.282446227123
 51
358.9025286678553
  0
ARC
  5
D99C
330
1F
100
AcDbEntity
  8
freecads.com
100
AcDbCircle
 10
10946.07812004228
 20
29870.54660853899
 30
0.0
 40
37.79997281202415
100
AcDbArc
 50
358.9025846134226
 51
1.936791808324316
  0
ARC
  5
D99D
330
1F
100
AcDbEntity
  8
freecads.com
100
AcDbCircle
 10
10945.80902481322
 20
29870.5375196107
 30
0.0
 40
38.06922149039689
100
AcDbArc
 50
1.936775457844878
 51
5.596060496754614
  0
ARC
  5
D99E
330
1F
100
AcDbEntity
  8
freecads.com
100
AcDbCircle
 10
10928.24864688806
 20
29868.81697165059
 30
0.0
 40
55.71368685935038
100
AcDbArc
 50
5.596016337380077
 51
8.346769206252108
  0
ARC
  5
D99F
330
1F
100
AcDbEntity
  8
freecads.com
100
AcDbCircle
 10
11083.04268223251
 20
29891.52784496208
 30
0.0
 40
100.7375104668784
100
AcDbArc
 50
186.6837367733577
 51
188.3466602943562
  0
ARC
  5
D9A0
330
1F
100
AcDbEntity
  8
freecads.com
100
AcDbCircle
 10
11122.9455166841
 20
29896.20368372711
 30
0.0
 40
140.9133697035306
100
AcDbArc
 50
185.3906247321827
 51
186.6836621643294
  0
ARC
  5
D9A1
330
1F
100
AcDbEntity
  8
freecads.com
100
AcDbCircle
 10
11111.98760384759
 20
29895.16950968146
 30
0.0
 40
129.9067639749992
100
AcDbArc
 50
184.082393491222
 51
185.3905565219532
  0
ARC
  5
D9A2
330
1F
100
AcDbEntity
  8
freecads.com
100
AcDbCircle
 10
11022.26156636511
 20
29888.76556420127
 30
0.0
 40
39.95248492158537
100
AcDbArc
 50
180.9333631989531
 51
184.0823702406847
  0
ARC
  5
D9A3
330
1F
100
AcDbEntity
  8
freecads.com
100
AcDbCircle
 10
10884.41130189269
 20
29886.51968397731
 30
0.0
 40
97.91607347044987
100
AcDbArc
 50
0.9334011014433096
 51
2.027742172940413
  0
ARC
  5
D9A4
330
1F
100
AcDbEntity
  8
freecads.com
100
AcDbCircle
 10
10878.45546310932
 20
29886.30890823012
 30
0.0
 40
103.8756407383645
100
AcDbArc
 50
2.027690322291968
 51
3.074591523857671
  0
ARC
  5
D9A5
330
1F
100
AcDbEntity
  8
freecads.com
100
AcDbCircle
 10
10889.8522143574
 20
29886.92107139676
 30
0.0
 40
92.46246051752859
100
AcDbArc
 50
3.074587869422095
 51
4.112780292721647
  0
ARC
  5
D9A6
330
1F
100
AcDbEntity
  8
freecads.com
100
AcDbCircle
 10
10965.75051176629
 20
29892.37855946658
 30
0.0
 40
16.36820498139247
100
AcDbArc
 50
4.112733272443128
 51
7.852211503931707
  0
ARC
  5
D9A7
330
1F
100
AcDbEntity
  8
freecads.com
100
AcDbCircle
 10
10984.28845941298
 20
29894.93515452218
 30
0.0
 40
2.345204147621589
100
AcDbArc
 50
151.8037964965522
 51
187.8522121204416
  0
ARC
  5
D9A8
330
1F
100
AcDbEntity
  8
freecads.com
100
AcDbCircle
 10
10983.14150430714
 20
29895.55004904048
 30
0.0
 40
1.043819775709886
100
AcDbArc
 50
86.14624341312637
 51
151.8038173882697
  0
ARC
  5
D9A9
330
1F
100
AcDbEntity
  8
freecads.com
100
AcDbCircle
 10
10983.06761011654
 20
29894.45304369823
 30
0.0
 40
2.143311054595316
100
AcDbArc
 50
44.79542626326685
 51
86.14631467738556
  0
ARC
  5
D9AA
330
1F
100
AcDbEntity
  8
freecads.com
100
AcDbCircle
 10
10980.84282455609
 20
29892.24408603023
 30
0.0
 40
5.278460934425066
100
AcDbArc
 50
23.68820439098811
 51
44.79544767525358
  0
ARC
  5
D9AB
330
1F
100
AcDbEntity
  8
freecads.com
100
AcDbCircle
 10
10990.61574216739
 20
29896.53169486837
 30
0.0
 40
5.393629216344646
100
AcDbArc
 50
203.6881789967175
 51
214.1490762937209
  0
ARC
  5
D9AC
330
1F
100
AcDbEntity
  8
freecads.com
100
AcDbCircle
 10
10990.04428913667
 20
29896.14407385894
 30
0.0
 40
4.703115919400185
100
AcDbArc
 50
214.1490363837721
 51
225.7417636564343
  0
ARC
  5
D9AD
330
1F
100
AcDbEntity
  8
freecads.com
100
AcDbCircle
 10
10989.26727333987
 20
29895.34666292118
 30
0.0
 40
3.589734694456819
100
AcDbArc
 50
225.7416380491329
 51
238.8026060435505
  0
ARC
  5
D9AE
330
1F
100
AcDbEntity
  8
freecads.com
100
AcDbCircle
 10
10987.98556638458
 20
29893.23010121682
 30
0.0
 40
1.115344634749512
100
AcDbArc
 50
238.8027466416325
 51
270.0000559497922
  0
ARC
  5
D9AF
330
1F
100
AcDbEntity
  8
freecads.com
100
AcDbCircle
 10
10987.98556796163
 20
29890.65888165927
 30
0.0
 40
1.455874922807733
100
AcDbArc
 50
71.61074197310306
 51
90.00001920167362
  0
ARC
  5
D9B0
330
1F
100
AcDbEntity
  8
freecads.com
100
AcDbCircle
 10
10988.2585752665
 20
29891.48008339336
 30
0.0
 40
0.5904817886827186
100
AcDbArc
 50
35.54228315172975
 51
71.61081886271664
  0
ARC
  5
D9B1
330
1F
100
AcDbEntity
  8
freecads.com
100
AcDbCircle
 10
10988.35713348273
 20
29891.55049358616
 30
0.0
 40
0.4693565756390503
100
AcDbArc
 50
353.8701341631279
 51
35.54233257510293
  0
ARC
  5
D9B2
330
1F
100
AcDbEntity
  8
freecads.com
100
AcDbCircle
 10
10987.92742204086
 20
29891.59664285372
 30
0.0
 40
0.9015390349893959
100
AcDbArc
 50
328.2825889314622
 51
353.8701467266077
  0
ARC
  5
D9B3
330
1F
100
AcDbEntity
  8
freecads.com
100
AcDbCircle
 10
10990.32927486887
 20
29890.11221719653
 30
0.0
 40
1.922007766313648
100
AcDbArc
 50
148.2825219067897
 51
186.6505837502909
  0
ARC
  5
D9B4
330
1F
100
AcDbEntity
  8
freecads.com
100
AcDbCircle
 10
10990.97517779749
 20
29890.18752739006
 30
0.0
 40
2.572286336196554
100
AcDbArc
 50
186.6505559699533
 51
217.5009013082851
  0
ARC
  5
D9B5
330
1F
100
AcDbEntity
  8
freecads.com
100
AcDbCircle
 10
10990.59480891867
 20
29889.89564913225
 30
0.0
 40
2.092835190240828
100
AcDbArc
 50
217.5008699225089
 51
252.5224244885645
  0
ARC
  5
D9B6
330
1F
100
AcDbEntity
  8
freecads.com
100
AcDbCircle
 10
10990.36485745201
 20
29889.16533601527
 30
0.0
 40
1.327175392515954
100
AcDbArc
 50
252.5223764250729
 51
301.7175062133146
  0
ARC
  5
D9B7
330
1F
100
AcDbEntity
  8
freecads.com
100
AcDbCircle
 10
10990.00235325469
 20
29889.75187983408
 30
0.0
 40
2.016699100930939
100
AcDbArc
 50
301.7174997241344
 51
359.4128759991753
  0
ARC
  5
D9B8
330
1F
100
AcDbEntity
  8
freecads.com
100
AcDbCircle
 10
10976.49115396373
 20
29889.89033466591
 30
0.0
 40
15.52860777515228
100
AcDbArc
 50
359.4128856286053
 51
12.26070823930044
  0
ARC
  5
D9B9
330
1F
100
AcDbEntity
  8
freecads.com
100
AcDbCircle
 10
10972.03209716541
 20
29888.92129949066
 30
0.0
 40
20.09174449252996
100
AcDbArc
 50
12.26072592557757
 51
24.07015292946821
  0
ARC
  5
D9BA
330
1F
100
AcDbEntity
  8
freecads.com
100
AcDbCircle
 10
10975.38074255737
 20
29890.4171159162
 30
0.0
 40
16.42419861825954
100
AcDbArc
 50
24.07019139082135
 51
37.80631136702213
  0
ARC
  5
D9BB
330
1F
100
AcDbEntity
  8
freecads.com
100
AcDbCircle
 10
11024.71207268038
 20
29928.6911613202
 30
0.0
 40
46.01363192775504
100
AcDbArc
 50
215.412848302003
 51
217.8063497639508
  0
ARC
  5
D9BC
330
1F
100
AcDbEntity
  8
freecads.com
100
AcDbCircle
 10
11049.56535484618
 20
29946.36181244506
 30
0.0
 40
76.50850929410305
100
AcDbArc
 50
213.7773969798518
 51
215.412819950717
  0
ARC
  5
D9BD
330
1F
100
AcDbEntity
  8
freecads.com
100
AcDbCircle
 10
11046.82331072758
 20
29944.52773253357
 30
0.0
 40
73.20962234999317
100
AcDbArc
 50
212.12844804504
 51
213.7773921256806
  0
ARC
  5
D9BE
330
1F
100
AcDbEntity
  8
freecads.com
100
AcDbCircle
 10
11009.29711418535
 20
29920.96167342804
 30
0.0
 40
28.89738285922631
100
AcDbArc
 50
208.8271513155931
 51
212.1285349452343
  0
ARC
  5
D9BF
330
1F
100
AcDbEntity
  8
freecads.com
100
AcDbCircle
 10
10976.21498753142
 20
29902.75418290686
 30
0.0
 40
8.864235419468307
100
AcDbArc
 50
28.82724851952987
 51
38.62710031890149
  0
ARC
  5
D9C0
330
1F
100
AcDbEntity
  8
freecads.com
100
AcDbCircle
 10
10973.4303755545
 20
29900.52910257163
 30
0.0
 40
12.42864930680539
100
AcDbArc
 50
38.62708790091082
 51
46.23386045605826
  0
ARC
  5
D9C1
330
1F
100
AcDbEntity
  8
freecads.com
100
AcDbCircle
 10
10974.09716587534
 20
29901.2252681045
 30
0.0
 40
11.4646701675582
100
AcDbArc
 50
46.23379149688439
 51
54.05025817706454
  0
ARC
  5
D9C2
330
1F
100
AcDbEntity
  8
freecads.com
100
AcDbCircle
 10
10978.04805376765
 20
29906.67323992873
 30
0.0
 40
4.734892152245957
100
AcDbArc
 50
54.05027170170042
 51
69.1832032329481
  0
ARC
  5
D9C3
330
1F
100
AcDbEntity
  8
freecads.com
100
AcDbCircle
 10
10981.69511460867
 20
29916.26573748652
 30
0.0
 40
5.527518002007672
100
AcDbArc
 50
236.7499078029745
 51
249.1832557739281
  0
ARC
  5
D9C4
330
1F
100
AcDbEntity
  8
freecads.com
100
AcDbCircle
 10
10980.66887632076
 20
29914.70047511966
 30
0.0
 40
3.655831249197361
100
AcDbArc
 50
219.8018868638952
 51
236.7499564312786
  0
ARC
  5
D9C5
330
1F
100
AcDbEntity
  8
freecads.com
100
AcDbCircle
 10
10980.16398977098
 20
29914.2798000746
 30
0.0
 40
2.998657054906908
100
AcDbArc
 50
200.8743047057793
 51
219.8020151454248
  0
ARC
  5
D9C6
330
1F
100
AcDbEntity
  8
freecads.com
100
AcDbCircle
 10
10979.82105706056
 20
29914.14902298106
 30
0.0
 40
2.631634586836613
100
AcDbArc
 50
180.0000086865632
 51
200.8743043890026
  0
ARC
  5
D9C7
330
1F
100
AcDbEntity
  8
freecads.com
100
AcDbCircle
 10
10981.21306711528
 20
29914.14902398816
 30
0.0
 40
4.023644641561323
100
AcDbArc
 50
169.1828244145201
 51
180.0000200224094
  0
ARC
  5
D9C8
330
1F
100
AcDbEntity
  8
freecads.com
100
AcDbCircle
 10
10978.65877448015
 20
29914.63707929872
 30
0.0
 40
1.423142987646373
100
AcDbArc
 50
145.696143086862
 51
169.1829952660429
  0
ARC
  5
D9C9
330
1F
100
AcDbEntity
  8
freecads.com
100
AcDbCircle
 10
10977.95813394409
 20
29915.11509308536
 30
0.0
 40
0.5749718132996175
100
AcDbArc
 50
104.7916886298928
 51
145.6961516093408
  0
ARC
  5
D9CA
330
1F
100
AcDbEntity
  8
freecads.com
100
AcDbCircle
 10
10977.93492855566
 20
29915.20297583924
 30
0.0
 40
0.4840769923275178
100
AcDbArc
 50
58.28258367577769
 51
104.7917571764499
  0
ARC
  5
D9CB
330
1F
100
AcDbEntity
  8
freecads.com
100
AcDbCircle
 10
10978.50124117839
 20
29916.11929061087
 30
0.0
 40
0.5931150738257141
100
AcDbArc
 50
238.2825645072706
 51
277.1350851754021
  0
ARC
  5
D9CC
330
1F
100
AcDbEntity
  8
freecads.com
100
AcDbCircle
 10
10978.50565809937
 20
29916.08400464003
 30
0.0
 40
0.5575537334505789
100
AcDbArc
 50
277.1350977539468
 51
317.8255555953546
  0
ARC
  5
D9CD
330
1F
100
AcDbEntity
  8
freecads.com
100
AcDbCircle
 10
10978.09685424818
 20
29916.45434963046
 30
0.0
 40
1.109165916666863
100
AcDbArc
 50
317.8256928748345
 51
344.4737661039598
  0
ARC
  5
D9CE
330
1F
100
AcDbEntity
  8
freecads.com
100
AcDbCircle
 10
10976.37800105031
 20
29916.93187897393
 30
0.0
 40
2.893119556676887
100
AcDbArc
 50
344.4737370841045
 51
357.5011241785297
  0
ARC
  5
D9CF
330
1F
100
AcDbEntity
  8
freecads.com
100
AcDbCircle
 10
10986.84464901545
 20
29916.47509121397
 30
0.0
 40
7.583491282891857
100
AcDbArc
 50
172.4282229913576
 51
177.5010502511817
  0
ARC
  5
D9D0
330
1F
100
AcDbEntity
  8
freecads.com
100
AcDbCircle
 10
10979.79149144107
 20
29917.41264681103
 30
0.0
 40
0.4682933048640102
100
AcDbArc
 50
133.7805008307414
 51
172.4281435078626
  0
ARC
  5
D9D1
330
1F
100
AcDbEntity
  8
freecads.com
100
AcDbCircle
 10
10979.54977030777
 20
29917.66488390086
 30
0.0
 40
0.118932952545832
100
AcDbArc
 50
36.18042432758064
 51
133.780782011367
  0
ARC
  5
D9D2
330
1F
100
AcDbEntity
  8
freecads.com
100
AcDbCircle
 10
10978.26272764337
 20
29916.72359359073
 30
0.0
 40
1.713456789920579
100
AcDbArc
 50
21.97442443410408
 51
36.18022420774193
  0
ARC
  5
D9D3
330
1F
100
AcDbEntity
  8
freecads.com
100
AcDbCircle
 10
10982.09490018709
 20
29918.26990666448
 30
0.0
 40
2.418931203353764
100
AcDbArc
 50
201.9745196638855
 51
214.8769443520046
  0
ARC
  5
D9D4
330
1F
100
AcDbEntity
  8
freecads.com
100
AcDbCircle
 10
10982.04487248041
 20
29918.23503569969
 30
0.0
 40
2.357949602685352
100
AcDbArc
 50
214.8769229675477
 51
228.0288078558697
  0
ARC
  5
D9D5
330
1F
100
AcDbEntity
  8
freecads.com
100
AcDbCircle
 10
10981.74776921068
 20
29917.90473536461
 30
0.0
 40
1.913687670665502
100
AcDbArc
 50
228.0288098125478
 51
242.5439350062456
  0
ARC
  5
D9D6
330
1F
100
AcDbEntity
  8
freecads.com
100
AcDbCircle
 10
10981.24137183559
 20
29916.93013112981
 30
0.0
 40
0.8153745477387191
100
AcDbArc
 50
242.5439351253901
 51
269.9999745721987
  0
ARC
  5
D9D7
330
1F
100
AcDbEntity
  8
freecads.com
100
AcDbCircle
 10
10981.24137174029
 20
29916.54492265354
 30
0.0
 40
0.4301660714700946
100
AcDbArc
 50
269.9999644941887
 51
312.7599195051087
  0
ARC
  5
D9D8
330
1F
100
AcDbEntity
  8
freecads.com
100
AcDbCircle
 10
10981.12455491216
 20
29916.6712486634
 30
0.0
 40
0.6022254568644576
100
AcDbArc
 50
312.7600382786633
 51
346.0109270012196
  0
ARC
  5
D9D9
330
1F
100
AcDbEntity
  8
freecads.com
100
AcDbCircle
 10
10980.58090429398
 20
29916.80668951888
 30
0.0
 40
1.16249344628612
100
AcDbArc
 50
346.0107522763053
 51
8.470030361756288
  0
ARC
  5
D9DA
330
1F
100
AcDbEntity
  8
freecads.com
100
AcDbCircle
 10
10979.21926318293
 20
29916.60391810066
 30
0.0
 40
2.539149817113193
100
AcDbArc
 50
8.470049869480652
 51
20.99365706380948
  0
ARC
  5
D9DB
330
1F
100
AcDbEntity
  8
freecads.com
100
AcDbCircle
 10
10983.38445948188
 20
29918.20225879097
 30
0.0
 40
1.922190023235517
100
AcDbArc
 50
183.1166109724444
 51
200.9936755268208
  0
ARC
  5
D9DC
330
1F
100
AcDbEntity
  8
freecads.com
100
AcDbCircle
 10
10983.42671688889
 20
29918.20455673533
 30
0.0
 40
1.964509864766852
100
AcDbArc
 50
165.5290127136542
 51
183.1165258706712
  0
ARC
  5
D9DD
330
1F
100
AcDbEntity
  8
freecads.com
100
AcDbCircle
 10
10983.21339784981
 20
29918.25961135992
 30
0.0
 40
1.744200935937439
100
AcDbArc
 50
146.800316601414
 51
165.5290698804136
  0
ARC
  5
D9DE
330
1F
100
AcDbEntity
  8
freecads.com
100
AcDbCircle
 10
10982.74214648778
 20
29918.56798706414
 30
0.0
 40
1.181019418877084
100
AcDbArc
 50
121.7174379993148
 51
146.8003642205881
  0
ARC
  5
D9DF
330
1F
100
AcDbEntity
  8
freecads.com
100
AcDbCircle
 10
10981.14077378478
 20
29921.15906113606
 30
0.0
 40
1.864971286970792
100
AcDbArc
 50
301.7175199238797
 51
318.0931472875457
  0
ARC
  5
D9E0
330
1F
100
AcDbEntity
  8
freecads.com
100
AcDbCircle
 10
10980.49025073754
 20
29921.74288019453
 30
0.0
 40
2.739056481922255
100
AcDbArc
 50
318.0931838017684
 51
330.3704541994258
  0
ARC
  5
D9E1
330
1F
100
AcDbEntity
  8
freecads.com
100
AcDbCircle
 10
10980.54559606325
 20
29921.71139592777
 30
0.0
 40
2.675382593204589
100
AcDbArc
 50
330.3705656052841
 51
342.7780918718522
  0
ARC
  5
D9E2
330
1F
100
AcDbEntity
  8
freecads.com
100
AcDbCircle
 10
10981.54123478914
 20
29921.40277825803
 30
0.0
 40
1.63300965679265
100
AcDbArc
 50
342.7780506400036
 51
0.736662269828714
  0
ARC
  5
D9E3
330
1F
100
AcDbEntity
  8
freecads.com
100
AcDbCircle
 10
10982.21589767866
 20
29921.41145376552
 30
0.0
 40
0.95829099029364
100
AcDbArc
 50
0.736616482433057
 51
23.23811379595706
  0
ARC
  5
D9E4
330
1F
100
AcDbEntity
  8
freecads.com
100
AcDbCircle
 10
10982.95127890579
 20
29921.72721816263
 30
0.0
 40
0.1579831097245449
100
AcDbArc
 50
23.23798409684341
 51
107.4174980359161
  0
ARC
  5
D9E5
330
1F
100
AcDbEntity
  8
freecads.com
100
AcDbCircle
 10
10983.08753825628
 20
29921.29288753377
 30
0.0
 40
0.6131860378333549
100
AcDbArc
 50
107.4177385303778
 51
141.5051618842082
  0
ARC
  5
D9E6
330
1F
100
AcDbEntity
  8
freecads.com
100
AcDbCircle
 10
10987.50865072819
 20
29917.77682867859
 30
0.0
 40
6.261982844453242
100
AcDbArc
 50
141.5051799389844
 51
147.6980335611572
  0
ARC
  5
D9E7
330
1F
100
AcDbEntity
  8
freecads.com
100
AcDbCircle
 10
10980.77562504947
 20
29922.03359417862
 30
0.0
 40
1.703799434312506
100
AcDbArc
 50
287.8236277249421
 51
327.698035984325
  0
ARC
  5
D9E8
330
1F
100
AcDbEntity
  8
freecads.com
100
AcDbCircle
 10
10981.00288129865
 20
29921.32677494812
 30
0.0
 40
0.9613448381187279
100
AcDbArc
 50
226.8527118221753
 51
287.8236360863792
  0
ARC
  5
D9E9
330
1F
100
AcDbEntity
  8
freecads.com
100
AcDbCircle
 10
10982.45811394031
 20
29922.87930200406
 30
0.0
 40
3.089264550135918
100
AcDbArc
 50
197.859065972732
 51
226.8527356871295
  0
ARC
  5
D9EA
330
1F
100
AcDbEntity
  8
freecads.com
100
AcDbCircle
 10
10991.45900611083
 20
29925.77942696597
 30
0.0
 40
12.54583817169764
100
AcDbArc
 50
187.6248949712125
 51
197.8591344880473
  0
ARC
  5
D9EB
330
1F
100
AcDbEntity
  8
freecads.com
100
AcDbCircle
 10
10975.23573291391
 20
29923.60760955193
 30
0.0
 40
3.822160609517539
100
AcDbArc
 50
7.624831079469386
 51
26.79493920354599
  0
ARC
  5
D9EC
330
1F
100
AcDbEntity
  8
freecads.com
100
AcDbCircle
 10
10973.89141416283
 20
29922.92868636786
 30
0.0
 40
5.328191683012269
100
AcDbArc
 50
26.7950155260958
 51
41.73991217509946
  0
ARC
  5
D9ED
330
1F
100
AcDbEntity
  8
freecads.com
100
AcDbCircle
 10
10972.35968499824
 20
29921.56203864953
 30
0.0
 40
7.380975212664603
100
AcDbArc
 50
41.73997944830546
 51
54.23822304986309
  0
ARC
  5
D9EE
330
1F
100
AcDbEntity
  8
freecads.com
100
AcDbCircle
 10
10968.2813642345
 20
29915.89935269598
 30
0.0
 40
14.35942149106473
100
AcDbArc
 50
54.2382140665088
 51
61.83399792894341
  0
ARC
  5
D9EF
330
1F
100
AcDbEntity
  8
freecads.com
100
AcDbCircle
 10
10954.50620246959
 20
29890.17227143594
 30
0.0
 40
43.54225534606957
100
AcDbArc
 50
61.83391624629202
 51
65.1884591482138
  0
ARC
  5
D9F0
330
1F
100
AcDbEntity
  8
freecads.com
100
AcDbCircle
 10
10971.46739918478
 20
29926.86025507349
 30
0.0
 40
3.123319964245832
100
AcDbArc
 50
65.18845604084384
 51
88.20100140670469
  0
ARC
  5
D9F1
330
1F
100
AcDbEntity
  8
freecads.com
100
AcDbCircle
 10
10971.49357102087
 20
29927.69353067569
 30
0.0
 40
2.289633455880285
100
AcDbArc
 50
88.20099324201132
 51
116.8596819161779
  0
ARC
  5
D9F2
330
1F
100
AcDbEntity
  8
freecads.com
100
AcDbCircle
 10
10978.41230022183
 20
29914.03212828019
 30
0.0
 40
17.60311539722774
100
AcDbArc
 50
116.8596455547847
 51
123.2338757880132
  0
ARC
  5
D9F3
330
1F
100
AcDbEntity
  8
freecads.com
100
AcDbCircle
 10
10973.95020006857
 20
29920.84211212262
 30
0.0
 40
9.461480566841704
100
AcDbArc
 50
123.2337802663597
 51
141.7000216493744
  0
ARC
  5
D9F4
330
1F
100
AcDbEntity
  8
freecads.com
100
AcDbCircle
 10
10973.51671516434
 20
29921.18445557257
 30
0.0
 40
8.909114565063033
100
AcDbArc
 50
141.7000113890558
 51
161.0182682324863
  0
ARC
  5
D9F5
330
1F
100
AcDbEntity
  8
freecads.com
100
AcDbCircle
 10
10976.37168729729
 20
29920.20243663362
 30
0.0
 40
11.92825799927593
100
AcDbArc
 50
161.0183077826609
 51
177.3271253494449
  0
ARC
  5
D9F6
330
1F
100
AcDbEntity
  8
freecads.com
100
AcDbCircle
 10
10990.85611146248
 20
29919.52623735381
 30
0.0
 40
26.42845761387091
100
AcDbArc
 50
177.3271175840777
 51
186.3248047980678
  0
ARC
  5
D9F7
330
1F
100
AcDbEntity
  8
freecads.com
100
AcDbCircle
 10
10920.88766305146
 20
29911.77100745506
 30
0.0
 40
43.9684696189878
100
AcDbArc
 50
2.183431741082809
 51
6.324778239046543
  0
ARC
  5
D9F8
330
1F
100
AcDbEntity
  8
freecads.com
100
AcDbCircle
 10
10961.1203705857
 20
29913.3049419563
 30
0.0
 40
3.706530885372152
100
AcDbArc
 50
336.8315045747628
 51
2.183417226189646
  0
ARC
  5
D9F9
330
1F
100
AcDbEntity
  8
freecads.com
100
AcDbCircle
 10
10960.96513087655
 20
29913.37137952572
 30
0.0
 40
3.875389755199323
100
AcDbArc
 50
312.2781117436212
 51
336.8314670378272
  0
ARC
  5
D9FA
330
1F
100
AcDbEntity
  8
freecads.com
100
AcDbCircle
 10
10929.8240577266
 20
29947.62126967398
 30
0.0
 40
50.16600880591055
100
AcDbArc
 50
308.5069980776913
 51
312.2780950886363
  0
ARC
  5
D9FB
330
1F
100
AcDbEntity
  8
freecads.com
100
AcDbCircle
 10
10933.33538034089
 20
29943.20800821189
 30
0.0
 40
44.52630462626123
100
AcDbArc
 50
302.3940961328332
 51
308.5070224838606
  0
ARC
  5
D9FC
330
1F
100
AcDbEntity
  8
freecads.com
100
AcDbCircle
 10
10955.51461459149
 20
29908.25116720443
 30
0.0
 40
3.127039353030854
100
AcDbArc
 50
259.8530321106734
 51
302.3940846951674
  0
ARC
  5
D9FD
330
1F
100
AcDbEntity
  8
freecads.com
100
AcDbCircle
 10
10955.29688726389
 20
29907.03463131722
 30
0.0
 40
1.891173359461686
100
AcDbArc
 50
199.5937824342635
 51
259.8530392809313
  0
ARC
  5
D9FE
330
1F
100
AcDbEntity
  8
freecads.com
100
AcDbCircle
 10
10969.60805732658
 20
29912.12886852919
 30
0.0
 40
17.08198773312647
100
AcDbArc
 50
187.6166149164911
 51
199.5938097063482
  0
ARC
  5
D9FF
330
1F
100
AcDbEntity
  8
freecads.com
100
AcDbCircle
 10
10899.66391627763
 20
29902.77572072526
 30
0.0
 40
53.48474834640753
100
AcDbArc
 50
7.616574791760299
 51
9.820560893365179
  0
ARC
  5
DA00
330
1F
100
AcDbEntity
  8
freecads.com
100
AcDbCircle
 10
10880.74108306571
 20
29899.50028495774
 30
0.0
 40
72.68896913836655
100
AcDbArc
 50
9.820484258584318
 51
11.57163838402202
  0
ARC
  5
DA01
330
1F
100
AcDbEntity
  8
freecads.com
100
AcDbCircle
 10
10886.70524782975
 20
29900.72154182169
 30
0.0
 40
66.60105244578756
100
AcDbArc
 50
11.57158273590076
 51
13.34450797049495
  0
ARC
  5
DA02
330
1F
100
AcDbEntity
  8
freecads.com
100
AcDbCircle
 10
10932.31833713302
 20
29911.54145328247
 30
0.0
 40
19.7222256707166
100
AcDbArc
 50
13.34446710902879
 51
17.73255834121218
  0
ARC
  5
DA03
330
1F
100
AcDbEntity
  8
freecads.com
100
AcDbCircle
 10
10964.34100348067
 20
29921.7812382488
 30
0.0
 40
13.89777367742742
100
AcDbArc
 50
191.8348950870774
 51
197.7325372042813
  0
ARC
  5
DA04
330
1F
100
AcDbEntity
  8
freecads.com
100
AcDbCircle
 10
10954.5105783749
 20
29919.72130386001
 30
0.0
 40
3.853840809960202
100
AcDbArc
 50
176.5164235128065
 51
191.8348597586885
  0
ARC
  5
DA05
330
1F
100
AcDbEntity
  8
freecads.com
100
AcDbCircle
 10
10952.56067499391
 20
29919.84000492525
 30
0.0
 40
1.900327785151892
100
AcDbArc
 50
153.3081238130379
 51
176.5164498550404
  0
ARC
  5
DA06
330
1F
100
AcDbEntity
  8
freecads.com
100
AcDbCircle
 10
10951.98761507058
 20
29920.12812388491
 30
0.0
 40
1.258915117171383
100
AcDbArc
 50
121.7175146583631
 51
153.3081906367787
  0
ARC
  5
DA07
330
1F
100
AcDbEntity
  8
freecads.com
100
AcDbCircle
 10
10950.79477562373
 20
29922.05817834539
 30
0.0
 40
1.01000007876348
100
AcDbArc
 50
301.7174334207079
 51
344.2157587666456
  0
ARC
  5
DA08
330
1F
100
AcDbEntity
  8
freecads.com
100
AcDbCircle
 10
10949.42459174607
 20
29922.44549121984
 30
0.0
 40
2.43387336010131
100
AcDbArc
 50
344.2158285024406
 51
6.263502929428454
  0
ARC
  5
DA09
330
1F
100
AcDbEntity
  8
freecads.com
100
AcDbCircle
 10
10945.14271234575
 20
29921.97553146965
 30
0.0
 40
6.741465885603544
100
AcDbArc
 50
6.263472900397642
 51
18.3755126001343
  0
ARC
  5
DA0A
330
1F
100
AcDbEntity
  8
freecads.com
100
AcDbCircle
 10
10916.4022528661
 20
29912.42845782363
 30
0.0
 40
37.02612580285584
100
AcDbArc
 50
18.37556527470539
 51
21.80732595805932
  0
ARC
  5
DA0B
330
1F
100
AcDbEntity
  8
freecads.com
100
AcDbCircle
 10
10977.54788228615
 20
29936.89404458088
 30
0.0
 40
28.83245702846989
100
AcDbArc
 50
197.1363233990565
 51
201.8073452009912
  0
ARC
  5
DA0C
330
1F
100
AcDbEntity
  8
freecads.com
100
AcDbCircle
 10
11073.42476277064
 20
29966.45606195943
 30
0.0
 40
129.1633549758375
100
AcDbArc
 50
195.6016893900112
 51
197.1362766136159
  0
ARC
  5
DA0D
330
1F
100
AcDbEntity
  8
freecads.com
100
AcDbCircle
 10
11088.05223699101
 20
29970.54062180638
 30
0.0
 40
144.3504097005044
100
AcDbArc
 50
194.0758224879748
 51
195.6017011413266
  0
ARC
  5
DA0E
330
1F
100
AcDbEntity
  8
freecads.com
100
AcDbCircle
 10
11067.77180791685
 20
29965.45580234265
 30
0.0
 40
123.4422487967622
100
AcDbArc
 50
192.3600394958439
 51
194.0759014401529
  0
ARC
  5
DA0F
330
1F
100
AcDbEntity
  8
freecads.com
100
AcDbCircle
 10
10648.25125090899
 20
29873.52504084233
 30
0.0
 40
306.0327361118132
100
AcDbArc
 50
12.36001632673932
 51
13.06796072679155
  0
ARC
  5
DA10
330
1F
100
AcDbEntity
  8
freecads.com
100
AcDbCircle
 10
10534.89589827957
 20
29847.21371842237
 30
0.0
 40
422.4016394196363
100
AcDbArc
 50
13.06789687187927
 51
13.62389402550823
  0
ARC
  5
DA11
330
1F
100
AcDbEntity
  8
freecads.com
100
AcDbCircle
 10
10567.73091937489
 20
29855.17156057453
 30
0.0
 40
388.6160528187284
100
AcDbArc
 50
13.62393436491287
 51
14.18589024413914
  0
ARC
  5
DA12
330
1F
100
AcDbEntity
  8
freecads.com
100
AcDbCircle
 10
10832.04349782985
 20
29921.98350589532
 30
0.0
 40
115.9899807585355
100
AcDbArc
 50
14.1859695802261
 51
15.56884373173458
  0
ARC
  5
DA13
330
1F
100
AcDbEntity
  8
freecads.com
100
AcDbCircle
 10
10982.76846874272
 20
29963.97838884656
 30
0.0
 40
40.47594860240077
100
AcDbArc
 50
191.782237382752
 51
195.5689146092353
  0
ARC
  5
DA14
330
1F
100
AcDbEntity
  8
freecads.com
100
AcDbCircle
 10
11041.79275953586
 20
29976.2901448862
 30
0.0
 40
100.7706103927478
100
AcDbArc
 50
189.8663306939321
 51
191.7822569273157
  0
ARC
  5
DA15
330
1F
100
AcDbEntity
  8
freecads.com
100
AcDbCircle
 10
11046.00376462698
 20
29977.02260165017
 30
0.0
 40
105.0448421113347
100
AcDbArc
 50
187.9655662513205
 51
189.8663674474352
  0
ARC
  5
DA16
330
1F
100
AcDbEntity
  8
freecads.com
100
AcDbCircle
 10
11003.90707572958
 20
29971.13208664442
 30
0.0
 40
62.538026385413
100
AcDbArc
 50
185.1625599487004
 51
187.9655588974467
  0
ARC
  5
DA17
330
1F
100
AcDbEntity
  8
freecads.com
100
AcDbCircle
 10
10901.58756253028
 20
29961.88767466687
 30
0.0
 40
40.19824731649681
100
AcDbArc
 50
5.162584767751495
 51
11.77474515104384
  0
ARC
  5
DA18
330
1F
100
AcDbEntity
  8
freecads.com
100
AcDbCircle
 10
10930.58137599506
 20
29967.93145275743
 30
0.0
 40
10.58121720140122
100
AcDbArc
 50
11.77479118612601
 51
29.61723102815908
  0
ARC
  5
DA19
330
1F
100
AcDbEntity
  8
freecads.com
100
AcDbCircle
 10
10932.29175943213
 20
29968.90375801875
 30
0.0
 40
8.613785112879652
100
AcDbArc
 50
29.61727875194569
 51
49.92573041316345
  0
ARC
  5
DA1A
330
1F
100
AcDbEntity
  8
freecads.com
100
AcDbCircle
 10
10924.31295194826
 20
29959.41998466384
 30
0.0
 40
21.00746599920888
100
AcDbArc
 50
49.92571993897784
 51
60.35985849494167
  0
ARC
  5
DA1B
330
1F
100
AcDbEntity
  8
freecads.com
100
AcDbCircle
 10
10937.01493895782
 20
29981.7431014895
 30
0.0
 40
4.67642036565912
100
AcDbArc
 50
227.6468688956033
 51
240.359893528823
  0
ARC
  5
DA1C
330
1F
100
AcDbEntity
  8
freecads.com
100
AcDbCircle
 10
10934.92188800114
 20
29979.44715277401
 30
0.0
 40
1.569614479959582
100
AcDbArc
 50
198.9582602016675
 51
227.6469555852751
  0
ARC
  5
DA1D
330
1F
100
AcDbEntity
  8
freecads.com
100
AcDbCircle
 10
10934.88832257815
 20
29979.43562256585
 30
0.0
 40
1.534123871045204
100
AcDbArc
 50
169.8518284157044
 51
198.9582584098309
  0
ARC
  5
DA1E
330
1F
100
AcDbEntity
  8
freecads.com
100
AcDbCircle
 10
10937.70170407402
 20
29978.93204543345
 30
0.0
 40
4.392218580741346
100
AcDbArc
 50
156.5688707652845
 51
169.8518696983611
  0
ARC
  5
DA1F
330
1F
100
AcDbEntity
  8
freecads.com
100
AcDbCircle
 10
10926.31829188386
 20
29983.86543998895
 30
0.0
 40
8.014249689136139
100
AcDbArc
 50
336.5688206818161
 51
343.6739703439885
  0
ARC
  5
DA20
330
1F
100
AcDbEntity
  8
freecads.com
100
AcDbCircle
 10
10913.88160555218
 20
29987.50831333039
 30
0.0
 40
20.97348165303932
100
AcDbArc
 50
343.6739761677459
 51
347.1385026188114
  0
ARC
  5
DA21
330
1F
100
AcDbEntity
  8
freecads.com
100
AcDbCircle
 10
10912.68301118833
 20
29987.78196127116
 30
0.0
 40
22.20291715123067
100
AcDbArc
 50
347.1385510293726
 51
350.5609173058386
  0
ARC
  5
DA22
330
1F
100
AcDbEntity
  8
freecads.com
100
AcDbCircle
 10
10920.58851370646
 20
29986.46766657848
 30
0.0
 40
14.1889081293143
100
AcDbArc
 50
350.5609424275053
 51
355.3474233507863
  0
ARC
  5
DA23
330
1F
100
AcDbEntity
  8
freecads.com
100
AcDbCircle
 10
10940.81969101722
 20
29984.82121802672
 30
0.0
 40
6.10915404945227
100
AcDbArc
 50
164.2917312404955
 51
175.3474209123297
  0
ARC
  5
DA24
330
1F
100
AcDbEntity
  8
freecads.com
100
AcDbCircle
 10
10944.2994430535
 20
29983.842557593
 30
0.0
 40
9.723908602462259
100
AcDbArc
 50
156.4869145911198
 51
164.2917065024523
  0
ARC
  5
DA25
330
1F
100
AcDbEntity
  8
freecads.com
100
AcDbCircle
 10
10943.95794729519
 20
29983.99113021007
 30
0.0
 40
9.351493275916187
100
AcDbArc
 50
148.575868972234
 51
156.4868768865983
  0
ARC
  5
DA26
330
1F
100
AcDbEntity
  8
freecads.com
100
AcDbCircle
 10
10939.85469724707
 20
29986.49813396296
 30
0.0
 40
4.542987398366924
100
AcDbArc
 50
135.000028129441
 51
148.5758321020209
  0
ARC
  5
DA27
330
1F
100
AcDbEntity
  8
freecads.com
100
AcDbCircle
 10
10933.23954959124
 20
29993.11328001839
 30
0.0
 40
4.812243001950871
100
AcDbArc
 50
314.9999869183334
 51
328.9075981432481
  0
ARC
  5
DA28
330
1F
100
AcDbEntity
  8
freecads.com
100
AcDbCircle
 10
10934.36667065225
 20
29992.43356493683
 30
0.0
 40
3.496030831268052
100
AcDbArc
 50
328.9075424853182
 51
346.5788969646454
  0
ARC
  5
DA29
330
1F
100
AcDbEntity
  8
freecads.com
100
AcDbCircle
 10
10934.03284909641
 20
29992.51322066127
 30
0.0
 40
3.839224458219449
100
AcDbArc
 50
346.5789220755167
 51
3.317051997623656
  0
ARC
  5
DA2A
330
1F
100
AcDbEntity
  8
freecads.com
100
AcDbCircle
 10
10931.16819557584
 20
29992.34718330803
 30
0.0
 40
6.708685765769573
100
AcDbArc
 50
3.317112208041551
 51
14.33781814022809
  0
ARC
  5
DA2B
330
1F
100
AcDbEntity
  8
freecads.com
100
AcDbCircle
 10
11030.24307299384
 20
30017.6706993238
 30
0.0
 40
95.55133476421584
100
AcDbArc
 50
193.6410986039414
 51
194.3378131366706
  0
ARC
  5
DA2C
330
1F
100
AcDbEntity
  8
freecads.com
100
AcDbCircle
 10
11068.89300764837
 20
30027.05057952601
 30
0.0
 40
135.3231790940525
100
AcDbArc
 50
193.1044043193523
 51
193.6411502004348
  0
ARC
  5
DA2D
330
1F
100
AcDbEntity
  8
freecads.com
100
AcDbCircle
 10
11058.92578387273
 20
30024.7305230704
 30
0.0
 40
125.0894988317406
100
AcDbArc
 50
192.561787530465
 51
193.1044921396111
  0
ARC
  5
DA2E
330
1F
100
AcDbEntity
  8
freecads.com
100
AcDbCircle
 10
10974.81326727972
 20
30005.98805171275
 30
0.0
 40
38.91412137274448
100
AcDbArc
 50
191.2664757430574
 51
192.5618049331078
  0
ARC
  5
DA2F
330
1F
100
AcDbEntity
  8
freecads.com
100
AcDbCircle
 10
10930.57742217637
 20
29997.17577225086
 30
0.0
 40
6.190936673137774
100
AcDbArc
 50
11.26646175899187
 51
29.00935101186276
  0
ARC
  5
DA30
330
1F
100
AcDbEntity
  8
freecads.com
100
AcDbCircle
 10
10905.18113069883
 20
29983.09291624735
 30
0.0
 40
35.23053815159425
100
AcDbArc
 50
29.00941204893485
 51
33.9092879588034
  0
ARC
  5
DA31
330
1F
100
AcDbEntity
  8
freecads.com
100
AcDbCircle
 10
10905.51551749564
 20
29983.31770757735
 30
0.0
 40
34.82761673023594
100
AcDbArc
 50
33.9092687942886
 51
39.03455301274884
  0
ARC
  5
DA32
330
1F
100
AcDbEntity
  8
freecads.com
100
AcDbCircle
 10
10923.16747064278
 20
29997.629597117
 30
0.0
 40
12.10270458291107
100
AcDbArc
 50
39.03460732593579
 51
50.30979098357232
  0
ARC
  5
DA33
330
1F
100
AcDbEntity
  8
freecads.com
100
AcDbCircle
 10
10928.09170556511
 20
30003.56293183966
 30
0.0
 40
4.392156580240529
100
AcDbArc
 50
50.30977145514623
 51
78.20171608222448
  0
ARC
  5
DA34
330
1F
100
AcDbEntity
  8
freecads.com
100
AcDbCircle
 10
10922.8996983088
 20
29978.70636038816
 30
0.0
 40
29.78518876769245
100
AcDbArc
 50
78.20176145066715
 51
84.99001305310899
  0
ARC
  5
DA35
330
1F
100
AcDbEntity
  8
freecads.com
100
AcDbCircle
 10
10922.95096389926
 20
29979.29082924986
 30
0.0
 40
29.19847588200483
100
AcDbArc
 50
84.99006883028457
 51
92.11880159732992
  0
ARC
  5
DA36
330
1F
100
AcDbEntity
  8
freecads.com
100
AcDbCircle
 10
10922.1783195847
 20
30000.17498556823
 30
0.0
 40
8.300031816313074
100
AcDbArc
 50
92.11883858782881
 51
110.3006562742413
  0
ARC
  5
DA37
330
1F
100
AcDbEntity
  8
freecads.com
100
AcDbCircle
 10
11052.67190123237
 20
29973.39015500313
 30
0.0
 40
29.04911873009672
100
AcDbArc
 50
121.3734253051849
 51
124.2997055057865
  0
ARC
  5
DA38
330
1F
100
AcDbEntity
  8
freecads.com
100
AcDbCircle
 10
11049.98844305242
 20
29977.32399331144
 30
0.0
 40
24.28718302710605
100
AcDbArc
 50
124.2996952611988
 51
127.6464476025255
  0
ARC
  5
DA39
330
1F
100
AcDbEntity
  8
freecads.com
100
AcDbCircle
 10
11048.40499795506
 20
29979.37663516799
 30
0.0
 40
21.69476389313446
100
AcDbArc
 50
127.6463523420264
 51
130.8130031337521
  0
ARC
  5
DA3A
330
1F
100
AcDbEntity
  8
freecads.com
100
AcDbCircle
 10
11035.61000972994
 20
29994.19297612803
 30
0.0
 40
2.118357605840578
100
AcDbArc
 50
130.8130694507849
 51
148.2825588453368
  0
ARC
  5
DA3B
330
1F
100
AcDbEntity
  8
freecads.com
100
AcDbCircle
 10
11036.28549438403
 20
29993.77550360888
 30
0.0
 40
2.912437464652139
100
AcDbArc
 50
148.2825490406639
 51
188.4154586174335
  0
ARC
  5
DA3C
330
1F
100
AcDbEntity
  8
freecads.com
100
AcDbCircle
 10
11077.87403618209
 20
29999.92827048649
 30
0.0
 40
44.95364759398355
100
AcDbArc
 50
188.4155083592171
 51
193.8639978486144
  0
ARC
  5
DA3D
330
1F
100
AcDbEntity
  8
freecads.com
100
AcDbCircle
 10
11072.64018089608
 20
29998.63652520124
 30
0.0
 40
39.56274349201165
100
AcDbArc
 50
193.864016624147
 51
200.3170241229858
  0
ARC
  5
DA3E
330
1F
100
AcDbEntity
  8
freecads.com
100
AcDbCircle
 10
11046.35173218056
 20
29988.90324672487
 30
0.0
 40
11.53027578460323
100
AcDbArc
 50
200.3169998058347
 51
216.4766824338039
  0
ARC
  5
DA3F
330
1F
100
AcDbEntity
  8
freecads.com
100
AcDbCircle
 10
11019.6582696815
 20
29969.16791364628
 30
0.0
 40
21.66647574188723
100
AcDbArc
 50
28.74838462510442
 51
36.47671724874488
  0
ARC
  5
DA40
330
1F
100
AcDbEntity
  8
freecads.com
100
AcDbCircle
 10
11035.87883459367
 20
29978.06622923214
 30
0.0
 40
3.165482624339737
100
AcDbArc
 50
356.7844702289019
 51
28.74832278805549
  0
ARC
  5
DA41
330
1F
100
AcDbEntity
  8
freecads.com
100
AcDbCircle
 10
11035.95255685206
 20
29978.06208562533
 30
0.0
 40
3.091644010764185
100
AcDbArc
 50
324.3045560105221
 51
356.7845044195059
  0
ARC
  5
DA42
330
1F
100
AcDbEntity
  8
freecads.com
100
AcDbCircle
 10
11021.93734820905
 20
29988.1313756318
 30
0.0
 40
20.34900981615987
100
AcDbArc
 50
316.2270643012659
 51
324.3044856941441
  0
ARC
  5
DA43
330
1F
100
AcDbEntity
  8
freecads.com
100
AcDbCircle
 10
11042.81798178819
 20
29968.12647973875
 30
0.0
 40
8.568056396687762
100
AcDbArc
 50
136.2270006156125
 51
153.3562655453616
  0
ARC
  5
DA44
330
1F
100
AcDbEntity
  8
freecads.com
100
AcDbCircle
 10
11045.59244923858
 20
29966.73447101495
 30
0.0
 40
11.67214368933413
100
AcDbArc
 50
153.3562257749318
 51
166.9423068152928
  0
ARC
  5
DA45
330
1F
100
AcDbEntity
  8
freecads.com
100
AcDbCircle
 10
11072.8501897771
 20
29960.4126284791
 30
0.0
 40
39.65338941416334
100
AcDbArc
 50
166.9423337941564
 51
173.1612951392133
  0
ARC
  5
DA46
330
1F
100
AcDbEntity
  8
freecads.com
100
AcDbCircle
 10
11671.17390175312
 20
29888.65703453296
 30
0.0
 40
642.2644825541128
100
AcDbArc
 50
173.1613087182015
 51
173.9771971718303
  0
ARC
  5
DA47
330
1F
100
AcDbEntity
  8
freecads.com
100
AcDbCircle
 10
11364.86054261603
 20
29920.97527226073
 30
0.0
 40
334.2509398719136
100
AcDbArc
 50
173.9772221537916
 51
175.420139999711
  0
ARC
  5
DA48
330
1F
100
AcDbEntity
  8
freecads.com
100
AcDbCircle
 10
11137.44690487531
 20
29939.19229500897
 30
0.0
 40
106.108829449184
100
AcDbArc
 50
175.4202525580092
 51
178.8135190134818
  0
ARC
  5
DA49
330
1F
100
AcDbEntity
  8
freecads.com
100
AcDbCircle
 10
11117.90570781914
 20
29939.59713960644
 30
0.0
 40
86.5634391610204
100
AcDbArc
 50
178.8136034807673
 51
182.6525199968516
  0
ARC
  5
DA4A
330
1F
100
AcDbEntity
  8
freecads.com
100
AcDbCircle
 10
11191.04915654481
 20
29942.98585393668
 30
0.0
 40
159.7853448743475
100
AcDbArc
 50
182.6525565245983
 51
185.0788275489381
  0
ARC
  5
DA4B
330
1F
100
AcDbEntity
  8
freecads.com
100
AcDbCircle
 10
10922.71194170232
 20
29919.13733417869
 30
0.0
 40
109.6095562727807
100
AcDbArc
 50
358.962011105413
 51
5.078830796477116
  0
ARC
  5
DA4C
330
1F
100
AcDbEntity
  8
freecads.com
100
AcDbCircle
 10
11008.01072476372
 20
29917.59187154666
 30
0.0
 40
24.29677383952606
100
AcDbArc
 50
340.2487224379802
 51
358.9619950221881
  0
ARC
  5
DA4D
330
1F
100
AcDbEntity
  8
freecads.com
100
AcDbCircle
 10
11020.64671567899
 20
29913.05477517371
 30
0.0
 40
10.87092154225528
100
AcDbArc
 50
309.6288352886146
 51
340.2486926130327
  0
ARC
  5
DA4E
330
1F
100
AcDbEntity
  8
freecads.com
100
AcDbCircle
 10
11021.0401333341
 20
29912.57970371367
 30
0.0
 40
10.2540987609887
100
AcDbArc
 50
277.6393548129739
 51
309.6288289250438
  0
ARC
  5
DA4F
330
1F
100
AcDbEntity
  8
freecads.com
100
AcDbCircle
 10
11019.75537619801
 20
29922.15813787836
 30
0.0
 40
19.91831119375874
100
AcDbArc
 50
269.6908750112573
 51
277.6394239777179
  0
ARC
  5
DA50
330
1F
100
AcDbEntity
  8
freecads.com
100
AcDbCircle
 10
11019.65738233979
 20
29903.99553597934
 30
0.0
 40
1.755444940365205
100
AcDbArc
 50
222.5807104913688
 51
269.6909125559581
  0
ARC
  5
DA51
330
1F
100
AcDbEntity
  8
freecads.com
100
AcDbCircle
 10
11019.22829655456
 20
29903.60123502914
 30
0.0
 40
1.172703273411994
100
AcDbArc
 50
160.5009248443336
 51
222.5806072590538
  0
ARC
  5
DA52
330
1F
100
AcDbEntity
  8
freecads.com
100
AcDbCircle
 10
11027.5677113514
 20
29900.6482531741
 30
0.0
 40
10.01950727203369
100
AcDbArc
 50
147.657259420193
 51
160.5009696812013
  0
ARC
  5
DA53
330
1F
100
AcDbEntity
  8
freecads.com
100
AcDbCircle
 10
11016.91297254802
 20
29907.39502409647
 30
0.0
 40
2.59169318023848
100
AcDbArc
 50
327.6573534259085
 51
5.735019292114334
  0
ARC
  5
DA54
330
1F
100
AcDbEntity
  8
freecads.com
100
AcDbCircle
 10
11004.61609184011
 20
29906.16004961243
 30
0.0
 40
14.95043248167109
100
AcDbArc
 50
5.734986485026547
 51
16.15220056195125
  0
ARC
  5
DA55
330
1F
100
AcDbEntity
  8
freecads.com
100
AcDbCircle
 10
11002.82381784829
 20
29905.64099382941
 30
0.0
 40
16.81635449693464
100
AcDbArc
 50
16.15211247712953
 51
26.4343840891565
  0
ARC
  5
DA56
330
1F
100
AcDbEntity
  8
freecads.com
100
AcDbCircle
 10
11008.29276470137
 20
29908.35989941633
 30
0.0
 40
10.70883230930629
100
AcDbArc
 50
26.43436094205419
 51
40.85292744839886
  0
ARC
  5
DA57
330
1F
100
AcDbEntity
  8
freecads.com
100
AcDbCircle
 10
11012.5840351794
 20
29912.07094575576
 30
0.0
 40
5.035485215304341
100
AcDbArc
 50
40.85294585630297
 51
82.1091172980431
  0
ARC
  5
DA58
330
1F
100
AcDbEntity
  8
freecads.com
100
AcDbCircle
 10
11012.33401062004
 20
29910.26699542882
 30
0.0
 40
6.856679620732872
100
AcDbArc
 50
82.10913100819661
 51
114.8601387514512
  0
ARC
  5
DA59
330
1F
100
AcDbEntity
  8
freecads.com
100
AcDbCircle
 10
11012.70120545454
 20
29909.47450439388
 30
0.0
 40
7.73010625585413
100
AcDbArc
 50
114.8601566948288
 51
145.3215173284666
  0
ARC
  5
DA5A
330
1F
100
AcDbEntity
  8
freecads.com
100
AcDbCircle
 10
11011.69051799903
 20
29910.17377418664
 30
0.0
 40
6.501095525307656
100
AcDbArc
 50
145.3215029892399
 51
180.0000053281645
  0
ARC
  5
DA5B
330
1F
100
AcDbEntity
  8
freecads.com
100
AcDbCircle
 10
10996.4462244574
 20
29910.17376620342
 30
0.0
 40
8.74319801632207
100
AcDbArc
 50
352.2799569537557
 51
0.0000483536872339
  0
ARC
  5
DA5C
330
1F
100
AcDbEntity
  8
freecads.com
100
AcDbCircle
 10
10997.92729625272
 20
29909.97298232888
 30
0.0
 40
7.248578390102135
100
AcDbArc
 50
343.3946862803475
 51
352.2800157839171
  0
ARC
  5
DA5D
330
1F
100
AcDbEntity
  8
freecads.com
100
AcDbCircle
 10
10999.53465842242
 20
29909.49363870154
 30
0.0
 40
5.571264031490487
100
AcDbArc
 50
333.6788497666932
 51
343.3947437439284
  0
ARC
  5
DA5E
330
1F
100
AcDbEntity
  8
freecads.com
100
AcDbCircle
 10
11003.52677729342
 20
29907.51877780661
 30
0.0
 40
1.117379363630682
100
AcDbArc
 50
301.7174192435637
 51
333.6787995049535
  0
ARC
  5
DA5F
330
1F
100
AcDbEntity
  8
freecads.com
100
AcDbCircle
 10
11004.44362630642
 20
29906.03528298485
 30
0.0
 40
0.6265727569318948
100
AcDbArc
 50
121.7174787517506
 51
172.2773455054697
  0
ARC
  5
DA60
330
1F
100
AcDbEntity
  8
freecads.com
100
AcDbCircle
 10
11005.15852122422
 20
29905.9383393857
 30
0.0
 40
1.34801076875686
100
AcDbArc
 50
172.2774227896661
 51
200.8381879674469
  0
ARC
  5
DA61
330
1F
100
AcDbEntity
  8
freecads.com
100
AcDbCircle
 10
11007.22029805407
 20
29906.72309994795
 30
0.0
 40
3.554087112889969
100
AcDbArc
 50
200.8380695371022
 51
216.960352258241
  0
ARC
  5
DA62
330
1F
100
AcDbEntity
  8
freecads.com
100
AcDbCircle
 10
11014.52284168633
 20
29912.21803368322
 30
0.0
 40
12.69309363745604
100
AcDbArc
 50
216.9603196842139
 51
223.2118009493479
  0
LINE
  5
DA63
330
1F
100
AcDbEntity
  8
freecads.com
100
AcDbLine
 10
11005.27176447372
 20
29903.52710758207
 30
0.0
 11
11007.50451747372
 21
29901.15045058208
 31
0.0
  0
LINE
  5
DA64
330
1F
100
AcDbEntity
  8
freecads.com
100
AcDbLine
 10
11007.50451747372
 20
29901.15045058208
 30
0.0
 11
11004.84626347372
 21
29899.05946758207
 31
0.0
  0
ARC
  5
DA65
330
1F
100
AcDbEntity
  8
freecads.com
100
AcDbCircle
 10
11011.32125174562
 20
29890.82785305218
 30
0.0
 40
10.47305833508029
100
AcDbArc
 50
128.1885914254299
 51
137.0460024624732
  0
ARC
  5
DA66
330
1F
100
AcDbEntity
  8
freecads.com
100
AcDbCircle
 10
11026.24127645042
 20
29876.93702971606
 30
0.0
 40
30.85839890488154
100
AcDbArc
 50
137.0459282685358
 51
141.0026108343912
  0
ARC
  5
DA67
330
1F
100
AcDbEntity
  8
freecads.com
100
AcDbCircle
 10
11028.25615498547
 20
29875.3055481495
 30
0.0
 40
33.45097824076911
100
AcDbArc
 50
141.0025880523396
 51
144.8916814052893
  0
ARC
  5
DA68
330
1F
100
AcDbEntity
  8
freecads.com
100
AcDbCircle
 10
11020.18797610722
 20
29880.97771444813
 30
0.0
 40
23.58847445466717
100
AcDbArc
 50
144.8916914101339
 51
149.9448185393073
  0
ARC
  5
DA69
330
1F
100
AcDbEntity
  8
freecads.com
100
AcDbCircle
 10
11044.90764900866
 20
29866.67406496574
 30
0.0
 40
52.14817712939774
100
AcDbArc
 50
149.9448387834433
 51
156.6291311164357
  0
ARC
  5
DA6A
330
1F
100
AcDbEntity
  8
freecads.com
100
AcDbCircle
 10
11130.55374928717
 20
29829.66352583508
 30
0.0
 40
145.4489515080327
100
AcDbArc
 50
156.6291852046231
 51
159.7385509579563
  0
ARC
  5
DA6B
330
1F
100
AcDbEntity
  8
freecads.com
100
AcDbCircle
 10
11243.97039165026
 20
29787.79594418266
 30
0.0
 40
266.3465493266543
100
AcDbArc
 50
159.7385058466266
 51
161.4083044977979
  0
ARC
  5
DA6C
330
1F
100
AcDbEntity
  8
freecads.com
100
AcDbCircle
 10
10994.52295187534
 20
29871.70403197078
 30
0.0
 40
3.164877460011983
100
AcDbArc
 50
161.4082614544955
 51
200.9935959166889
  0
ARC
  5
DA6D
330
1F
100
AcDbEntity
  8
freecads.com
100
AcDbCircle
 10
10993.25215678717
 20
29871.21638270749
 30
0.0
 40
1.803730164490662
100
AcDbArc
 50
200.9936049449075
 51
249.3065171051211
  0
ARC
  5
DA6E
330
1F
100
AcDbEntity
  8
freecads.com
100
AcDbCircle
 10
10994.76193522175
 20
29875.21329572787
 30
0.0
 40
6.076287316124917
100
AcDbArc
 50
249.3066019622879
 51
268.8885734655238
  0
ARC
  5
DA6F
330
1F
100
AcDbEntity
  8
freecads.com
100
AcDbCircle
 10
10994.73907138412
 20
29874.03502234807
 30
0.0
 40
4.897792126243477
100
AcDbArc
 50
268.8886291575323
 51
291.1926363052263
  0
ARC
  5
DA70
330
1F
100
AcDbEntity
  8
freecads.com
100
AcDbCircle
 10
10996.12476877623
 20
29870.46111790734
 30
0.0
 40
1.064653697490371
100
AcDbArc
 50
291.1926556383712
 51
0.0000363116435105
  0
ARC
  5
DA71
330
1F
100
AcDbEntity
  8
freecads.com
100
AcDbCircle
 10
11001.68475398697
 20
29870.46112298631
 30
0.0
 40
4.495331513251696
100
AcDbArc
 50
158.0829533408595
 51
180.000056134575
  0
ARC
  5
DA72
330
1F
100
AcDbEntity
  8
freecads.com
100
AcDbCircle
 10
11033.78790209111
 20
29857.54468065867
 30
0.0
 40
39.09947289256706
100
AcDbArc
 50
153.6202260865507
 51
158.0830031601626
  0
ARC
  5
DA73
330
1F
100
AcDbEntity
  8
freecads.com
100
AcDbCircle
 10
11036.24986140894
 20
29856.32359206345
 30
0.0
 40
41.84761791030505
100
AcDbArc
 50
149.4643912627026
 51
153.620171566616
  0
ARC
  5
DA74
330
1F
100
AcDbEntity
  8
freecads.com
100
AcDbCircle
 10
11002.8926910741
 20
29876.00040185489
 30
0.0
 40
3.119363930610254
100
AcDbArc
 50
121.7174297587769
 51
149.4643961538746
  0
ARC
  5
DA75
330
1F
100
AcDbEntity
  8
freecads.com
100
AcDbCircle
 10
11001.45594229068
 20
29878.32511494843
 30
0.0
 40
0.3865013226544236
100
AcDbArc
 50
65.61370957611579
 51
121.717482560812
  0
ARC
  5
DA76
330
1F
100
AcDbEntity
  8
freecads.com
100
AcDbCircle
 10
11001.31092744063
 20
29878.00522642553
 30
0.0
 40
0.737724860901253
100
AcDbArc
 50
30.93503541764004
 51
65.61376173232325
  0
ARC
  5
DA77
330
1F
100
AcDbEntity
  8
freecads.com
100
AcDbCircle
 10
11000.24313527977
 20
29877.36528183271
 30
0.0
 40
1.982598019364793
100
AcDbArc
 50
11.72889602540689
 51
30.93496184754453
  0
ARC
  5
DA78
330
1F
100
AcDbEntity
  8
freecads.com
100
AcDbCircle
 10
10997.0137384569
 20
29876.69479546561
 30
0.0
 40
5.280863595087797
100
AcDbArc
 50
2.485122723011917
 51
11.72902058790795
  0
ARC
  5
DA79
330
1F
100
AcDbEntity
  8
freecads.com
100
AcDbCircle
 10
11183.59863106023
 20
29884.79282166946
 30
0.0
 40
181.4796787477565
100
AcDbArc
 50
182.4851523177621
 51
185.7872233539955
  0
ARC
  5
DA7A
330
1F
100
AcDbEntity
  8
freecads.com
100
AcDbCircle
 10
11258.03441702313
 20
29892.33682518384
 30
0.0
 40
256.2967772007596
100
AcDbArc
 50
185.7871926067085
 51
188.3365204612932
  0
ARC
  5
DA7B
330
1F
100
AcDbEntity
  8
freecads.com
100
AcDbCircle
 10
11349.17311247947
 20
29905.69164386888
 30
0.0
 40
348.4087362047918
100
AcDbArc
 50
188.3364858095495
 51
190.0484518588576
  0
ARC
  5
DA7C
330
1F
100
AcDbEntity
  8
freecads.com
100
AcDbCircle
 10
11015.56326298372
 20
29846.57630370045
 30
0.0
 40
9.601777711020996
100
AcDbArc
 50
190.0484953694344
 51
212.8915486611477
  0
ARC
  5
DA7D
330
1F
100
AcDbEntity
  8
freecads.com
100
AcDbCircle
 10
11008.75568598505
 20
29842.17370937981
 30
0.0
 40
1.494623996869128
100
AcDbArc
 50
212.891564362314
 51
293.1494377700592
  0
ARC
  5
DA7E
330
1F
100
AcDbEntity
  8
freecads.com
100
AcDbCircle
 10
11007.22778618856
 20
29845.74726511239
 30
0.0
 40
5.381110631600209
100
AcDbArc
 50
293.1494704007642
 51
324.4803967968461
  0
ARC
  5
DA7F
330
1F
100
AcDbEntity
  8
freecads.com
100
AcDbCircle
 10
11000.38114688718
 20
29850.63446560507
 30
0.0
 40
13.79307820042455
100
AcDbArc
 50
324.480380142866
 51
342.3950298077828
  0
ARC
  5
DA80
330
1F
100
AcDbEntity
  8
freecads.com
100
AcDbCircle
 10
11000.07196777795
 20
29850.73258996198
 30
0.0
 40
14.11745469577164
100
AcDbArc
 50
342.3949623173833
 51
0.0000187507118886
  0
ARC
  5
DA81
330
1F
100
AcDbEntity
  8
freecads.com
100
AcDbCircle
 10
11021.29943648292
 20
29850.73259369666
 30
0.0
 40
7.110014009196275
100
AcDbArc
 50
171.4913557180803
 51
179.9999928648619
  0
ARC
  5
DA82
330
1F
100
AcDbEntity
  8
freecads.com
100
AcDbCircle
 10
11015.43015908579
 20
29851.61066830849
 30
0.0
 40
1.175417798131732
100
AcDbArc
 50
139.2980580008438
 51
171.4913520607554
  0
ARC
  5
DA83
330
1F
100
AcDbEntity
  8
freecads.com
100
AcDbCircle
 10
11015.01775634915
 20
29851.96541476382
 30
0.0
 40
0.6314315255475465
100
AcDbArc
 50
90.9923654584861
 51
139.2980456694255
  0
ARC
  5
DA84
330
1F
100
AcDbEntity
  8
freecads.com
100
AcDbCircle
 10
11015.03829567917
 20
29850.77957228262
 30
0.0
 40
1.817451868667629
100
AcDbArc
 50
69.00640586046411
 51
90.99231601203275
  0
ARC
  5
DA85
330
1F
100
AcDbEntity
  8
freecads.com
100
AcDbCircle
 10
11015.0085071011
 20
29850.70195145872
 30
0.0
 40
1.900592422429806
100
AcDbArc
 50
48.70151664952604
 51
69.0063300938029
  0
ARC
  5
DA86
330
1F
100
AcDbEntity
  8
freecads.com
100
AcDbCircle
 10
11014.42150272409
 20
29850.03374111941
 30
0.0
 40
2.790018752257027
100
AcDbArc
 50
33.47254353008795
 51
48.70153842272805
  0
ARC
  5
DA87
330
1F
100
AcDbEntity
  8
freecads.com
100
AcDbCircle
 10
11014.35391712139
 20
29849.98905452862
 30
0.0
 40
2.871041619944507
100
AcDbArc
 50
18.45689019929562
 51
33.47253050469376
  0
ARC
  5
DA88
330
1F
100
AcDbEntity
  8
freecads.com
100
AcDbCircle
 10
11015.00922097845
 20
29850.20777108673
 30
0.0
 40
2.180201495272356
100
AcDbArc
 50
359.9999078975004
 51
18.45681361412827
  0
ARC
  5
DA89
330
1F
100
AcDbEntity
  8
freecads.com
100
AcDbCircle
 10
11021.01424664124
 20
29850.20776792744
 30
0.0
 40
3.824824167515104
100
AcDbArc
 50
180.0000051735014
 51
203.854867632148
  0
ARC
  5
DA8A
330
1F
100
AcDbEntity
  8
freecads.com
100
AcDbCircle
 10
11021.39017634789
 20
29850.37400230862
 30
0.0
 40
4.235867977622565
100
AcDbArc
 50
203.8548603989499
 51
225.9522618165414
  0
ARC
  5
DA8B
330
1F
100
AcDbEntity
  8
freecads.com
100
AcDbCircle
 10
11021.4737648183
 20
29850.46041782781
 30
0.0
 40
4.356095571554694
100
AcDbArc
 50
225.9522739484828
 51
247.70722097951
  0
ARC
  5
DA8C
330
1F
100
AcDbEntity
  8
freecads.com
100
AcDbCircle
 10
11021.42080370955
 20
29850.33122865366
 30
0.0
 40
4.216472071586553
100
AcDbArc
 50
247.7071680026396
 51
270.0000511497125
  0
ARC
  5
DA8D
330
1F
100
AcDbEntity
  8
freecads.com
100
AcDbCircle
 10
11021.42080800276
 20
29848.87607029681
 30
0.0
 40
2.761313714731664
100
AcDbArc
 50
269.999989022672
 51
301.0456598310141
  0
ARC
  5
DA8E
330
1F
100
AcDbEntity
  8
freecads.com
100
AcDbCircle
 10
11021.73083846515
 20
29848.36102180804
 30
0.0
 40
2.160153309030901
100
AcDbArc
 50
301.0456778906261
 51
338.3545274362242
  0
ARC
  5
DA8F
330
1F
100
AcDbEntity
  8
freecads.com
100
AcDbCircle
 10
11020.99990492536
 20
29848.65108656667
 30
0.0
 40
2.94653833163781
100
AcDbArc
 50
338.3545916373311
 51
9.19188366296262
  0
ARC
  5
DA90
330
1F
100
AcDbEntity
  8
freecads.com
100
AcDbCircle
 10
11018.33685579035
 20
29848.22014560197
 30
0.0
 40
5.644230087658288
100
AcDbArc
 50
9.191966315783846
 51
28.15495794399265
  0
ARC
  5
DA91
330
1F
100
AcDbEntity
  8
freecads.com
100
AcDbCircle
 10
11028.06796151371
 20
29853.42807704141
 30
0.0
 40
5.392842371885299
100
AcDbArc
 50
198.0245952481448
 51
208.1549908800936
  0
ARC
  5
DA92
330
1F
100
AcDbEntity
  8
freecads.com
100
AcDbCircle
 10
11025.6096614306
 20
29852.62816084702
 30
0.0
 40
2.807672122815841
100
AcDbArc
 50
181.5140034803158
 51
198.0246100385479
  0
ARC
  5
DA93
330
1F
100
AcDbEntity
  8
freecads.com
100
AcDbCircle
 10
11024.74094028105
 20
29852.60519709022
 30
0.0
 40
1.938647514542571
100
AcDbArc
 50
161.1822690683332
 51
181.5139141218037
  0
ARC
  5
DA94
330
1F
100
AcDbEntity
  8
freecads.com
100
AcDbCircle
 10
11024.21527581984
 20
29852.78432890867
 30
0.0
 40
1.383299574813389
100
AcDbArc
 50
135.0000489907162
 51
161.1822492134026
  0
ARC
  5
DA95
330
1F
100
AcDbEntity
  8
freecads.com
100
AcDbCircle
 10
11021.69299690903
 20
29855.30660339168
 30
0.0
 40
2.183738338022536
100
AcDbArc
 50
315.0000511143103
 51
354.019100312616
  0
ARC
  5
DA96
330
1F
100
AcDbEntity
  8
freecads.com
100
AcDbCircle
 10
10969.18216312021
 20
29860.80797564402
 30
0.0
 40
54.98196521976304
100
AcDbArc
 50
354.0191426296715
 51
357.7845116116193
  0
ARC
  5
DA97
330
1F
100
AcDbEntity
  8
freecads.com
100
AcDbCircle
 10
10838.40711759497
 20
29865.86730875063
 30
0.0
 40
185.8548401160122
100
AcDbArc
 50
357.7844935840653
 51
359.7820030591663
  0
ARC
  5
DA98
330
1F
100
AcDbEntity
  8
freecads.com
100
AcDbCircle
 10
6130.2382679341
 20
29883.78132454291
 30
0.0
 40
4894.057769990512
100
AcDbArc
 50
359.7819977180397
 51
359.9687819178673
  0
ARC
  5
DA99
330
1F
100
AcDbEntity
  8
freecads.com
100
AcDbCircle
 10
11345.16861729511
 20
29880.93968512703
 30
0.0
 40
320.8733535816867
100
AcDbArc
 50
178.8425421164348
 51
179.9687388937973
  0
ARC
  5
DA9A
330
1F
100
AcDbEntity
  8
freecads.com
100
AcDbCircle
 10
11086.86632636663
 20
29886.1584038589
 30
0.0
 40
62.51834874516914
100
AcDbArc
 50
175.0580898555887
 51
178.8424758760552
  0
ARC
  5
DA9B
330
1F
100
AcDbEntity
  8
freecads.com
100
AcDbCircle
 10
11065.36192202704
 20
29888.01782901094
 30
0.0
 40
40.9337044836453
100
AcDbArc
 50
171.1410455765565
 51
175.0580911613194
  0
ARC
  5
DA9C
330
1F
100
AcDbEntity
  8
freecads.com
100
AcDbCircle
 10
11025.75868225242
 20
29894.19046709678
 30
0.0
 40
0.852311524012196
100
AcDbArc
 50
107.9477043214202
 51
171.1410250425945
  0
ARC
  5
DA9D
330
1F
100
AcDbEntity
  8
freecads.com
100
AcDbCircle
 10
11024.87641909301
 20
29896.91424873107
 30
0.0
 40
2.010794250105456
100
AcDbArc
 50
287.9477202819432
 51
311.8436163203532
  0
ARC
  5
DA9E
330
1F
100
AcDbEntity
  8
freecads.com
100
AcDbCircle
 10
10946.2207478926
 20
29984.75125848905
 30
0.0
 40
119.9177698504092
100
AcDbArc
 50
311.8435874320255
 51
313.1176032620142
  0
ARC
  5
DA9F
330
1F
100
AcDbEntity
  8
freecads.com
100
AcDbCircle
 10
10964.22407211403
 20
29965.52413862317
 30
0.0
 40
93.57765175391874
100
AcDbArc
 50
313.1176835627747
 51
315.0734848134129
  0
ARC
  5
DAA0
330
1F
100
AcDbEntity
  8
freecads.com
100
AcDbCircle
 10
10926.67492458174
 20
30002.97685557345
 30
0.0
 40
146.6120225651385
100
AcDbArc
 50
315.0735502338855
 51
316.4706332158489
  0
LINE
  5
DAA1
330
1F
100
AcDbEntity
  8
freecads.com
100
AcDbLine
 10
11032.97178747372
 20
29902.00130358207
 30
0.0
 11
11039.25415347372
 21
29908.61475658207
 31
0.0
  0
LINE
  5
DAA2
330
1F
100
AcDbEntity
  8
freecads.com
100
AcDbLine
 10
11039.25415347372
 20
29908.61475658207
 30
0.0
 11
11038.87366947372
 21
29914.11475658207
 31
0.0
  0
ARC
  5
DAA3
330
1F
100
AcDbEntity
  8
freecads.com
100
AcDbCircle
 10
11073.25325018481
 20
29916.49310837084
 30
0.0
 40
34.4617487528041
100
AcDbArc
 50
175.8506507718
 51
183.957371047079
  0
ARC
  5
DAA4
330
1F
100
AcDbEntity
  8
freecads.com
100
AcDbCircle
 10
11373.27869705508
 20
29894.72749988203
 30
0.0
 40
335.2756621321373
100
AcDbArc
 50
174.3266465272504
 51
175.8506917968923
  0
ARC
  5
DAA5
330
1F
100
AcDbEntity
  8
freecads.com
100
AcDbCircle
 10
11344.28496845133
 20
29897.60826922504
 30
0.0
 40
306.1391707483626
100
AcDbArc
 50
172.589322360088
 51
174.3267262947445
  0
ARC
  5
DAA6
330
1F
100
AcDbEntity
  8
freecads.com
100
AcDbCircle
 10
11146.46242283716
 20
29923.33858704167
 30
0.0
 40
106.6503018655691
100
AcDbArc
 50
168.774322702628
 51
172.5894108198388
  0
ARC
  5
DAA7
330
1F
100
AcDbEntity
  8
freecads.com
100
AcDbCircle
 10
11083.94588123521
 20
29935.74633136457
 30
0.0
 40
42.91436150966863
100
AcDbArc
 50
166.7392533161287
 51
168.7743459136304
  0
ARC
  5
DAA8
330
1F
100
AcDbEntity
  8
freecads.com
100
AcDbCircle
 10
11042.61496047489
 20
29945.48665467093
 30
0.0
 40
0.4512138518755622
100
AcDbArc
 50
114.3542121949007
 51
166.7393651532031
  0
ARC
  5
DAA9
330
1F
100
AcDbEntity
  8
freecads.com
100
AcDbCircle
 10
11042.53033357302
 20
29945.67361111882
 30
0.0
 40
0.2459958557741245
100
AcDbArc
 50
33.00153239029081
 51
114.3542588892529
  0
ARC
  5
DAAA
330
1F
100
AcDbEntity
  8
freecads.com
100
AcDbCircle
 10
11027.4488755291
 20
29935.87907188046
 30
0.0
 40
18.22885924352418
100
AcDbArc
 50
29.23260109716153
 51
33.00140689700756
  0
ARC
  5
DAAB
330
1F
100
AcDbEntity
  8
freecads.com
100
AcDbCircle
 10
11033.80201706077
 20
29939.43447302811
 30
0.0
 40
10.94852376758309
100
AcDbArc
 50
12.59521196251822
 51
29.23257907493397
  0
ARC
  5
DAAC
330
1F
100
AcDbEntity
  8
freecads.com
100
AcDbCircle
 10
11021.94845736361
 20
29936.78595282717
 30
0.0
 40
23.09436819062694
100
AcDbArc
 50
3.074637082480486
 51
12.59515320392588
  0
ARC
  5
DAAD
330
1F
100
AcDbEntity
  8
freecads.com
100
AcDbCircle
 10
11000.70361209158
 20
29935.64489458719
 30
0.0
 40
44.36983444955965
100
AcDbArc
 50
356.4543462905677
 51
3.07452139993365
  0
ARC
  5
DAAE
330
1F
100
AcDbEntity
  8
freecads.com
100
AcDbCircle
 10
10868.42272326795
 20
29943.84155280742
 30
0.0
 40
176.9044290048637
100
AcDbArc
 50
354.0862133378746
 51
356.4542782189742
  0
ARC
  5
DAAF
330
1F
100
AcDbEntity
  8
freecads.com
100
AcDbCircle
 10
11098.03863676752
 20
29920.05723052022
 30
0.0
 40
53.94002451071333
100
AcDbArc
 50
174.0862306053008
 51
178.6475182260488
  0
ARC
  5
DAB0
330
1F
100
AcDbEntity
  8
freecads.com
100
AcDbCircle
 10
11369.43463873445
 20
29913.65027519162
 30
0.0
 40
325.4116417382832
100
AcDbArc
 50
178.6476252529201
 51
179.8551799270015
  0
ARC
  5
DAB1
330
1F
100
AcDbEntity
  8
freecads.com
100
AcDbCircle
 10
11409.79632752502
 20
29913.54873719819
 30
0.0
 40
365.7734582457935
100
AcDbArc
 50
179.8552551010106
 51
181.0786229656112
  0
ARC
  5
DAB2
330
1F
100
AcDbEntity
  8
freecads.com
100
AcDbCircle
 10
11398.34450965645
 20
29913.33318088069
 30
0.0
 40
354.3196118605138
100
AcDbArc
 50
181.0786319555901
 51
182.3315635795312
  0
ARC
  5
DAB3
330
1F
100
AcDbEntity
  8
freecads.com
100
AcDbCircle
 10
11920.71912525261
 20
29934.60237337721
 30
0.0
 40
877.1270501861955
100
AcDbArc
 50
182.3315779308907
 51
183.0812332365145
  0
ARC
  5
DAB4
330
1F
100
AcDbEntity
  8
freecads.com
100
AcDbCircle
 10
11107.27544917287
 20
29890.81510595521
 30
0.0
 40
62.50570321427017
100
AcDbArc
 50
183.0812824323466
 51
188.2482569512718
  0
ARC
  5
DAB5
330
1F
100
AcDbEntity
  8
freecads.com
100
AcDbCircle
 10
11073.53878426423
 20
29885.92459616352
 30
0.0
 40
28.4164139113373
100
AcDbArc
 50
188.2483086592166
 51
197.011664570597
  0
ARC
  5
DAB6
330
1F
100
AcDbEntity
  8
freecads.com
100
AcDbCircle
 10
11106.9793538279
 20
29896.15581940921
 30
0.0
 40
63.38711052786549
100
AcDbArc
 50
197.011638903407
 51
201.8221735064533
  0
ARC
  5
DAB7
330
1F
100
AcDbEntity
  8
freecads.com
100
AcDbCircle
 10
10877.48928225048
 20
29804.26352595048
 30
0.0
 40
183.8170288988995
100
AcDbArc
 50
20.81875162398454
 51
21.82210890442587
  0
ARC
  5
DAB8
330
1F
100
AcDbEntity
  8
freecads.com
100
AcDbCircle
 10
10940.42723241154
 20
29828.19485801173
 30
0.0
 40
116.4828308664061
100
AcDbArc
 50
19.40660096625918
 51
20.81880946594708
  0
ARC
  5
DAB9
330
1F
100
AcDbEntity
  8
freecads.com
100
AcDbCircle
 10
10899.7439657278
 20
29813.86248971194
 30
0.0
 40
159.6168657935534
100
AcDbArc
 50
18.54198518169978
 51
19.40668898295742
  0
ARC
  5
DABA
330
1F
100
AcDbEntity
  8
freecads.com
100
AcDbCircle
 10
11048.99019197816
 20
29863.92121375521
 30
0.0
 40
2.199230495566562
100
AcDbArc
 50
359.9999954895488
 51
18.54205842230884
  0
ARC
  5
DABB
330
1F
100
AcDbEntity
  8
freecads.com
100
AcDbCircle
 10
11050.02075648844
 20
29863.92121436494
 30
0.0
 40
1.168665985279438
100
AcDbArc
 50
329.7302319890693
 51
359.999961618539
  0
ARC
  5
DABC
330
1F
100
AcDbEntity
  8
freecads.com
100
AcDbCircle
 10
11032.6664197212
 20
29874.05000932174
 30
0.0
 40
21.26258277388945
100
AcDbArc
 50
326.0688397836537
 51
329.7301869445864
  0
ARC
  5
DABD
330
1F
100
AcDbEntity
  8
freecads.com
100
AcDbCircle
 10
11031.40270873355
 20
29874.90018564797
 30
0.0
 40
22.78566033133001
100
AcDbArc
 50
321.9192457708418
 51
326.0688401619727
  0
ARC
  5
DABE
330
1F
100
AcDbEntity
  8
freecads.com
100
AcDbCircle
 10
11023.99830547273
 20
29880.70202905685
 30
0.0
 40
32.19239061279313
100
AcDbArc
 50
318.7165292925191
 51
321.9191548864584
  0
ARC
  5
DABF
330
1F
100
AcDbEntity
  8
freecads.com
100
AcDbCircle
 10
11065.78307094983
 20
29844.01456962015
 30
0.0
 40
23.41279175265716
100
AcDbArc
 50
138.7165315321031
 51
143.1786213170476
  0
ARC
  5
DAC0
330
1F
100
AcDbEntity
  8
freecads.com
100
AcDbCircle
 10
11062.12686161451
 20
29846.75191088468
 30
0.0
 40
18.84541790087981
100
AcDbArc
 50
143.1786673278138
 51
148.4292504814384
  0
ARC
  5
DAC1
330
1F
100
AcDbEntity
  8
freecads.com
100
AcDbCircle
 10
11059.66987517353
 20
29848.26171267238
 30
0.0
 40
15.96162113117032
100
AcDbArc
 50
148.4291959532605
 51
153.6131213757818
  0
ARC
  5
DAC2
330
1F
100
AcDbEntity
  8
freecads.com
100
AcDbCircle
 10
11046.93452397946
 20
29854.57996086502
 30
0.0
 40
1.745101505737164
100
AcDbArc
 50
153.6131145611714
 51
180.0000092899994
  0
ARC
  5
DAC3
330
1F
100
AcDbEntity
  8
freecads.com
100
AcDbCircle
 10
11046.30936985811
 20
29854.57996053234
 30
0.0
 40
1.119947384385342
100
AcDbArc
 50
179.9999974555628
 51
238.8585125828626
  0
ARC
  5
DAC4
330
1F
100
AcDbEntity
  8
freecads.com
100
AcDbCircle
 10
11047.40911614486
 20
29856.40006682618
 30
0.0
 40
3.246500655783845
100
AcDbArc
 50
238.8586685289185
 51
265.5582908776848
  0
ARC
  5
DAC5
330
1F
100
AcDbEntity
  8
freecads.com
100
AcDbCircle
 10
11047.64172925226
 20
29859.39471059833
 30
0.0
 40
6.250165114371263
100
AcDbArc
 50
265.5583382969947
 51
283.9619612310276
  0
ARC
  5
DAC6
330
1F
100
AcDbEntity
  8
freecads.com
100
AcDbCircle
 10
11047.01692702133
 20
29861.90773846212
 30
0.0
 40
8.839699217624637
100
AcDbArc
 50
283.9619979564012
 51
298.1550126783313
  0
ARC
  5
DAC7
330
1F
100
AcDbEntity
  8
freecads.com
100
AcDbCircle
 10
11054.06328209592
 20
29848.74151477894
 30
0.0
 40
6.093504253591404
100
AcDbArc
 50
108.1258848209368
 51
118.1549485963129
  0
ARC
  5
DAC8
330
1F
100
AcDbEntity
  8
freecads.com
100
AcDbCircle
 10
11052.45959938111
 20
29853.64048819871
 30
0.0
 40
0.9387260025492022
100
AcDbArc
 50
68.21160543455161
 51
108.1258069162794
  0
ARC
  5
DAC9
330
1F
100
AcDbEntity
  8
freecads.com
100
AcDbCircle
 10
11052.46483663404
 20
29853.65358856826
 30
0.0
 40
0.9246175476227682
100
AcDbArc
 50
27.88786317983071
 51
68.2116374679861
  0
ARC
  5
DACA
330
1F
100
AcDbEntity
  8
freecads.com
100
AcDbCircle
 10
11048.08207767747
 20
29851.33422914535
 30
0.0
 40
5.883246814273172
100
AcDbArc
 50
17.6087637929351
 51
27.88783329330608
  0
ARC
  5
DACB
330
1F
100
AcDbEntity
  8
freecads.com
100
AcDbCircle
 10
11058.65301300144
 20
29854.68931029524
 30
0.0
 40
5.207345737342279
100
AcDbArc
 50
197.6087978854918
 51
206.7080838665432
  0
ARC
  5
DACC
330
1F
100
AcDbEntity
  8
freecads.com
100
AcDbCircle
 10
11057.45149677708
 20
29854.08479441192
 30
0.0
 40
3.862325034690474
100
AcDbArc
 50
206.7080340504972
 51
218.0918138733454
  0
ARC
  5
DACD
330
1F
100
AcDbEntity
  8
freecads.com
100
AcDbCircle
 10
11056.54608323009
 20
29853.37506914341
 30
0.0
 40
2.71189744121323
100
AcDbArc
 50
218.0918266215265
 51
231.393098599948
  0
ARC
  5
DACE
330
1F
100
AcDbEntity
  8
freecads.com
100
AcDbCircle
 10
11055.25680942553
 20
29851.76042469406
 30
0.0
 40
0.6456681119897282
100
AcDbArc
 50
231.3932106910207
 51
270.0000930156789
  0
ARC
  5
DACF
330
1F
100
AcDbEntity
  8
freecads.com
100
AcDbCircle
 10
11055.25680942215
 20
29850.70903647434
 30
0.0
 40
0.405720107739397
100
AcDbArc
 50
27.5143951125425
 51
89.99985149695485
  0
ARC
  5
DAD0
330
1F
100
AcDbEntity
  8
freecads.com
100
AcDbCircle
 10
11052.1112084867
 20
29849.07053294593
 30
0.0
 40
3.952479058911522
100
AcDbArc
 50
15.74066112343424
 51
27.51443012022171
  0
ARC
  5
DAD1
330
1F
100
AcDbEntity
  8
freecads.com
100
AcDbCircle
 10
11049.67559965269
 20
29848.38405966519
 30
0.0
 40
6.482980186628925
100
AcDbArc
 50
6.107262135695911
 51
15.74056835218125
  0
ARC
  5
DAD2
330
1F
100
AcDbEntity
  8
freecads.com
100
AcDbCircle
 10
11044.27186007059
 20
29847.80588806707
 30
0.0
 40
11.91756240313279
100
AcDbArc
 50
359.999992860693
 51
6.107193705143391
  0
ARC
  5
DAD3
330
1F
100
AcDbEntity
  8
freecads.com
100
AcDbCircle
 10
11066.74223143906
 20
29847.80588568162
 30
0.0
 40
10.55280896533604
100
AcDbArc
 50
179.9999951110203
 51
200.2475052848256
  0
ARC
  5
DAD4
330
1F
100
AcDbEntity
  8
freecads.com
100
AcDbCircle
 10
11062.03448373028
 20
29846.06933537595
 30
0.0
 40
5.534991167371055
100
AcDbArc
 50
200.247472682321
 51
233.056408261293
  0
ARC
  5
DAD5
330
1F
100
AcDbEntity
  8
freecads.com
100
AcDbCircle
 10
11061.13616481874
 20
29844.87477851736
 30
0.0
 40
4.040353099055831
100
AcDbArc
 50
233.0563884690692
 51
272.9136782262669
  0
ARC
  5
DAD6
330
1F
100
AcDbEntity
  8
freecads.com
100
AcDbCircle
 10
11061.06718360134
 20
29846.22994933536
 30
0.0
 40
5.39727843018839
100
AcDbArc
 50
272.9137510733789
 51
305.0083999627157
  0
ARC
  5
DAD7
330
1F
100
AcDbEntity
  8
freecads.com
100
AcDbCircle
 10
11060.12099051802
 20
29847.58081038114
 30
0.0
 40
7.046553093736362
100
AcDbArc
 50
305.0084986623379
 51
316.6051120843839
  0
ARC
  5
DAD8
330
1F
100
AcDbEntity
  8
freecads.com
100
AcDbCircle
 10
11063.36835144666
 20
29844.51048054721
 30
0.0
 40
2.57751759489671
100
AcDbArc
 50
316.6051452311574
 51
341.166430188982
  0
ARC
  5
DAD9
330
1F
100
AcDbEntity
  8
freecads.com
100
AcDbCircle
 10
11062.84923645508
 20
29844.68754695654
 30
0.0
 40
3.125999944446125
100
AcDbArc
 50
341.1663298594158
 51
2.889706206130864
  0
ARC
  5
DADA
330
1F
100
AcDbEntity
  8
freecads.com
100
AcDbCircle
 10
11053.44581328741
 20
29844.21289705555
 30
0.0
 40
12.54139477412172
100
AcDbArc
 50
2.889645876888394
 51
10.62530401603409
  0
ARC
  5
DADB
330
1F
100
AcDbEntity
  8
freecads.com
100
AcDbCircle
 10
11072.73705616663
 20
29847.8319705945
 30
0.0
 40
7.086385159057771
100
AcDbArc
 50
174.9479825070754
 51
190.6252777309892
  0
ARC
  5
DADC
330
1F
100
AcDbEntity
  8
freecads.com
100
AcDbCircle
 10
11085.61365364955
 20
29846.69363468601
 30
0.0
 40
20.01320113894021
100
AcDbArc
 50
167.7221747257941
 51
174.947985862666
  0
ARC
  5
DADD
330
1F
100
AcDbEntity
  8
freecads.com
100
AcDbCircle
 10
11099.2868873141
 20
29843.71796178544
 30
0.0
 40
34.00648338636641
100
AcDbArc
 50
162.2112054006027
 51
167.7222261190097
  0
ARC
  5
DADE
330
1F
100
AcDbEntity
  8
freecads.com
100
AcDbCircle
 10
11160.51378324339
 20
29824.07333766481
 30
0.0
 40
98.30768121328707
100
AcDbArc
 50
159.7145687804606
 51
162.2111909059105
  0
ARC
  5
DADF
330
1F
100
AcDbEntity
  8
freecads.com
100
AcDbCircle
 10
10992.47963378282
 20
29886.18251036953
 30
0.0
 40
80.83758028977889
100
AcDbArc
 50
339.7145542334573
 51
343.6242680963998
  0
ARC
  5
DAE0
330
1F
100
AcDbEntity
  8
freecads.com
100
AcDbCircle
 10
11034.94480746603
 20
29873.70386557763
 30
0.0
 40
36.57690302669215
100
AcDbArc
 50
343.62427796646
 51
350.6978306115066
  0
ARC
  5
DAE1
330
1F
100
AcDbEntity
  8
freecads.com
100
AcDbCircle
 10
11012.01543276472
 20
29877.45965844784
 30
0.0
 40
59.81183802280623
100
AcDbArc
 50
350.697762260367
 51
355.8470986169398
  0
ARC
  5
DAE2
330
1F
100
AcDbEntity
  8
freecads.com
100
AcDbCircle
 10
10645.08576730643
 20
29904.10197351092
 30
0.0
 40
427.7074649949892
100
AcDbArc
 50
355.8471094593191
 51
357.0532890731175
  0
ARC
  5
DAE3
330
1F
100
AcDbEntity
  8
freecads.com
100
AcDbCircle
 10
12140.45075183697
 20
29827.12950726353
 30
0.0
 40
1069.637250667184
100
AcDbArc
 50
176.2313061391005
 51
177.0533824578129
  0
ARC
  5
DAE4
330
1F
100
AcDbEntity
  8
freecads.com
100
AcDbCircle
 10
11148.47769222144
 20
29892.47197840077
 30
0.0
 40
75.51442649643488
100
AcDbArc
 50
170.5281718677043
 51
176.2313621388055
  0
ARC
  5
DAE5
330
1F
100
AcDbEntity
  8
freecads.com
100
AcDbCircle
 10
11096.12559907723
 20
29901.20624707357
 30
0.0
 40
22.43873426515935
100
AcDbArc
 50
158.377947033545
 51
170.5281531790358
  0
ARC
  5
DAE6
330
1F
100
AcDbEntity
  8
freecads.com
100
AcDbCircle
 10
11086.4732599107
 20
29905.03217628313
 30
0.0
 40
12.05579702649021
100
AcDbArc
 50
139.0348847127151
 51
158.3779452164985
  0
ARC
  5
DAE7
330
1F
100
AcDbEntity
  8
freecads.com
100
AcDbCircle
 10
11058.4958629516
 20
29929.32264949733
 30
0.0
 40
24.99500363392253
100
AcDbArc
 50
319.0349134728588
 51
324.5658615538295
  0
ARC
  5
DAE8
330
1F
100
AcDbEntity
  8
freecads.com
100
AcDbCircle
 10
11074.41789414226
 20
29917.99317745114
 30
0.0
 40
5.45356013346357
100
AcDbArc
 50
324.5657705441907
 51
341.682956447892
  0
ARC
  5
DAE9
330
1F
100
AcDbEntity
  8
freecads.com
100
AcDbCircle
 10
11075.47118490752
 20
29917.64449581091
 30
0.0
 40
4.344055594345731
100
AcDbArc
 50
341.6828488035248
 51
1.482988428576355
  0
ARC
  5
DAEA
330
1F
100
AcDbEntity
  8
freecads.com
100
AcDbCircle
 10
11067.57858876355
 20
29917.44017749401
 30
0.0
 40
12.23929592421074
100
AcDbArc
 50
1.482934033356213
 51
10.62523823608027
  0
ARC
  5
DAEB
330
1F
100
AcDbEntity
  8
freecads.com
100
AcDbCircle
 10
11091.32580288538
 20
29921.89518427294
 30
0.0
 40
11.9221871417864
100
AcDbArc
 50
183.3733677724731
 51
190.6252797281135
  0
ARC
  5
DAEC
330
1F
100
AcDbEntity
  8
freecads.com
100
AcDbCircle
 10
11087.84447415545
 20
29921.68997857521
 30
0.0
 40
8.434815767205442
100
AcDbArc
 50
173.9741083478111
 51
183.3733642518503
  0
ARC
  5
DAED
330
1F
100
AcDbEntity
  8
freecads.com
100
AcDbCircle
 10
11085.70403592859
 20
29921.91593644662
 30
0.0
 40
6.282483831263682
100
AcDbArc
 50
163.2141792743133
 51
173.97420597543
  0
ARC
  5
DAEE
330
1F
100
AcDbEntity
  8
freecads.com
100
AcDbCircle
 10
11081.87449907282
 20
29923.07110481053
 30
0.0
 40
2.282513021537249
100
AcDbArc
 50
140.3097898871557
 51
163.214108277466
  0
ARC
  5
DAEF
330
1F
100
AcDbEntity
  8
freecads.com
100
AcDbCircle
 10
11074.48888603985
 20
29929.20062360737
 30
0.0
 40
7.315313844667301
100
AcDbArc
 50
320.3098129385938
 51
339.5208854538021
  0
ARC
  5
DAF0
330
1F
100
AcDbEntity
  8
freecads.com
100
AcDbCircle
 10
11052.40659497059
 20
29937.44765066529
 30
0.0
 40
30.88735308953417
100
AcDbArc
 50
339.5209373201457
 51
346.111114371882
  0
ARC
  5
DAF1
330
1F
100
AcDbEntity
  8
freecads.com
100
AcDbCircle
 10
11030.70510746384
 20
29942.81367291156
 30
0.0
 40
53.24241414400036
100
AcDbArc
 50
346.1112038410022
 51
351.1996078954703
  0
ARC
  5
DAF2
330
1F
100
AcDbEntity
  8
freecads.com
100
AcDbCircle
 10
10927.58285013232
 20
29958.77841809407
 30
0.0
 40
157.593135492172
100
AcDbArc
 50
351.1996604714331
 51
353.4650618087894
  0
ARC
  5
DAF3
330
1F
100
AcDbEntity
  8
freecads.com
100
AcDbCircle
 10
11030.02567017299
 20
29947.0432521163
 30
0.0
 40
54.48035501171943
100
AcDbArc
 50
353.4650590811348
 51
0.4252723954388936
  0
ARC
  5
DAF4
330
1F
100
AcDbEntity
  8
freecads.com
100
AcDbCircle
 10
11058.50325169326
 20
29947.25461525227
 30
0.0
 40
26.00198912428498
100
AcDbArc
 50
0.4253007033181122
 51
12.52797009467526
  0
ARC
  5
DAF5
330
1F
100
AcDbEntity
  8
freecads.com
100
AcDbCircle
 10
11047.52313219541
 20
29944.81470613655
 30
0.0
 40
37.24993029937529
100
AcDbArc
 50
12.52804668262765
 51
22.17645223411492
  0
ARC
  5
DAF6
330
1F
100
AcDbEntity
  8
freecads.com
100
AcDbCircle
 10
10912.32477685687
 20
29889.7059494712
 30
0.0
 40
183.2484588790971
100
AcDbArc
 50
22.17649199299684
 51
25.13760228070701
  0
ARC
  5
DAF7
330
1F
100
AcDbEntity
  8
freecads.com
100
AcDbCircle
 10
11027.04629559382
 20
29943.53727312791
 30
0.0
 40
56.52498722547298
100
AcDbArc
 50
25.13760374295504
 51
31.78228091411708
  0
ARC
  5
DAF8
330
1F
100
AcDbEntity
  8
freecads.com
100
AcDbCircle
 10
11036.6597216509
 20
29949.49372402561
 30
0.0
 40
45.2158198002651
100
AcDbArc
 50
31.7822923808256
 51
39.63767466310535
  0
ARC
  5
DAF9
330
1F
100
AcDbEntity
  8
freecads.com
100
AcDbCircle
 10
11044.34491247228
 20
29955.85993923017
 30
0.0
 40
35.23629806871836
100
AcDbArc
 50
39.63772974870262
 51
48.3273956377688
  0
ARC
  5
DAFA
330
1F
100
AcDbEntity
  8
freecads.com
100
AcDbCircle
 10
11060.53895680825
 20
29974.05324316248
 30
0.0
 40
10.87971004969398
100
AcDbArc
 50
48.32739436113364
 51
69.18327967250191
  0
ARC
  5
DAFB
330
1F
100
AcDbEntity
  8
freecads.com
100
AcDbCircle
 10
11061.86615115884
 20
29977.54406117591
 30
0.0
 40
7.145107628149569
100
AcDbArc
 50
69.18321332405837
 51
79.37033476841236
  0
ARC
  5
DAFC
330
1F
100
AcDbEntity
  8
freecads.com
100
AcDbCircle
 10
11057.51869111129
 20
29954.38010954822
 30
0.0
 40
30.71349883065541
100
AcDbArc
 50
79.37028011366027
 51
82.81945478904136
  0
ARC
  5
DAFD
330
1F
100
AcDbEntity
  8
freecads.com
100
AcDbCircle
 10
11057.02248963945
 20
29950.44205039598
 30
0.0
 40
34.68269595139065
100
AcDbArc
 50
82.81934438783286
 51
86.21879742863781
  0
ARC
  5
DAFE
330
1F
100
AcDbEntity
  8
freecads.com
100
AcDbCircle
 10
11057.32511809229
 20
29955.02094600908
 30
0.0
 40
30.09381057299064
100
AcDbArc
 50
86.21881142339189
 51
89.99998975419513
  0
LINE
  5
DAFF
330
1F
100
AcDbEntity
  8
freecads.com
100
AcDbLine
 10
11057.32512347372
 20
29985.11475658207
 30
0.0
 11
11052.59102347372
 21
29985.11475658207
 31
0.0
  0
LINE
  5
DB00
330
1F
100
AcDbEntity
  8
freecads.com
100
AcDbLine
 10
11052.59102347372
 20
29985.11475658207
 30
0.0
 11
11052.96295047372
 21
29988.36475658207
 31
0.0
  0
ARC
  5
DB01
330
1F
100
AcDbEntity
  8
freecads.com
100
AcDbCircle
 10
11044.93143004663
 20
29989.28387643814
 30
0.0
 40
8.083940974588857
100
AcDbArc
 50
353.4715241485083
 51
6.505307648162661
  0
ARC
  5
DB02
330
1F
100
AcDbEntity
  8
freecads.com
100
AcDbCircle
 10
11047.37604149094
 20
29989.56263544198
 30
0.0
 40
5.623487419675026
100
AcDbArc
 50
6.505294378426313
 51
23.61313606476132
  0
ARC
  5
DB03
330
1F
100
AcDbEntity
  8
freecads.com
100
AcDbCircle
 10
11044.2654877611
 20
29988.20280831173
 30
0.0
 40
9.018288493431994
100
AcDbArc
 50
23.61319582707459
 51
36.41075582058346
  0
ARC
  5
DB04
330
1F
100
AcDbEntity
  8
freecads.com
100
AcDbCircle
 10
11019.49802307158
 20
29969.93549043371
 30
0.0
 40
39.79363917547642
100
AcDbArc
 50
36.41074465838483
 51
40.66183307022753
  0
ARC
  5
DB05
330
1F
100
AcDbEntity
  8
freecads.com
100
AcDbCircle
 10
11033.22315549176
 20
29981.72509567679
 30
0.0
 40
21.70015825724847
100
AcDbArc
 50
40.66177929600055
 51
51.65436067234847
  0
ARC
  5
DB06
330
1F
100
AcDbEntity
  8
freecads.com
100
AcDbCircle
 10
11042.75560255706
 20
29993.77552932342
 30
0.0
 40
6.335246994099929
100
AcDbArc
 50
51.65430724800476
 51
79.14400662998469
  0
ARC
  5
DB07
330
1F
100
AcDbEntity
  8
freecads.com
100
AcDbCircle
 10
11042.85906137657
 20
29994.31504322391
 30
0.0
 40
5.785902861402878
100
AcDbArc
 50
79.14395314328406
 51
108.2661684472674
  0
ARC
  5
DB08
330
1F
100
AcDbEntity
  8
freecads.com
100
AcDbCircle
 10
11046.33597861495
 20
29983.78092626606
 30
0.0
 40
16.87898960785175
100
AcDbArc
 50
108.2661369167307
 51
121.3734776118751
  0
ENDSEC
  0
SECTION
  2
OBJECTS
  0
DICTIONARY
  5
C
330
0
100
AcDbDictionary
281
     1
  3
ACAD_CIP_PREVIOUS_PRODUCT_INFO
350
1A5
  3
ACAD_COLOR
350
73
  3
ACAD_DETAILVIEWSTYLE
350
1AB
  3
ACAD_GROUP
350
D
  3
ACAD_LAYOUT
350
1A
  3
ACAD_MATERIAL
350
72
  3
ACAD_MLEADERSTYLE
350
D7
  3
ACAD_MLINESTYLE
350
17
  3
ACAD_PLOTSETTINGS
350
19
  3
ACAD_PLOTSTYLENAME
350
E
  3
ACAD_SCALELIST
350
B6
  3
ACAD_SECTIONVIEWSTYLE
350
1A8
  3
ACAD_TABLESTYLE
350
86
  3
ACAD_VISUALSTYLE
350
99
  3
ACDB_RECOMPOSE_DATA
350
DB60
  3
AcDbVariableDictionary
350
66
  3
AEC_PROPERTY_SET_DEFS
350
268B
  0
DICTIONARY
  5
18E
330
2
100
AcDbDictionary
280
     1
281
     1
  3
ACAD_LAYERSTATES
360
18F
  0
DICTIONARY
  5
E6
330
10
100
AcDbDictionary
280
     1
281
     1
  0
DICTIONARY
  5
15D
330
1F
100
AcDbDictionary
280
     1
281
     1
  3
ACAD_SORTENTS
360
28E
  0
XRECORD
  5
1A5
102
{ACAD_REACTORS
330
C
102
}
330
C
100
AcDbXrecord
280
     1
300
ACD
300
2022
300

  0
DICTIONARY
  5
73
102
{ACAD_REACTORS
330
C
102
}
330
C
100
AcDbDictionary
281
     1
  0
DICTIONARY
  5
1AB
102
{ACAD_REACTORS
330
C
102
}
330
C
100
AcDbDictionary
281
     1
  3
Imperial24
350
1AC
  3
Metric50
350
224
  0
DICTIONARY
  5
D
102
{ACAD_REACTORS
330
C
102
}
330
C
100
AcDbDictionary
281
     1
  0
DICTIONARY
  5
1A
102
{ACAD_REACTORS
330
C
102
}
330
C
100
AcDbDictionary
281
     1
  3
Layout1
350
59
  3
Layout2
350
5E
  3
Model
350
22
  0
DICTIONARY
  5
72
102
{ACAD_REACTORS
330
C
102
}
330
C
100
AcDbDictionary
281
     1
  3
ByBlock
350
97
  3
ByLayer
350
96
  3
Global
350
98
  0
DICTIONARY
  5
D7
102
{ACAD_REACTORS
330
C
102
}
330
C
100
AcDbDictionary
281
     1
  3
Standard
350
D8
  0
DICTIONARY
  5
17
102
{ACAD_REACTORS
330
C
102
}
330
C
100
AcDbDictionary
281
     1
  3
Standard
350
18
  0
DICTIONARY
  5
19
102
{ACAD_REACTORS
330
C
102
}
330
C
100
AcDbDictionary
281
     1
  0
ACDBDICTIONARYWDFLT
  5
E
102
{ACAD_REACTORS
330
C
102
}
330
C
100
AcDbDictionary
281
     1
  3
Normal
350
F
100
AcDbDictionaryWithDefault
340
F
  0
DICTIONARY
  5
B6
102
{ACAD_REACTORS
330
C
102
}
330
C
100
AcDbDictionary
281
     1
  3
*A1
350
47D1
  3
*A2
350
8BD6
  3
A0
350
B7
  3
A1
350
124
  3
A2
350
125
  3
A3
350
126
  3
A4
350
127
  3
A5
350
128
  3
A6
350
129
  3
A7
350
12A
  3
A8
350
12B
  3
A9
350
12C
  3
B0
350
12D
  3
B1
350
12E
  3
B2
350
12F
  3
B3
350
130
  3
B4
350
131
  3
B5
350
132
  3
B6
350
133
  3
B7
350
134
  3
B8
350
135
  3
B9
350
136
  3
C0
350
137
  3
C1
350
138
  3
C2
350
139
  3
C3
350
13A
  3
C4
350
13B
  3
C5
350
13C
  3
C6
350
13D
  3
C7
350
13E
  3
C8
350
13F
  3
C9
350
140
  3
D0
350
141
  3
D1
350
142
  3
D2
350
143
  0
DICTIONARY
  5
1A8
102
{ACAD_REACTORS
330
C
102
}
330
C
100
AcDbDictionary
281
     1
  3
Imperial24
350
1AA
  3
Metric50
350
223
  0
DICTIONARY
  5
86
102
{ACAD_REACTORS
330
C
102
}
330
C
100
AcDbDictionary
281
     1
  3
Standard
350
87
  0
DICTIONARY
  5
99
102
{ACAD_REACTORS
330
C
102
}
330
C
100
AcDbDictionary
281
     1
  3
2dWireframe
350
9F
  3
3dWireframe
350
2684
  3
Basic
350
9E
  3
Brighten
350
A5
  3
ColorChange
350
A9
  3
Conceptual
350
A2
  3
Dim
350
A4
  3
EdgeColorOff
350
175
  3
Facepattern
350
A8
  3
Flat
350
9A
  3
FlatWithEdges
350
9B
  3
Gouraud
350
9C
  3
GouraudWithEdges
350
9D
  3
Hidden
350
A1
  3
JitterOff
350
173
  3
Linepattern
350
A7
  3
OverhangOff
350
174
  3
Realistic
350
A3
  3
Shaded
350
182
  3
Shaded with edges
350
181
  3
Shades of Gray
350
17E
  3
Sketchy
350
17F
  3
Thicken
350
A6
  3
Wireframe
350
A0
  3
X-Ray
350
180
  0
XRECORD
  5
DB60
102
{ACAD_REACTORS
330
C
102
}
330
C
100
AcDbXrecord
280
     1
 90
        1
330
87
  0
DICTIONARY
  5
66
102
{ACAD_REACTORS
330
C
102
}
330
C
100
AcDbDictionary
281
     1
  3
CANNOSCALE
350
F0
  3
CMLEADERSTYLE
350
EF
  3
CTABLESTYLE
350
89
  3
CVIEWDETAILSTYLE
350
1B7
  3
CVIEWSECTIONSTYLE
350
1B8
  3
DIMASSOC
350
67
  3
HIDETEXT
350
6B
  3
LAYEREVAL
350
14D
  3
LAYERNOTIFY
350
14E
  0
DICTIONARY
  5
268B
102
{ACAD_REACTORS
330
C
102
}
330
C
100
AcDbDictionary
281
     1
  0
DICTIONARY
  5
18F
102
{ACAD_REACTORS
330
18E
102
}
330
18E
100
AcDbDictionary
281
     1
  0
SORTENTSTABLE
  5
28E
102
{ACAD_REACTORS
330
15D
102
}
330
15D
100
AcDbSortentsTable
330
1F
  0
ACDBDETAILVIEWSTYLE
  5
1AC
102
{ACAD_REACTORS
330
1AB
102
}
330
1AB
100
AcDbModelDocViewStyle
 70
     0
  3
Imperial24
290
     0
300
Imperial24
 90
        0
100
AcDbDetailViewStyle
 70
     0
 71
     0
 90
        3
 71
     1
340
11
 62
   256
 40
0.24
340
0
 62
   256
 40
0.24
300

 40
0.36
280
     3
 71
     2
340
16
 90
       25
 62
   256
 71
     3
340
11
 62
   256
 40
0.24
 90
        1
 40
0.75
 90
        1
300
%<\AcVar ViewType \f "%tc1">% %<\AcVar ViewDetailId>%\PSCALE %<\AcVar ViewScale \f "%sn">%
 71
     4
340
16
 90
       25
 62
   256
340
16
 90
       25
 62
   256
280
     0
  0
ACDBDETAILVIEWSTYLE
  5
224
102
{ACAD_REACTORS
330
1AB
102
}
330
1AB
100
AcDbModelDocViewStyle
 70
     0
  3
Metric50
290
     0
300
Metric50
 90
        0
100
AcDbDetailViewStyle
 70
     0
 71
     0
 90
        3
 71
     1
340
11
 62
   256
 40
5.0
340
0
 62
   256
 40
5.0
300

 40
0.0
280
     1
 71
     2
340
16
 90
       25
 62
   256
 71
     3
340
11
 62
   256
 40
5.0
 90
        0
 40
15.0
 90
        1
300
%<\AcVar ViewDetailId>% (%<\AcVar ViewScale \f "%sn">%)
 71
     4
340
16
 90
       25
 62
   256
340
16
 90
       25
 62
   256
280
     0
  0
LAYOUT
  5
59
102
{ACAD_REACTORS
330
1A
102
}
330
1A
100
AcDbPlotSettings
  1

  2
None
  4

  6

 40
0.0
 41
0.0
 42
0.0
 43
0.0
 44
0.0
 45
0.0
 46
0.0
 47
0.0
 48
0.0
 49
0.0
140
0.0
141
0.0
142
1.0
143
1.0
 70
   688
 72
     0
 73
     0
 74
     5
  7

 75
    16
147
1.0
 76
     0
 77
     2
 78
   300
148
0.0
149
0.0
100
AcDbLayout
  1
Layout1
 70
     1
 71
     1
 10
0.0
 20
0.0
 11
12.0
 21
9.0
 12
0.0
 22
0.0
 32
0.0
 14
0.0
 24
0.0
 34
0.0
 15
0.0
 25
0.0
 35
0.0
146
0.0
 13
0.0
 23
0.0
 33
0.0
 16
1.0
 26
0.0
 36
0.0
 17
0.0
 27
1.0
 37
0.0
 76
     0
330
58
  0
LAYOUT
  5
5E
102
{ACAD_REACTORS
330
1A
102
}
330
1A
100
AcDbPlotSettings
  1

  2
None
  4

  6

 40
0.0
 41
0.0
 42
0.0
 43
0.0
 44
0.0
 45
0.0
 46
0.0
 47
0.0
 48
0.0
 49
0.0
140
0.0
141
0.0
142
1.0
143
1.0
 70
   688
 72
     0
 73
     0
 74
     5
  7

 75
    16
147
1.0
 76
     0
 77
     2
 78
   300
148
0.0
149
0.0
100
AcDbLayout
  1
Layout2
 70
     1
 71
     2
 10
0.0
 20
0.0
 11
12.0
 21
9.0
 12
0.0
 22
0.0
 32
0.0
 14
0.0
 24
0.0
 34
0.0
 15
0.0
 25
0.0
 35
0.0
146
0.0
 13
0.0
 23
0.0
 33
0.0
 16
1.0
 26
0.0
 36
0.0
 17
0.0
 27
1.0
 37
0.0
 76
     0
330
5D
  0
LAYOUT
  5
22
102
{ACAD_XDICTIONARY
360
194
102
}
102
{ACAD_REACTORS
330
1A
102
}
330
1A
100
AcDbPlotSettings
  1

  2
none_device
  4
ANSI_A_(8.50_x_11.00_Inches)
  6

 40
6.349999904632568
 41
19.04999923706055
 42
6.350006103515625
 43
19.04998779296875
 44
215.8999938964844
 45
279.3999938964844
 46
0.0
 47
0.0
 48
0.0
 49
0.0
140
0.0
141
0.0
142
1.0
143
2.584895464708373
 70
 11952
 72
     0
 73
     1
 74
     0
  7

 75
     0
147
0.3868628397755418
 76
     0
 77
     2
 78
   300
148
0.0
149
0.0
100
AcDbLayout
  1
Model
 70
     1
 71
     0
 10
0.0
 20
0.0
 11
12.0
 21
9.0
 12
0.0
 22
0.0
 32
0.0
 14
0.0
 24
0.0
 34
0.0
 15
0.0
 25
0.0
 35
0.0
146
0.0
 13
0.0
 23
0.0
 33
0.0
 16
1.0
 26
0.0
 36
0.0
 17
0.0
 27
1.0
 37
0.0
 76
     0
330
1F
331
94
  0
MATERIAL
  5
97
102
{ACAD_XDICTIONARY
360
188
102
}
102
{ACAD_REACTORS
330
72
102
}
330
72
100
AcDbMaterial
  1
ByBlock
 94
       63
  0
MATERIAL
  5
96
102
{ACAD_XDICTIONARY
360
186
102
}
102
{ACAD_REACTORS
330
72
102
}
330
72
100
AcDbMaterial
  1
ByLayer
 94
       63
  0
MATERIAL
  5
98
102
{ACAD_XDICTIONARY
360
110
102
}
102
{ACAD_REACTORS
330
72
102
}
330
72
100
AcDbMaterial
  1
Global
 43
0.0208000000566244
 43
0.0
 43
0.0
 43
0.0
 43
0.0
 43
0.0208000000566244
 43
0.0
 43
0.0
 43
0.0
 43
0.0
 43
1.0
 43
0.0
 43
0.0
 43
0.0
 43
0.0
 43
1.0
 49
0.0208000000566244
 49
0.0
 49
0.0
 49
0.0
 49
0.0
 49
0.0208000000566244
 49
0.0
 49
0.0
 49
0.0
 49
0.0
 49
1.0
 49
0.0
 49
0.0
 49
0.0
 49
0.0
 49
1.0
142
0.0208000000566244
142
0.0
142
0.0
142
0.0
142
0.0
142
0.0208000000566244
142
0.0
142
0.0
142
0.0
142
0.0
142
1.0
142
0.0
142
0.0
142
0.0
142
0.0
142
1.0
144
0.0208000000566244
144
0.0
144
0.0
144
0.0
144
0.0
144
0.0208000000566244
144
0.0
144
0.0
144
0.0
144
0.0
144
1.0
144
0.0
144
0.0
144
0.0
144
0.0
144
1.0
 94
       63
1001
ACAD
1070
    -1
1070
     3
1070
     0
1000

1071
        0
1070
     0
  0
MLEADERSTYLE
  5
D8
102
{ACAD_REACTORS
330
D7
102
}
330
D7
100
AcDbMLeaderStyle
179
     2
170
     2
171
     1
172
     0
 90
        2
 40
0.0
 41
0.0
173
     1
 91
-1056964608
340
14
 92
       -2
290
     1
 42
0.09
291
     1
 43
0.36
  3
Standard
 44
0.18
300

342
11
174
     1
178
     1
175
     1
176
     0
 93
-1056964608
 45
0.18
292
     0
297
     0
 46
0.18
 94
-1056964608
 47
1.0
 49
1.0
140
1.0
293
     1
141
0.0
294
     1
177
     0
142
1.0
295
     0
296
     0
143
0.125
271
     0
272
     9
273
     9
298
     0
  0
MLINESTYLE
  5
18
102
{ACAD_REACTORS
330
17
102
}
330
17
100
AcDbMlineStyle
  2
STANDARD
 70
     0
  3

 62
   256
 51
90.0
 52
90.0
 71
     2
 49
0.5
 62
   256
  6
BYLAYER
 49
-0.5
 62
   256
  6
BYLAYER
  0
ACDBPLACEHOLDER
  5
F
102
{ACAD_REACTORS
330
E
102
}
330
E
  0
SCALE
  5
47D1
102
{ACAD_REACTORS
330
B6
102
}
330
B6
100
AcDbScale
 70
     0
300
1:100_1_XREF_XREF_XREF_XREF
140
1.0
141
0.1
290
     0
  0
SCALE
  5
8BD6
102
{ACAD_REACTORS
330
B6
102
}
330
B6
100
AcDbScale
 70
     0
300
1:100_1_XREF_XREF_XREF_XREF_XREF_XREF_XREF_XREF_XREF
140
1.0
141
0.1
290
     0
1001
ACAD
1000
AcRTDxfName
1000
SCALE
1000
AcRTDxfName
1000
SCALE
1000
AcRTDxfName
1000
SCALE
1000
AcRTDxfName
1000
SCALE
  0
SCALE
  5
B7
102
{ACAD_REACTORS
330
B6
102
}
330
B6
100
AcDbScale
 70
     0
300
1:1
140
1.0
141
1.0
290
     1
  0
SCALE
  5
124
102
{ACAD_REACTORS
330
B6
102
}
330
B6
100
AcDbScale
 70
     0
300
1:2
140
1.0
141
2.0
290
     0
  0
SCALE
  5
125
102
{ACAD_REACTORS
330
B6
102
}
330
B6
100
AcDbScale
 70
     0
300
1:4
140
1.0
141
4.0
290
     0
  0
SCALE
  5
126
102
{ACAD_REACTORS
330
B6
102
}
330
B6
100
AcDbScale
 70
     0
300
1:5
140
1.0
141
5.0
290
     0
  0
SCALE
  5
127
102
{ACAD_REACTORS
330
B6
102
}
330
B6
100
AcDbScale
 70
     0
300
1:8
140
1.0
141
8.0
290
     0
  0
SCALE
  5
128
102
{ACAD_REACTORS
330
B6
102
}
330
B6
100
AcDbScale
 70
     0
300
1:10
140
1.0
141
10.0
290
     0
  0
SCALE
  5
129
102
{ACAD_REACTORS
330
B6
102
}
330
B6
100
AcDbScale
 70
     0
300
1:16
140
1.0
141
16.0
290
     0
  0
SCALE
  5
12A
102
{ACAD_REACTORS
330
B6
102
}
330
B6
100
AcDbScale
 70
     0
300
1:20
140
1.0
141
20.0
290
     0
  0
SCALE
  5
12B
102
{ACAD_REACTORS
330
B6
102
}
330
B6
100
AcDbScale
 70
     0
300
1:30
140
1.0
141
30.0
290
     0
  0
SCALE
  5
12C
102
{ACAD_REACTORS
330
B6
102
}
330
B6
100
AcDbScale
 70
     0
300
1:40
140
1.0
141
40.0
290
     0
  0
SCALE
  5
12D
102
{ACAD_REACTORS
330
B6
102
}
330
B6
100
AcDbScale
 70
     0
300
1:50
140
1.0
141
50.0
290
     0
  0
SCALE
  5
12E
102
{ACAD_REACTORS
330
B6
102
}
330
B6
100
AcDbScale
 70
     0
300
1:100
140
1.0
141
100.0
290
     0
  0
SCALE
  5
12F
102
{ACAD_REACTORS
330
B6
102
}
330
B6
100
AcDbScale
 70
     0
300
2:1
140
2.0
141
1.0
290
     0
  0
SCALE
  5
130
102
{ACAD_REACTORS
330
B6
102
}
330
B6
100
AcDbScale
 70
     0
300
4:1
140
4.0
141
1.0
290
     0
  0
SCALE
  5
131
102
{ACAD_REACTORS
330
B6
102
}
330
B6
100
AcDbScale
 70
     0
300
8:1
140
8.0
141
1.0
290
     0
  0
SCALE
  5
132
102
{ACAD_REACTORS
330
B6
102
}
330
B6
100
AcDbScale
 70
     0
300
10:1
140
10.0
141
1.0
290
     0
  0
SCALE
  5
133
102
{ACAD_REACTORS
330
B6
102
}
330
B6
100
AcDbScale
 70
     0
300
100:1
140
100.0
141
1.0
290
     0
  0
SCALE
  5
134
102
{ACAD_REACTORS
330
B6
102
}
330
B6
100
AcDbScale
 70
     0
300
1/128" = 1'-0"
140
0.0078125
141
12.0
290
     0
  0
SCALE
  5
135
102
{ACAD_REACTORS
330
B6
102
}
330
B6
100
AcDbScale
 70
     0
300
1/64" = 1'-0"
140
0.015625
141
12.0
290
     0
  0
SCALE
  5
136
102
{ACAD_REACTORS
330
B6
102
}
330
B6
100
AcDbScale
 70
     0
300
1/32" = 1'-0"
140
0.03125
141
12.0
290
     0
  0
SCALE
  5
137
102
{ACAD_REACTORS
330
B6
102
}
330
B6
100
AcDbScale
 70
     0
300
1/16" = 1'-0"
140
0.0625
141
12.0
290
     0
  0
SCALE
  5
138
102
{ACAD_REACTORS
330
B6
102
}
330
B6
100
AcDbScale
 70
     0
300
3/32" = 1'-0"
140
0.09375
141
12.0
290
     0
  0
SCALE
  5
139
102
{ACAD_REACTORS
330
B6
102
}
330
B6
100
AcDbScale
 70
     0
300
1/8" = 1'-0"
140
0.125
141
12.0
290
     0
  0
SCALE
  5
13A
102
{ACAD_REACTORS
330
B6
102
}
330
B6
100
AcDbScale
 70
     0
300
3/16" = 1'-0"
140
0.1875
141
12.0
290
     0
  0
SCALE
  5
13B
102
{ACAD_REACTORS
330
B6
102
}
330
B6
100
AcDbScale
 70
     0
300
1/4" = 1'-0"
140
0.25
141
12.0
290
     0
  0
SCALE
  5
13C
102
{ACAD_REACTORS
330
B6
102
}
330
B6
100
AcDbScale
 70
     0
300
3/8" = 1'-0"
140
0.375
141
12.0
290
     0
  0
SCALE
  5
13D
102
{ACAD_REACTORS
330
B6
102
}
330
B6
100
AcDbScale
 70
     0
300
1/2" = 1'-0"
140
0.5
141
12.0
290
     0
  0
SCALE
  5
13E
102
{ACAD_REACTORS
330
B6
102
}
330
B6
100
AcDbScale
 70
     0
300
3/4" = 1'-0"
140
0.75
141
12.0
290
     0
  0
SCALE
  5
13F
102
{ACAD_REACTORS
330
B6
102
}
330
B6
100
AcDbScale
 70
     0
300
1" = 1'-0"
140
1.0
141
12.0
290
     0
  0
SCALE
  5
140
102
{ACAD_REACTORS
330
B6
102
}
330
B6
100
AcDbScale
 70
     0
300
1-1/2" = 1'-0"
140
1.5
141
12.0
290
     0
  0
SCALE
  5
141
102
{ACAD_REACTORS
330
B6
102
}
330
B6
100
AcDbScale
 70
     0
300
3" = 1'-0"
140
3.0
141
12.0
290
     0
  0
SCALE
  5
142
102
{ACAD_REACTORS
330
B6
102
}
330
B6
100
AcDbScale
 70
     0
300
6" = 1'-0"
140
6.0
141
12.0
290
     0
  0
SCALE
  5
143
102
{ACAD_REACTORS
330
B6
102
}
330
B6
100
AcDbScale
 70
     0
300
1'-0" = 1'-0"
140
12.0
141
12.0
290
     0
  0
ACDBSECTIONVIEWSTYLE
  5
1AA
102
{ACAD_REACTORS
330
1A8
102
}
330
1A8
100
AcDbModelDocViewStyle
 70
     0
  3
Imperial24
290
     0
300
Imperial24
 90
        0
100
AcDbSectionViewStyle
 70
     0
 71
     0
 90
       78
 71
     1
340
11
 62
   256
 40
0.24
340
0
340
0
 62
   256
 40
0.24
300
I, O, Q, S, X, Z
 40
0.48
 90
        3
 40
0.18
 90
        1
 71
     2
340
16
 90
       25
 62
   256
340
16
 90
       50
 62
   256
 40
0.24
 40
0.0
 40
0.24
 71
     3
340
11
 62
   256
 40
0.24
 90
        1
 40
0.75
 90
        1
300
%<\AcVar ViewType \f "%tc1">% %<\AcVar ViewSectionStartId>%-%<\AcVar ViewSectionEndId>%\PSCALE %<\AcVar ViewScale \f "%sn">%
 71
     4
 62
   256
 62
   257
300
ANSI31
 40
1.0
 90
        0
290
     0
290
     0
 90
        6
 40
0.0
 40
1.570796326794896
 40
0.2617993877991494
 40
1.308996938995747
 40
-0.2617993877991494
 40
1.832595714594046
  0
ACDBSECTIONVIEWSTYLE
  5
223
102
{ACAD_REACTORS
330
1A8
102
}
330
1A8
100
AcDbModelDocViewStyle
 70
     0
  3
Metric50
290
     0
300
Metric50
 90
        0
100
AcDbSectionViewStyle
 70
     0
 71
     0
 90
      102
 71
     1
340
11
 62
   256
 40
5.0
340
0
340
0
 62
   256
 40
5.0
300
I, O, Q, S, X, Z
 40
10.0
 90
        0
 40
2.5
 90
        0
 71
     2
340
16
 90
       25
 62
   256
340
16
 90
       50
 62
   256
 40
5.0
 40
2.5
 40
5.0
 71
     3
340
11
 62
   256
 40
5.0
 90
        0
 40
15.0
 90
        1
300
%<\AcVar ViewSectionStartId>%-%<\AcVar ViewSectionEndId>% (%<\AcVar ViewScale \f "%sn">%)
 71
     4
 62
   256
 62
   257
300
ANSI31
 40
1.0
 90
        0
290
     0
290
     0
 90
        6
 40
0.0
 40
1.570796326794896
 40
0.2617993877991494
 40
1.308996938995747
 40
-0.2617993877991494
 40
1.832595714594046
  0
TABLESTYLE
  5
87
102
{ACAD_XDICTIONARY
360
104
102
}
102
{ACAD_REACTORS
330
86
102
}
330
86
100
AcDbTableStyle
280
     0
  3
Standard
 70
     0
 71
     0
 40
0.06
 41
0.06
280
     0
281
     0
  7
Standard
140
0.18
170
     2
 62
     0
 63
     7
283
     0
 90
      512
 91
        0
  1

274
    -2
284
     1
 64
     0
275
    -2
285
     1
 65
     0
276
    -2
286
     1
 66
     0
277
    -2
287
     1
 67
     0
278
    -2
288
     1
 68
     0
279
    -2
289
     1
 69
     0
  7
Standard
140
0.25
170
     5
 62
     0
 63
     7
283
     0
 90
      512
 91
        0
  1

274
    -2
284
     1
 64
     0
275
    -2
285
     1
 65
     0
276
    -2
286
     1
 66
     0
277
    -2
287
     1
 67
     0
278
    -2
288
     1
 68
     0
279
    -2
289
     1
 69
     0
  7
Standard
140
0.18
170
     5
 62
     0
 63
     7
283
     0
 90
      512
 91
        0
  1

274
    -2
284
     1
 64
     0
275
    -2
285
     1
 65
     0
276
    -2
286
     1
 66
     0
277
    -2
287
     1
 67
     0
278
    -2
288
     1
 68
     0
279
    -2
289
     1
 69
     0
  0
VISUALSTYLE
  5
9F
102
{ACAD_REACTORS
330
99
102
}
330
99
100
AcDbVisualStyle
  2
2dWireframe
 70
     4
177
     3
291
     0
 70
    58
 90
        0
176
     1
 90
        2
176
     1
 90
        1
176
     1
 90
        0
176
     1
 40
0.6
176
     1
 40
30.0
176
     1
 62
     7
420
 16777215
176
     1
 90
        1
176
     1
 90
        4
176
     1
 62
     7
176
     1
 62
   257
176
     1
 90
        1
176
     1
 90
        1
176
     1
 40
1.0
176
     1
 90
        0
176
     1
 62
   257
176
     1
 40
1.0
176
     1
 90
        1
176
     1
 90
        6
176
     1
 90
        2
176
     1
 62
     7
176
     1
 90
        5
176
     1
 90
        0
176
     1
 90
        0
176
     1
290
     0
176
     1
 90
        1
176
     1
 40
0.0
176
     1
 90
        0
176
     1
290
     1
176
     1
290
     1
176
     1
290
     0
176
     1
290
     0
176
     1
290
     0
176
     1
290
     0
176
     1
290
     0
176
     1
290
     0
176
     1
290
     0
176
     1
 90
       50
176
     1
 40
0.0
176
     1
 40
1.0
176
     1
 90
        0
176
     1
 62
    18
420
        0
176
     1
 90
       50
176
     1
 90
        3
176
     1
 62
     5
420
      255
176
     1
290
     0
176
     1
 90
       50
176
     1
 90
       50
176
     1
 90
       50
176
     1
290
     0
176
     1
 90
       50
176
     1
 62
   256
176
     0
 40
1.0
176
     0
 90
        2
176
     1
  1
strokes_ogs.tif
176
     1
290
     0
176
     1
 40
1.0
176
     1
 40
1.0
176
     1
  0
VISUALSTYLE
  5
2684
102
{ACAD_REACTORS
330
99
102
}
330
99
100
AcDbVisualStyle
  2
3dWireframe
 70
     5
177
     3
291
     0
 70
    58
 90
        0
176
     1
 90
        2
176
     1
 90
        0
176
     1
 90
        0
176
     1
 40
0.6
176
     1
 40
30.0
176
     1
 62
     7
176
     1
 90
        1
176
     1
 90
        4
176
     1
 62
     7
176
     1
 62
   257
176
     1
 90
        1
176
     1
 90
        1
176
     1
 40
1.0
176
     1
 90
        0
176
     1
 62
   257
176
     1
 40
1.0
176
     1
 90
        1
176
     1
 90
        6
176
     1
 90
        2
176
     1
 62
     7
176
     1
 90
        5
176
     1
 90
        0
176
     1
 90
        0
176
     1
290
     0
176
     1
 90
        1
176
     1
 40
0.0
176
     1
 90
        0
176
     1
290
     0
176
     1
290
     1
176
     1
290
     1
176
     1
290
     0
176
     1
290
     0
176
     1
290
     0
176
     1
290
     0
176
     1
290
     0
176
     1
290
     0
176
     1
 90
       50
176
     1
 40
0.0
176
     1
 40
1.0
176
     1
 90
        0
176
     1
 62
    18
420
        0
176
     1
 90
       50
176
     1
 90
        3
176
     1
 62
     5
420
      255
176
     1
290
     0
176
     1
 90
       50
176
     1
 90
       50
176
     1
 90
       50
176
     1
290
     0
176
     1
 90
       50
176
     1
 62
   256
176
     0
 40
1.0
176
     0
 90
        2
176
     1
  1
strokes_ogs.tif
176
     1
290
     0
176
     1
 40
1.0
176
     1
 40
1.0
176
     1
1001
ACAD
1000
AcRTDxfName
1000
VISUALSTYLE
  0
VISUALSTYLE
  5
9E
102
{ACAD_REACTORS
330
99
102
}
330
99
100
AcDbVisualStyle
  2
Basic
 70
     7
177
     3
291
     1
 70
    58
 90
        1
176
     1
 90
        0
176
     1
 90
        1
176
     1
 90
        0
176
     1
 40
0.6
176
     1
 40
30.0
176
     1
 62
     7
420
 16777215
176
     1
 90
        0
176
     1
 90
        4
176
     1
 62
     7
176
     1
 62
   257
176
     1
 90
        1
176
     1
 90
        1
176
     1
 40
1.0
176
     1
 90
        8
176
     1
 62
     7
176
     1
 40
1.0
176
     1
 90
        1
176
     1
 90
        6
176
     1
 90
        2
176
     1
 62
     7
176
     1
 90
        5
176
     1
 90
        0
176
     1
 90
        0
176
     1
290
     0
176
     1
 90
        1
176
     1
 40
0.0
176
     1
 90
        0
176
     1
290
     0
176
     1
290
     1
176
     1
290
     1
176
     1
290
     0
176
     1
290
     0
176
     1
290
     0
176
     1
290
     0
176
     1
290
     0
176
     1
290
     0
176
     1
 90
       50
176
     1
 40
0.0
176
     1
 40
1.0
176
     1
 90
        0
176
     1
 62
    18
420
        0
176
     1
 90
       50
176
     1
 90
        3
176
     1
 62
     5
420
      255
176
     1
290
     0
176
     1
 90
       50
176
     1
 90
       50
176
     1
 90
       50
176
     1
290
     0
176
     1
 90
       50
176
     1
 62
   256
176
     0
 40
1.0
176
     0
 90
        2
176
     1
  1
strokes_ogs.tif
176
     1
290
     0
176
     1
 40
1.0
176
     1
 40
1.0
176
     1
  0
VISUALSTYLE
  5
A5
102
{ACAD_REACTORS
330
99
102
}
330
99
100
AcDbVisualStyle
  2
Brighten
 70
    12
177
     3
291
     1
 70
    58
 90
        2
176
     1
 90
        2
176
     1
 90
        1
176
     1
 90
        0
176
     1
 40
0.6
176
     1
 40
30.0
176
     1
 62
     7
420
 16777215
176
     1
 90
        1
176
     1
 90
        4
176
     1
 62
     7
176
     1
 62
   257
176
     1
 90
        1
176
     1
 90
        1
176
     1
 40
1.0
176
     1
 90
        8
176
     1
 62
     7
176
     1
 40
1.0
176
     1
 90
        1
176
     1
 90
        6
176
     1
 90
        2
176
     1
 62
     7
176
     1
 90
        5
176
     1
 90
        0
176
     1
 90
        0
176
     1
290
     0
176
     1
 90
        1
176
     1
 40
50.0
176
     1
 90
        0
176
     1
290
     0
176
     1
290
     1
176
     1
290
     1
176
     1
290
     0
176
     1
290
     0
176
     1
290
     0
176
     1
290
     0
176
     1
290
     0
176
     1
290
     0
176
     1
 90
       50
176
     1
 40
0.0
176
     1
 40
1.0
176
     1
 90
        0
176
     1
 62
    18
420
        0
176
     1
 90
       50
176
     1
 90
        3
176
     1
 62
     5
420
      255
176
     1
290
     0
176
     1
 90
       50
176
     1
 90
       50
176
     1
 90
       50
176
     1
290
     0
176
     1
 90
       50
176
     1
 62
   256
176
     0
 40
1.0
176
     0
 90
        2
176
     1
  1
strokes_ogs.tif
176
     1
290
     0
176
     1
 40
1.0
176
     1
 40
1.0
176
     1
  0
VISUALSTYLE
  5
A9
102
{ACAD_REACTORS
330
99
102
}
330
99
100
AcDbVisualStyle
  2
ColorChange
 70
    16
177
     3
291
     1
 70
    58
 90
        2
176
     1
 90
        2
176
     1
 90
        3
176
     1
 90
        0
176
     1
 40
0.6
176
     1
 40
30.0
176
     1
 62
     8
420
  8421504
176
     1
 90
        1
176
     1
 90
        4
176
     1
 62
     7
176
     1
 62
   257
176
     1
 90
        1
176
     1
 90
        1
176
     1
 40
1.0
176
     1
 90
        8
176
     1
 62
     8
420
  8421504
176
     1
 40
1.0
176
     1
 90
        1
176
     1
 90
        6
176
     1
 90
        2
176
     1
 62
     7
176
     1
 90
        5
176
     1
 90
        0
176
     1
 90
        0
176
     1
290
     0
176
     1
 90
        1
176
     1
 40
0.0
176
     1
 90
        0
176
     1
290
     0
176
     1
290
     1
176
     1
290
     1
176
     1
290
     0
176
     1
290
     0
176
     1
290
     0
176
     1
290
     0
176
     1
290
     0
176
     1
290
     0
176
     1
 90
       50
176
     1
 40
0.0
176
     1
 40
1.0
176
     1
 90
        0
176
     1
 62
    18
420
        0
176
     1
 90
       50
176
     1
 90
        3
176
     1
 62
     5
420
      255
176
     1
290
     0
176
     1
 90
       50
176
     1
 90
       50
176
     1
 90
       50
176
     1
290
     0
176
     1
 90
       50
176
     1
 62
   256
176
     0
 40
1.0
176
     0
 90
        2
176
     1
  1
strokes_ogs.tif
176
     1
290
     0
176
     1
 40
1.0
176
     1
 40
1.0
176
     1
  0
VISUALSTYLE
  5
A2
102
{ACAD_REACTORS
330
99
102
}
330
99
100
AcDbVisualStyle
  2
Conceptual
 70
     9
177
     3
291
     0
 70
    58
 90
        3
176
     1
 90
        2
176
     1
 90
        1
176
     1
 90
        0
176
     1
 40
0.6
176
     1
 40
30.0
176
     1
 62
     7
420
 16777215
176
     1
 90
        2
176
     1
 90
        2
176
     1
 62
     7
176
     1
 62
   257
176
     1
 90
        1
176
     1
 90
        1
176
     1
 40
40.0
176
     1
 90
        8
176
     1
 62
     7
176
     1
 40
1.0
176
     1
 90
        1
176
     1
 90
        6
176
     1
 90
        2
176
     1
 62
     7
176
     1
 90
        3
176
     1
 90
        0
176
     1
 90
        0
176
     1
290
     0
176
     1
 90
        1
176
     1
 40
0.0
176
     1
 90
        0
176
     1
290
     0
176
     1
290
     1
176
     1
290
     1
176
     1
290
     0
176
     1
290
     0
176
     1
290
     0
176
     1
290
     0
176
     1
290
     0
176
     1
290
     0
176
     1
 90
       50
176
     1
 40
0.0
176
     1
 40
1.0
176
     1
 90
        0
176
     1
 62
    18
420
        0
176
     1
 90
       50
176
     1
 90
        3
176
     1
 62
     5
420
      255
176
     1
290
     0
176
     1
 90
       50
176
     1
 90
       50
176
     1
 90
       50
176
     1
290
     0
176
     1
 90
       50
176
     1
 62
   256
176
     0
 40
1.0
176
     0
 90
        2
176
     1
  1
strokes_ogs.tif
176
     1
290
     0
176
     1
 40
1.0
176
     1
 40
1.0
176
     1
  0
VISUALSTYLE
  5
A4
102
{ACAD_REACTORS
330
99
102
}
330
99
100
AcDbVisualStyle
  2
Dim
 70
    11
177
     3
291
     1
 70
    58
 90
        2
176
     1
 90
        2
176
     1
 90
        1
176
     1
 90
        0
176
     1
 40
0.6
176
     1
 40
30.0
176
     1
 62
     7
420
 16777215
176
     1
 90
        1
176
     1
 90
        4
176
     1
 62
     7
176
     1
 62
   257
176
     1
 90
        1
176
     1
 90
        1
176
     1
 40
1.0
176
     1
 90
        8
176
     1
 62
     7
176
     1
 40
1.0
176
     1
 90
        1
176
     1
 90
        6
176
     1
 90
        2
176
     1
 62
     7
176
     1
 90
        5
176
     1
 90
        0
176
     1
 90
        0
176
     1
290
     0
176
     1
 90
        1
176
     1
 40
-50.0
176
     1
 90
        0
176
     1
290
     0
176
     1
290
     1
176
     1
290
     1
176
     1
290
     0
176
     1
290
     0
176
     1
290
     0
176
     1
290
     0
176
     1
290
     0
176
     1
290
     0
176
     1
 90
       50
176
     1
 40
0.0
176
     1
 40
1.0
176
     1
 90
        0
176
     1
 62
    18
420
        0
176
     1
 90
       50
176
     1
 90
        3
176
     1
 62
     5
420
      255
176
     1
290
     0
176
     1
 90
       50
176
     1
 90
       50
176
     1
 90
       50
176
     1
290
     0
176
     1
 90
       50
176
     1
 62
   256
176
     0
 40
1.0
176
     0
 90
        2
176
     1
  1
strokes_ogs.tif
176
     1
290
     0
176
     1
 40
1.0
176
     1
 40
1.0
176
     1
  0
VISUALSTYLE
  5
175
102
{ACAD_REACTORS
330
99
102
}
330
99
100
AcDbVisualStyle
  2
EdgeColorOff
 70
    22
177
     3
291
     1
 70
    58
 90
        2
176
     0
 90
        2
176
     0
 90
        0
176
     0
 90
        0
176
     0
 40
0.6
176
     0
 40
30.0
176
     0
 62
     7
420
 16777215
176
     0
 90
        1
176
     0
 90
        4
176
     0
 62
     7
176
     0
 62
   257
176
     0
 90
        1
176
     0
 90
        1
176
     0
 40
1.0
176
     0
 90
        8
176
     2
 62
     7
176
     0
 40
1.0
176
     0
 90
        1
176
     0
 90
        6
176
     0
 90
        2
176
     0
 62
     7
176
     0
 90
        5
176
     0
 90
        0
176
     0
 90
        0
176
     0
290
     0
176
     0
 90
        1
176
     0
 40
0.0
176
     0
 90
        0
176
     0
290
     0
176
     1
290
     1
176
     1
290
     1
176
     1
290
     0
176
     1
290
     0
176
     1
290
     0
176
     1
290
     0
176
     1
290
     0
176
     1
290
     0
176
     1
 90
       50
176
     1
 40
0.0
176
     1
 40
1.0
176
     1
 90
        0
176
     1
 62
    18
420
        0
176
     1
 90
       50
176
     1
 90
        3
176
     1
 62
     5
420
      255
176
     1
290
     0
176
     1
 90
       50
176
     1
 90
       50
176
     1
 90
       50
176
     1
290
     0
176
     1
 90
       50
176
     1
 62
   256
176
     0
 40
1.0
176
     0
 90
        2
176
     1
  1
strokes_ogs.tif
176
     1
290
     0
176
     1
 40
1.0
176
     1
 40
1.0
176
     1
  0
VISUALSTYLE
  5
A8
102
{ACAD_REACTORS
330
99
102
}
330
99
100
AcDbVisualStyle
  2
Facepattern
 70
    15
177
     3
291
     1
 70
    58
 90
        2
176
     1
 90
        2
176
     1
 90
        1
176
     1
 90
        0
176
     1
 40
0.6
176
     1
 40
30.0
176
     1
 62
     7
420
 16777215
176
     1
 90
        1
176
     1
 90
        4
176
     1
 62
     7
176
     1
 62
   257
176
     1
 90
        1
176
     1
 90
        1
176
     1
 40
1.0
176
     1
 90
        8
176
     1
 62
     7
176
     1
 40
1.0
176
     1
 90
        1
176
     1
 90
        6
176
     1
 90
        2
176
     1
 62
     7
176
     1
 90
        5
176
     1
 90
        0
176
     1
 90
        0
176
     1
290
     0
176
     1
 90
        1
176
     1
 40
0.0
176
     1
 90
        0
176
     1
290
     0
176
     1
290
     1
176
     1
290
     1
176
     1
290
     0
176
     1
290
     0
176
     1
290
     0
176
     1
290
     0
176
     1
290
     0
176
     1
290
     0
176
     1
 90
       50
176
     1
 40
0.0
176
     1
 40
1.0
176
     1
 90
        0
176
     1
 62
    18
420
        0
176
     1
 90
       50
176
     1
 90
        3
176
     1
 62
     5
420
      255
176
     1
290
     0
176
     1
 90
       50
176
     1
 90
       50
176
     1
 90
       50
176
     1
290
     0
176
     1
 90
       50
176
     1
 62
   256
176
     0
 40
1.0
176
     0
 90
        2
176
     1
  1
strokes_ogs.tif
176
     1
290
     0
176
     1
 40
1.0
176
     1
 40
1.0
176
     1
  0
VISUALSTYLE
  5
9A
102
{ACAD_REACTORS
330
99
102
}
330
99
100
AcDbVisualStyle
  2
Flat
 70
     0
177
     3
291
     1
 70
    58
 90
        2
176
     1
 90
        1
176
     1
 90
        1
176
     1
 90
        2
176
     1
 40
0.6
176
     1
 40
30.0
176
     1
 62
     7
420
 16777215
176
     1
 90
        0
176
     1
 90
        0
176
     1
 62
     7
176
     1
 62
   257
176
     1
 90
        1
176
     1
 90
        1
176
     1
 40
1.0
176
     1
 90
        8
176
     1
 62
     7
176
     1
 40
1.0
176
     1
 90
        1
176
     1
 90
        6
176
     1
 90
        2
176
     1
 62
     7
176
     1
 90
        5
176
     1
 90
        0
176
     1
 90
        0
176
     1
290
     0
176
     1
 90
       13
176
     1
 40
0.0
176
     1
 90
        0
176
     1
290
     0
176
     1
290
     1
176
     1
290
     1
176
     1
290
     0
176
     1
290
     0
176
     1
290
     0
176
     1
290
     0
176
     1
290
     0
176
     1
290
     0
176
     1
 90
       50
176
     1
 40
0.0
176
     1
 40
1.0
176
     1
 90
        0
176
     1
 62
    18
420
        0
176
     1
 90
       50
176
     1
 90
        3
176
     1
 62
     5
420
      255
176
     1
290
     0
176
     1
 90
       50
176
     1
 90
       50
176
     1
 90
       50
176
     1
290
     0
176
     1
 90
       50
176
     1
 62
   256
176
     0
 40
1.0
176
     0
 90
        2
176
     1
  1
strokes_ogs.tif
176
     1
290
     0
176
     1
 40
1.0
176
     1
 40
1.0
176
     1
  0
VISUALSTYLE
  5
9B
102
{ACAD_REACTORS
330
99
102
}
330
99
100
AcDbVisualStyle
  2
FlatWithEdges
 70
     1
177
     3
291
     1
 70
    58
 90
        2
176
     1
 90
        1
176
     1
 90
        1
176
     1
 90
        2
176
     1
 40
0.6
176
     1
 40
30.0
176
     1
 62
     7
420
 16777215
176
     1
 90
        1
176
     1
 90
        0
176
     1
 62
     7
176
     1
 62
   257
176
     1
 90
        1
176
     1
 90
        1
176
     1
 40
1.0
176
     1
 90
        0
176
     1
 62
   257
176
     1
 40
1.0
176
     1
 90
        1
176
     1
 90
        6
176
     1
 90
        2
176
     1
 62
     7
176
     1
 90
        5
176
     1
 90
        0
176
     1
 90
        0
176
     1
290
     0
176
     1
 90
       13
176
     1
 40
0.0
176
     1
 90
        0
176
     1
290
     0
176
     1
290
     1
176
     1
290
     1
176
     1
290
     0
176
     1
290
     0
176
     1
290
     0
176
     1
290
     0
176
     1
290
     0
176
     1
290
     0
176
     1
 90
       50
176
     1
 40
0.0
176
     1
 40
1.0
176
     1
 90
        0
176
     1
 62
    18
420
        0
176
     1
 90
       50
176
     1
 90
        3
176
     1
 62
     5
420
      255
176
     1
290
     0
176
     1
 90
       50
176
     1
 90
       50
176
     1
 90
       50
176
     1
290
     0
176
     1
 90
       50
176
     1
 62
   256
176
     0
 40
1.0
176
     0
 90
        2
176
     1
  1
strokes_ogs.tif
176
     1
290
     0
176
     1
 40
1.0
176
     1
 40
1.0
176
     1
  0
VISUALSTYLE
  5
9C
102
{ACAD_REACTORS
330
99
102
}
330
99
100
AcDbVisualStyle
  2
Gouraud
 70
     2
177
     3
291
     1
 70
    58
 90
        2
176
     1
 90
        2
176
     1
 90
        1
176
     1
 90
        2
176
     1
 40
0.6
176
     1
 40
30.0
176
     1
 62
     7
420
 16777215
176
     1
 90
        0
176
     1
 90
        0
176
     1
 62
     7
176
     1
 62
   257
176
     1
 90
        1
176
     1
 90
        1
176
     1
 40
1.0
176
     1
 90
        0
176
     1
 62
     7
176
     1
 40
1.0
176
     1
 90
        1
176
     1
 90
        6
176
     1
 90
        2
176
     1
 62
     7
176
     1
 90
        5
176
     1
 90
        0
176
     1
 90
        0
176
     1
290
     0
176
     1
 90
       13
176
     1
 40
0.0
176
     1
 90
        0
176
     1
290
     0
176
     1
290
     1
176
     1
290
     1
176
     1
290
     0
176
     1
290
     0
176
     1
290
     0
176
     1
290
     0
176
     1
290
     0
176
     1
290
     0
176
     1
 90
       50
176
     1
 40
0.0
176
     1
 40
1.0
176
     1
 90
        0
176
     1
 62
    18
420
        0
176
     1
 90
       50
176
     1
 90
        3
176
     1
 62
     5
420
      255
176
     1
290
     0
176
     1
 90
       50
176
     1
 90
       50
176
     1
 90
       50
176
     1
290
     0
176
     1
 90
       50
176
     1
 62
   256
176
     0
 40
1.0
176
     0
 90
        2
176
     1
  1
strokes_ogs.tif
176
     1
290
     0
176
     1
 40
1.0
176
     1
 40
1.0
176
     1
  0
VISUALSTYLE
  5
9D
102
{ACAD_REACTORS
330
99
102
}
330
99
100
AcDbVisualStyle
  2
GouraudWithEdges
 70
     3
177
     3
291
     1
 70
    58
 90
        2
176
     1
 90
        2
176
     1
 90
        1
176
     1
 90
        2
176
     1
 40
0.6
176
     1
 40
30.0
176
     1
 62
     7
420
 16777215
176
     1
 90
        1
176
     1
 90
        0
176
     1
 62
     7
176
     1
 62
   257
176
     1
 90
        1
176
     1
 90
        1
176
     1
 40
1.0
176
     1
 90
        0
176
     1
 62
   257
176
     1
 40
1.0
176
     1
 90
        1
176
     1
 90
        6
176
     1
 90
        2
176
     1
 62
     7
176
     1
 90
        5
176
     1
 90
        0
176
     1
 90
        0
176
     1
290
     0
176
     1
 90
       13
176
     1
 40
0.0
176
     1
 90
        0
176
     1
290
     0
176
     1
290
     1
176
     1
290
     1
176
     1
290
     0
176
     1
290
     0
176
     1
290
     0
176
     1
290
     0
176
     1
290
     0
176
     1
290
     0
176
     1
 90
       50
176
     1
 40
0.0
176
     1
 40
1.0
176
     1
 90
        0
176
     1
 62
    18
420
        0
176
     1
 90
       50
176
     1
 90
        3
176
     1
 62
     5
420
      255
176
     1
290
     0
176
     1
 90
       50
176
     1
 90
       50
176
     1
 90
       50
176
     1
290
     0
176
     1
 90
       50
176
     1
 62
   256
176
     0
 40
1.0
176
     0
 90
        2
176
     1
  1
strokes_ogs.tif
176
     1
290
     0
176
     1
 40
1.0
176
     1
 40
1.0
176
     1
  0
VISUALSTYLE
  5
A1
102
{ACAD_REACTORS
330
99
102
}
330
99
100
AcDbVisualStyle
  2
Hidden
 70
     6
177
     3
291
     0
 70
    58
 90
        1
176
     1
 90
        2
176
     1
 90
        2
176
     1
 90
        0
176
     1
 40
0.6
176
     1
 40
30.0
176
     1
 62
     7
420
 16777215
176
     1
 90
        2
176
     1
 90
        2
176
     1
 62
     7
176
     1
 62
   257
176
     1
 90
        2
176
     1
 90
        1
176
     1
 40
40.0
176
     1
 90
        0
176
     1
 62
   257
176
     1
 40
1.0
176
     1
 90
        1
176
     1
 90
        6
176
     1
 90
        2
176
     1
 62
     7
176
     1
 90
        3
176
     1
 90
        0
176
     1
 90
        0
176
     1
290
     0
176
     1
 90
        1
176
     1
 40
0.0
176
     1
 90
        0
176
     1
290
     0
176
     1
290
     1
176
     1
290
     1
176
     1
290
     0
176
     1
290
     0
176
     1
290
     0
176
     1
290
     0
176
     1
290
     0
176
     1
290
     0
176
     1
 90
       50
176
     1
 40
0.0
176
     1
 40
1.0
176
     1
 90
        0
176
     1
 62
    18
420
        0
176
     1
 90
       50
176
     1
 90
        3
176
     1
 62
     5
420
      255
176
     1
290
     0
176
     1
 90
       50
176
     1
 90
       50
176
     1
 90
       50
176
     1
290
     0
176
     1
 90
       50
176
     1
 62
   256
176
     0
 40
1.0
176
     0
 90
        2
176
     1
  1
strokes_ogs.tif
176
     1
290
     0
176
     1
 40
1.0
176
     1
 40
1.0
176
     1
  0
VISUALSTYLE
  5
173
102
{ACAD_REACTORS
330
99
102
}
330
99
100
AcDbVisualStyle
  2
JitterOff
 70
    20
177
     3
291
     1
 70
    58
 90
        2
176
     0
 90
        2
176
     0
 90
        0
176
     0
 90
        0
176
     0
 40
0.6
176
     0
 40
30.0
176
     0
 62
     7
420
 16777215
176
     0
 90
        1
176
     0
 90
        4
176
     0
 62
     7
176
     0
 62
   257
176
     0
 90
        1
176
     0
 90
        1
176
     0
 40
1.0
176
     0
 90
       10
176
     2
 62
     7
176
     0
 40
1.0
176
     0
 90
        1
176
     0
 90
        6
176
     0
 90
        2
176
     0
 62
     7
176
     0
 90
        5
176
     0
 90
        0
176
     0
 90
        0
176
     0
290
     0
176
     0
 90
        1
176
     0
 40
0.0
176
     0
 90
        0
176
     0
290
     0
176
     1
290
     1
176
     1
290
     1
176
     1
290
     0
176
     1
290
     0
176
     1
290
     0
176
     1
290
     0
176
     1
290
     0
176
     1
290
     0
176
     1
 90
       50
176
     1
 40
0.0
176
     1
 40
1.0
176
     1
 90
        0
176
     1
 62
    18
420
        0
176
     1
 90
       50
176
     1
 90
        3
176
     1
 62
     5
420
      255
176
     1
290
     0
176
     1
 90
       50
176
     1
 90
       50
176
     1
 90
       50
176
     1
290
     0
176
     1
 90
       50
176
     1
 62
   256
176
     0
 40
1.0
176
     0
 90
        2
176
     1
  1
strokes_ogs.tif
176
     1
290
     0
176
     1
 40
1.0
176
     1
 40
1.0
176
     1
  0
VISUALSTYLE
  5
A7
102
{ACAD_REACTORS
330
99
102
}
330
99
100
AcDbVisualStyle
  2
Linepattern
 70
    14
177
     3
291
     1
 70
    58
 90
        2
176
     1
 90
        2
176
     1
 90
        1
176
     1
 90
        0
176
     1
 40
0.6
176
     1
 40
30.0
176
     1
 62
     7
420
 16777215
176
     1
 90
        1
176
     1
 90
        4
176
     1
 62
     7
176
     1
 62
   257
176
     1
 90
        7
176
     1
 90
        7
176
     1
 40
1.0
176
     1
 90
        8
176
     1
 62
     7
176
     1
 40
1.0
176
     1
 90
        1
176
     1
 90
        6
176
     1
 90
        2
176
     1
 62
     7
176
     1
 90
        5
176
     1
 90
        0
176
     1
 90
        0
176
     1
290
     0
176
     1
 90
        1
176
     1
 40
0.0
176
     1
 90
        0
176
     1
290
     0
176
     1
290
     1
176
     1
290
     1
176
     1
290
     0
176
     1
290
     0
176
     1
290
     0
176
     1
290
     0
176
     1
290
     0
176
     1
290
     0
176
     1
 90
       50
176
     1
 40
0.0
176
     1
 40
1.0
176
     1
 90
        0
176
     1
 62
    18
420
        0
176
     1
 90
       50
176
     1
 90
        3
176
     1
 62
     5
420
      255
176
     1
290
     0
176
     1
 90
       50
176
     1
 90
       50
176
     1
 90
       50
176
     1
290
     0
176
     1
 90
       50
176
     1
 62
   256
176
     0
 40
1.0
176
     0
 90
        2
176
     1
  1
strokes_ogs.tif
176
     1
290
     0
176
     1
 40
1.0
176
     1
 40
1.0
176
     1
  0
VISUALSTYLE
  5
174
102
{ACAD_REACTORS
330
99
102
}
330
99
100
AcDbVisualStyle
  2
OverhangOff
 70
    21
177
     3
291
     1
 70
    58
 90
        2
176
     0
 90
        2
176
     0
 90
        0
176
     0
 90
        0
176
     0
 40
0.6
176
     0
 40
30.0
176
     0
 62
     7
420
 16777215
176
     0
 90
        1
176
     0
 90
        4
176
     0
 62
     7
176
     0
 62
   257
176
     0
 90
        1
176
     0
 90
        1
176
     0
 40
1.0
176
     0
 90
        9
176
     2
 62
     7
176
     0
 40
1.0
176
     0
 90
        1
176
     0
 90
        6
176
     0
 90
        2
176
     0
 62
     7
176
     0
 90
        5
176
     0
 90
        0
176
     0
 90
        0
176
     0
290
     0
176
     0
 90
        1
176
     0
 40
0.0
176
     0
 90
        0
176
     0
290
     0
176
     1
290
     1
176
     1
290
     1
176
     1
290
     0
176
     1
290
     0
176
     1
290
     0
176
     1
290
     0
176
     1
290
     0
176
     1
290
     0
176
     1
 90
       50
176
     1
 40
0.0
176
     1
 40
1.0
176
     1
 90
        0
176
     1
 62
    18
420
        0
176
     1
 90
       50
176
     1
 90
        3
176
     1
 62
     5
420
      255
176
     1
290
     0
176
     1
 90
       50
176
     1
 90
       50
176
     1
 90
       50
176
     1
290
     0
176
     1
 90
       50
176
     1
 62
   256
176
     0
 40
1.0
176
     0
 90
        2
176
     1
  1
strokes_ogs.tif
176
     1
290
     0
176
     1
 40
1.0
176
     1
 40
1.0
176
     1
  0
VISUALSTYLE
  5
A3
102
{ACAD_REACTORS
330
99
102
}
330
99
100
AcDbVisualStyle
  2
Realistic
 70
     8
177
     3
291
     0
 70
    58
 90
        2
176
     1
 90
        2
176
     1
 90
        0
176
     1
 90
        2
176
     1
 40
0.6
176
     1
 40
30.0
176
     1
 62
     7
420
 16777215
176
     1
 90
        0
176
     1
 90
        0
176
     1
 62
     7
176
     1
 62
   257
176
     1
 90
        1
176
     1
 90
        1
176
     1
 40
1.0
176
     1
 90
        8
176
     1
 62
   257
176
     1
 40
1.0
176
     1
 90
        1
176
     1
 90
        6
176
     1
 90
        2
176
     1
 62
     7
176
     1
 90
        3
176
     1
 90
        0
176
     1
 90
        0
176
     1
290
     0
176
     1
 90
       13
176
     1
 40
0.0
176
     1
 90
        0
176
     1
290
     0
176
     1
290
     1
176
     1
290
     1
176
     1
290
     0
176
     1
290
     0
176
     1
290
     0
176
     1
290
     0
176
     1
290
     0
176
     1
290
     0
176
     1
 90
       50
176
     1
 40
0.0
176
     1
 40
1.0
176
     1
 90
        0
176
     1
 62
    18
420
        0
176
     1
 90
       50
176
     1
 90
        3
176
     1
 62
     5
420
      255
176
     1
290
     0
176
     1
 90
       50
176
     1
 90
       50
176
     1
 90
       50
176
     1
290
     0
176
     1
 90
       50
176
     1
 62
   256
176
     0
 40
1.0
176
     0
 90
        2
176
     1
  1
strokes_ogs.tif
176
     1
290
     0
176
     1
 40
1.0
176
     1
 40
1.0
176
     1
  0
VISUALSTYLE
  5
182
102
{ACAD_REACTORS
330
99
102
}
330
99
100
AcDbVisualStyle
  2
Shaded
 70
    27
177
     3
291
     0
 70
    58
 90
        2
176
     1
 90
        2
176
     1
 90
        1
176
     1
 90
        2
176
     1
 40
0.6
176
     1
 40
30.0
176
     1
 62
     7
420
 16777215
176
     1
 90
        0
176
     1
 90
        4
176
     1
 62
     7
176
     1
 62
   257
176
     1
 90
        1
176
     1
 90
        1
176
     1
 40
1.0
176
     1
 90
        8
176
     1
 62
   257
176
     1
 40
1.0
176
     1
 90
        1
176
     1
 90
        6
176
     1
 90
        2
176
     1
 62
     8
420
  7895160
176
     1
 90
        3
176
     1
 90
        0
176
     1
 90
        0
176
     1
290
     0
176
     1
 90
        5
176
     1
 40
0.0
176
     1
 90
        0
176
     1
290
     0
176
     1
290
     1
176
     1
290
     1
176
     1
290
     0
176
     1
290
     0
176
     1
290
     0
176
     1
290
     0
176
     1
290
     0
176
     1
290
     0
176
     1
 90
       50
176
     1
 40
0.0
176
     1
 40
1.0
176
     1
 90
        0
176
     1
 62
    18
420
        0
176
     1
 90
       50
176
     1
 90
        3
176
     1
 62
     5
420
      255
176
     1
290
     0
176
     1
 90
       50
176
     1
 90
       50
176
     1
 90
       50
176
     1
290
     0
176
     1
 90
       50
176
     1
 62
   256
176
     0
 40
1.0
176
     0
 90
        2
176
     1
  1
strokes_ogs.tif
176
     1
290
     0
176
     1
 40
1.0
176
     1
 40
1.0
176
     1
  0
VISUALSTYLE
  5
181
102
{ACAD_REACTORS
330
99
102
}
330
99
100
AcDbVisualStyle
  2
Shaded with edges
 70
    26
177
     3
291
     0
 70
    58
 90
        2
176
     1
 90
        2
176
     1
 90
        1
176
     1
 90
        2
176
     1
 40
0.6
176
     1
 40
30.0
176
     1
 62
     7
420
 16777215
176
     1
 90
        1
176
     1
 90
        2
176
     1
 62
     7
176
     1
 62
   257
176
     1
 90
        2
176
     1
 90
        1
176
     1
 40
1.0
176
     1
 90
        8
176
     1
 62
   257
176
     1
 40
1.0
176
     1
 90
        1
176
     1
 90
        6
176
     1
 90
        2
176
     1
 62
     7
176
     1
 90
        3
176
     1
 90
        0
176
     1
 90
        0
176
     1
290
     0
176
     1
 90
        5
176
     1
 40
0.0
176
     1
 90
        0
176
     1
290
     0
176
     1
290
     1
176
     1
290
     1
176
     1
290
     0
176
     1
290
     0
176
     1
290
     0
176
     1
290
     0
176
     1
290
     0
176
     1
290
     0
176
     1
 90
       50
176
     1
 40
0.0
176
     1
 40
1.0
176
     1
 90
        0
176
     1
 62
    18
420
        0
176
     1
 90
       50
176
     1
 90
        3
176
     1
 62
     5
420
      255
176
     1
290
     0
176
     1
 90
       50
176
     1
 90
       50
176
     1
 90
       50
176
     1
290
     0
176
     1
 90
       50
176
     1
 62
   256
176
     0
 40
1.0
176
     0
 90
        2
176
     1
  1
strokes_ogs.tif
176
     1
290
     0
176
     1
 40
1.0
176
     1
 40
1.0
176
     1
  0
VISUALSTYLE
  5
17E
102
{ACAD_REACTORS
330
99
102
}
330
99
100
AcDbVisualStyle
  2
Shades of Gray
 70
    23
177
     3
291
     0
 70
    58
 90
        2
176
     1
 90
        2
176
     1
 90
        3
176
     1
 90
        0
176
     1
 40
0.6
176
     1
 40
30.0
176
     1
 62
     7
420
 16777215
176
     1
 90
        2
176
     1
 90
        2
176
     1
 62
     7
176
     1
 62
     7
176
     1
 90
        1
176
     1
 90
        1
176
     1
 40
40.0
176
     1
 90
        8
176
     1
 62
     7
176
     1
 40
1.0
176
     1
 90
        1
176
     1
 90
        6
176
     1
 90
        2
176
     1
 62
     7
176
     1
 90
        3
176
     1
 90
        0
176
     1
 90
        0
176
     1
290
     0
176
     1
 90
        1
176
     1
 40
0.0
176
     1
 90
        0
176
     1
290
     0
176
     1
290
     1
176
     1
290
     1
176
     1
290
     0
176
     1
290
     0
176
     1
290
     0
176
     1
290
     0
176
     1
290
     0
176
     1
290
     0
176
     1
 90
       50
176
     1
 40
0.0
176
     1
 40
1.0
176
     1
 90
        0
176
     1
 62
    18
420
        0
176
     1
 90
       50
176
     1
 90
        3
176
     1
 62
     5
420
      255
176
     1
290
     0
176
     1
 90
       50
176
     1
 90
       50
176
     1
 90
       50
176
     1
290
     0
176
     1
 90
       50
176
     1
 62
   256
176
     0
 40
1.0
176
     0
 90
        2
176
     1
  1
strokes_ogs.tif
176
     1
290
     0
176
     1
 40
1.0
176
     1
 40
1.0
176
     1
  0
VISUALSTYLE
  5
17F
102
{ACAD_REACTORS
330
99
102
}
330
99
100
AcDbVisualStyle
  2
Sketchy
 70
    24
177
     3
291
     0
 70
    58
 90
        1
176
     1
 90
        2
176
     1
 90
        2
176
     1
 90
        0
176
     1
 40
0.6
176
     1
 40
30.0
176
     1
 62
     7
420
 16777215
176
     1
 90
        2
176
     1
 90
        2
176
     1
 62
     7
176
     1
 62
     7
176
     1
 90
        1
176
     1
 90
        1
176
     1
 40
40.0
176
     1
 90
       11
176
     1
 62
     7
176
     1
 40
1.0
176
     1
 90
        1
176
     1
 90
        6
176
     1
 90
        2
176
     1
 62
     7
176
     1
 90
        6
176
     1
 90
        0
176
     1
 90
        0
176
     1
290
     0
176
     1
 90
        1
176
     1
 40
0.0
176
     1
 90
        0
176
     1
290
     0
176
     1
290
     1
176
     1
290
     1
176
     1
290
     0
176
     1
290
     0
176
     1
290
     0
176
     1
290
     0
176
     1
290
     0
176
     1
290
     0
176
     1
 90
       50
176
     1
 40
0.0
176
     1
 40
1.0
176
     1
 90
        0
176
     1
 62
    18
420
        0
176
     1
 90
       50
176
     1
 90
        3
176
     1
 62
     5
420
      255
176
     1
290
     0
176
     1
 90
       50
176
     1
 90
       50
176
     1
 90
       50
176
     1
290
     0
176
     1
 90
       50
176
     1
 62
   256
176
     0
 40
1.0
176
     0
 90
        2
176
     1
  1
strokes_ogs.tif
176
     1
290
     0
176
     1
 40
1.0
176
     1
 40
1.0
176
     1
  0
VISUALSTYLE
  5
A6
102
{ACAD_REACTORS
330
99
102
}
330
99
100
AcDbVisualStyle
  2
Thicken
 70
    13
177
     3
291
     1
 70
    58
 90
        2
176
     1
 90
        2
176
     1
 90
        1
176
     1
 90
        0
176
     1
 40
0.6
176
     1
 40
30.0
176
     1
 62
     7
420
 16777215
176
     1
 90
        1
176
     1
 90
        4
176
     1
 62
     7
176
     1
 62
   257
176
     1
 90
        1
176
     1
 90
        1
176
     1
 40
1.0
176
     1
 90
       12
176
     1
 62
     7
176
     1
 40
1.0
176
     1
 90
        1
176
     1
 90
        6
176
     1
 90
        2
176
     1
 62
     7
176
     1
 90
        5
176
     1
 90
        0
176
     1
 90
        0
176
     1
290
     0
176
     1
 90
        1
176
     1
 40
0.0
176
     1
 90
        0
176
     1
290
     0
176
     1
290
     1
176
     1
290
     1
176
     1
290
     0
176
     1
290
     0
176
     1
290
     0
176
     1
290
     0
176
     1
290
     0
176
     1
290
     0
176
     1
 90
       50
176
     1
 40
0.0
176
     1
 40
1.0
176
     1
 90
        0
176
     1
 62
    18
420
        0
176
     1
 90
       50
176
     1
 90
        3
176
     1
 62
     5
420
      255
176
     1
290
     0
176
     1
 90
       50
176
     1
 90
       50
176
     1
 90
       50
176
     1
290
     0
176
     1
 90
       50
176
     1
 62
   256
176
     0
 40
1.0
176
     0
 90
        2
176
     1
  1
strokes_ogs.tif
176
     1
290
     0
176
     1
 40
1.0
176
     1
 40
1.0
176
     1
  0
VISUALSTYLE
  5
A0
102
{ACAD_REACTORS
330
99
102
}
330
99
100
AcDbVisualStyle
  2
Wireframe
 70
     5
177
     3
291
     0
 70
    58
 90
        0
176
     1
 90
        2
176
     1
 90
        0
176
     1
 90
        0
176
     1
 40
0.6
176
     1
 40
30.0
176
     1
 62
     7
420
 16777215
176
     1
 90
        1
176
     1
 90
        4
176
     1
 62
     7
176
     1
 62
   257
176
     1
 90
        1
176
     1
 90
        1
176
     1
 40
1.0
176
     1
 90
        0
176
     1
 62
   257
176
     1
 40
1.0
176
     1
 90
        1
176
     1
 90
        6
176
     1
 90
        2
176
     1
 62
     7
176
     1
 90
        3
176
     1
 90
        0
176
     1
 90
        0
176
     1
290
     0
176
     1
 90
        1
176
     1
 40
0.0
176
     1
 90
        0
176
     1
290
     0
176
     1
290
     1
176
     1
290
     1
176
     1
290
     0
176
     1
290
     0
176
     1
290
     0
176
     1
290
     0
176
     1
290
     0
176
     1
290
     0
176
     1
 90
       50
176
     1
 40
0.0
176
     1
 40
1.0
176
     1
 90
        0
176
     1
 62
    18
420
        0
176
     1
 90
       50
176
     1
 90
        3
176
     1
 62
     5
420
      255
176
     1
290
     0
176
     1
 90
       50
176
     1
 90
       50
176
     1
 90
       50
176
     1
290
     0
176
     1
 90
       50
176
     1
 62
   256
176
     0
 40
1.0
176
     0
 90
        2
176
     1
  1
strokes_ogs.tif
176
     1
290
     0
176
     1
 40
1.0
176
     1
 40
1.0
176
     1
  0
VISUALSTYLE
  5
180
102
{ACAD_REACTORS
330
99
102
}
330
99
100
AcDbVisualStyle
  2
X-Ray
 70
    25
177
     3
291
     0
 70
    58
 90
        2
176
     1
 90
        2
176
     1
 90
        1
176
     1
 90
        1
176
     1
 40
0.5
176
     1
 40
30.0
176
     1
 62
     7
420
 16777215
176
     1
 90
        1
176
     1
 90
        0
176
     1
 62
     7
176
     1
 62
   257
176
     1
 90
        1
176
     1
 90
        1
176
     1
 40
1.0
176
     1
 90
        8
176
     1
 62
     7
176
     1
 40
1.0
176
     1
 90
        1
176
     1
 90
        6
176
     1
 90
        2
176
     1
 62
     7
176
     1
 90
        3
176
     1
 90
        0
176
     1
 90
        0
176
     1
290
     0
176
     1
 90
       13
176
     1
 40
0.0
176
     1
 90
        0
176
     1
290
     0
176
     1
290
     1
176
     1
290
     1
176
     1
290
     0
176
     1
290
     0
176
     1
290
     0
176
     1
290
     0
176
     1
290
     0
176
     1
290
     0
176
     1
 90
       50
176
     1
 40
0.0
176
     1
 40
1.0
176
     1
 90
        0
176
     1
 62
    18
420
        0
176
     1
 90
       50
176
     1
 90
        3
176
     1
 62
     5
420
      255
176
     1
290
     0
176
     1
 90
       50
176
     1
 90
       50
176
     1
 90
       50
176
     1
290
     0
176
     1
 90
       50
176
     1
 62
   256
176
     0
 40
1.0
176
     0
 90
        2
176
     1
  1
strokes_ogs.tif
176
     1
290
     0
176
     1
 40
1.0
176
     1
 40
1.0
176
     1
  0
DICTIONARYVAR
  5
F0
102
{ACAD_REACTORS
330
66
102
}
330
66
100
DictionaryVariables
280
     0
  1
1:1
  0
DICTIONARYVAR
  5
EF
102
{ACAD_REACTORS
330
66
102
}
330
66
100
DictionaryVariables
280
     0
  1
STANDARD
  0
DICTIONARYVAR
  5
89
102
{ACAD_REACTORS
330
66
102
}
330
66
100
DictionaryVariables
280
     0
  1
STANDARD
  0
DICTIONARYVAR
  5
1B7
102
{ACAD_REACTORS
330
66
102
}
330
66
100
DictionaryVariables
280
     0
  1
Imperial24
  0
DICTIONARYVAR
  5
1B8
102
{ACAD_REACTORS
330
66
102
}
330
66
100
DictionaryVariables
280
     0
  1
Imperial24
  0
DICTIONARYVAR
  5
67
102
{ACAD_REACTORS
330
66
102
}
330
66
100
DictionaryVariables
280
     0
  1
2
  0
DICTIONARYVAR
  5
6B
102
{ACAD_REACTORS
330
66
102
}
330
66
100
DictionaryVariables
280
     0
  1
1
  0
DICTIONARYVAR
  5
14D
102
{ACAD_REACTORS
330
66
102
}
330
66
100
DictionaryVariables
280
     0
  1
0
  0
DICTIONARYVAR
  5
14E
102
{ACAD_REACTORS
330
66
102
}
330
66
100
DictionaryVariables
280
     0
  1
0
  0
DICTIONARY
  5
194
330
22
100
AcDbDictionary
280
     1
281
     1
  0
DICTIONARY
  5
188
330
97
100
AcDbDictionary
280
     1
281
     1
  3
FBXASSET
360
189
  0
DICTIONARY
  5
186
330
96
100
AcDbDictionary
280
     1
281
     1
  3
FBXASSET
360
187
  0
DICTIONARY
  5
110
330
98
100
AcDbDictionary
280
     1
281
     1
  3
BUMPTILE
360
112
  3
DIFFUSETILE
360
111
  3
FBXASSET
360
18A
  3
OPACITYTILE
360
113
  3
REFLECTIONTILE
360
114
  0
DICTIONARY
  5
104
330
87
100
AcDbDictionary
280
     1
281
     1
  3
ACAD_ROUNDTRIP_2008_TABLESTYLE_CELLSTYLEMAP
360
DB5F
  0
XRECORD
  5
189
102
{ACAD_REACTORS
330
188
102
}
330
188
100
AcDbXrecord
280
     1
 70
     1
 90
429727718
  1
508B35C9-AEE7-456F-BE74-D52651303AC6
310
504B03040A0000080000B670623B3DEE336E79000000790000001B0000006175746F6465736B2D64657369676E2D7061636B6167652E786D6C3C3F786D6C2076657273696F6E3D22312E302220656E636F64696E673D227574662D3822203F3E3C666F726D6174733E3C666F726D61743E687474703A2F2F736368656D612E
310
6175746F6465736B2E636F6D2F64657369676E2D7061636B6167652F323030393C2F666F726D61743E3C2F666F726D6174733E504B0304140006080800B670623BD486FD9CA0000000F4000000130000005B436F6E74656E745F54797065735D2E786D6C7D8EC10E82300C865F65E91D8A1E8C310C0EEA1BF002731658846E
310
D98AC1B77784ABF1D8FE5FBFBF75BBCE937A534CCEB38643598122B6FEE978D0B0485F9C41B54DDD7D022595594E1A469170414C76A4D9A4D207E29CF43ECE46F218070CC6BECC4078ACAA135ACF422C856C0E68EA1BF5669944DDD7BCDE7B1F8E415D77AECB980613C2E4AC91FC167A2B244592486606FC29C8FD7F045B9A
310
EF7053A7E60B504B0304140006080800B670623B28ED286BEB0000007C01000008000000636F72652E786D6C8D90416EC3201045AF82665B6183218D6D61A254764FD00B204C5C94182C03558F5F9C3852BBEB6A467FFE9B197D71FA9E6FE8CBACC17AD7012D0820E3B41FAD9B3A48F1826B40272956EFE32F1B20A766D3C1
310
268314D3EAD3B24BDABB685CCCAAF3A3D94515828980F42D371D04FD696655A814B3235C8B45E9AB9A4C419F5D8653B2237A1CB163DE672FD6AC209BF3C08E0D1B30EB19C3FC9D72FCC6EB231EFA33EDE96BDD341517E5064B11EDFCBCAF57A3A2194156843498524CAA0FCA5B7268F9E185D42D21A2DCEC7FA0B48CFF8492
310
759155FBBB0F2C80A4F991FB408A72CB22977B50B96EB9C91F504B0304140006080800B670623B55019EA25F0000007C00000007000000636E782E786D6C4DCB3B0E80201045D1AD90E915ED2CF8AC45050C11660C8261F98AB1B07AC9C97D42D718D865D3E909258CFD00CCE24AC6E326A164D74DC0B4128928FF32603847
310
2BA13128B1252AC747C6BAB984FC68F0B87FE8960A5C09FE86CFB69FBA01504B0304140006080800B670623B7BC41AC871010000D40300000C0000006662782F636F72652E786D6CC553ED6E8320147D15C2DF4501B56B6D90A64BBB27D80B50A5CE54C120983EFEAE1F4DD7A56BBA5FF3879273EEE59E7310BE393735EA95
310
ED2AA333CC428A91D2B9292A5D66D8BB63B0C26823B835C67D2BC348CB46657880B1E0A535BE9DA1DC68A7B403549B42CDA0EC3AE530CA6B5864B8CB3F552343E91D5474A7B095F949962A6421D0502778E72C0840D390E18DC5F170E664C205F7BE2A66B62A605A75AC94C522DDEEE3651AEF837817C741F2CE92E02D592D
310
83FD6ECB76EC7595A651C2C9D02CB8AB9A8BBADC2AE954814544691A3016D0E883256BBA58278B17BA5A53CAC9507ED3E4DBE2C9265F691747B3DCA9ADC382819091F8E1162272A8933DE82182932144F88C09DF060D8140C84E1EEA8B8F1340BDCA9DB1093085F157AA97B557309586747CD0EF0B4EA64E983A6E0EAEEFCE
310
889E9EF17847386AA94B30211D2C0FDE0D3AF9A4610EAD5536E8DD1969631B593F67E381C33F5157F17725E5A636F6BF1491F980C8FC7B90E13E8A2F504B0304140006080800B670623B70102A487D0000009D0000000B0000006662782F636E782E786D6C4DCCD10A83201886E15B91FFDC95A5C30335ACCDFB886521330D
310
A76397BF1A1DECE883878F57749FD5A3B74D2F17830472A901D9F088930B8B849267CC01754AA418F3DF0D5018572BE160506249B16C274D761E8BCFBB7A179E27F65CB39A0F14D396184C9921B81F34C3ACA1B4B99ABB6E6F062A25AA5F69DF23ACBE504B0304140006080800B670623B3610CA3329010000120200003100
310
00006662782F42384135303843342D343331462D343546312D424341352D3532343432364645413344462F636F72652E786D6C8D515B6EC32010BC0AE22B55850D0E446E848992B43E412FE000495162B07854397EA176A4F62F3F2C9A9D991D58BEBB8F37F0AD7D30CE76905418026DA553C65E3A98E219B510EC04F7CEC5
310
3F3408EC30EA0E16180A7EF12E4D0B249D8DDAC68C5AA7F4020E21E80881BCE54B0783FCD2E3500D296646B856D320AFC34557A4CAEDCC133C449F0380794839A138B47B86DB2345744D7A44594FD0E1B867883594369BFE63BF7EEF793D0B054FC9A8456E548E63CE46FB674D8A58F068C6477CE9F510B582A2C1F80D1182
310
70F349E816B32D65AFB8DD62CCEB42FF274A937A52948C8DEB66893BCB021484D7734370E5D2E9F608A3EF93F3119479ABA0E50B14B8C298119A43CCC4FCFCECB8A18B6388CEE7EF5D5D4F994BD86CBBA182D76543B9FCAE2FD7B24DF103504B0304140006080800B670623B1B8617914E0100003303000030000000666278
310
2F42384135303843342D343331462D343546312D424341352D3532343432364645413344462F636E782E786D6CD593C16EC32010447F0571AD6CE3D489D20813A9877E410FBD62D82434182CC055F3F75D1292E692438FBD206B7698593D61BEFD1E2DF982108D773D6D6B460938E5B571FB9ECE6957AD29D90A1EBC4F7736
310
4A9C1CA1A759A682EF839FA72269D8C9D92654AD71C72206887E0E0A22CAF926B15E498B01E0AA19451807D01A34B919F16B070157417138917400F2F6FA41FCF0092A45DEE414C19BDC21783E4BD39D891265658C3D8DEA00A3ACE59CBC8678ACB54CB26EEB6BD7839D7E9348BE70AD9C8321B9BCA7F9A4A26C542347DEE0
310
50F09802D22BA6749A800A394DD62899107273365E3C82CFC6A55557BC06C10774B7ABE7AEC3B0F34CF06446280E154026D0542C187BA9DAB6628BF7B6DBB0E5A65B3EB1F58631DE64BBE083F7B65CC218087E22CABB042E51D1F2268F1FE12B3EA24D40D63E9CFE00120194D60B9D5BC67FE6D39CDF37E20AF817881F504B
310
0304140006080800B670623BBFEF2E3B690500003C100000340000006662782F42384135303843342D343331462D343546312D424341352D3532343432364645413344462F6F626A656374732E786D6CAD575D739B3814FD2B0CFB0C98D84E931D4227B6938EA793B6534F3BFB90198F0099B001899144EAECAFDF231018B0
310
D37A3FFC609090EEE7B94757C1FB7D915B2F54C88CB31BDB7727B64559CC938CA53776A576CE956DBD0F03C1B9EA2DB32D460A7A63EB693B0C52C1ABD24C257447AA5C8D66EF177F5832A68CDA569C13296F6C193FD182B8A4523CA1F2D94D88226EBADBBBBEDB2C1C8A4D05299F46424B222853B014F30C52ACC6287F389C
310
D85E1878FA7B18E87FB36AFAF62AAFF667A83F635211161F291B8999FAB3D5DDC5FCDA99CF6653677679E13B8BFBC5CAF1DF4D27CBCBE5F2FAF6EE1A8AA51290642C117467871F101B91C581D77CEA2C36869F3229E68CD1B8F61F1ED6361B89092D294B90C78C4A68EB793D190E7D1D9BDEE7A91E1B95FDE9F3BCEAEFE809
310
6A6D6F9F7D4B79F4275C90E7A04248AA51D5C4C738DAE06F72885AC4796EBE65D22A88A22223B995679120E2D50EB1542F098381188D4EA111AE3DB043FF20AF6F2B4AE3D7D83D65E5AECA730D4D3BAC91BD05FEA992B565D95F549CD6069B90AB2A63EACA38A45E4B6A87D781574F86817E4C2FCCC72690D62E2729520E37
310
9BAF234797BAF6D62B3BFC781FED37BA1E4F2B2F052FA9501A3E80569BB8F6A9A364D4FA67654E6F803383981F82F21591FF84F23D9882BC896C3FDBCF8C162508933B2E0AE4C69DD43F6BD2BE38DDDBF10BF86CB4FA784D37F3AF16075E67EC9030DECA1FC0A55373F5DFF3378C591FA9BDF485C10B0A8C8BA909E5262639
310
A8E72163488806A595734C81CB77D1DE0ED7604A303B76913CEC0272F412782FF88EFF4636D8AA56DF7B322474C4B767303F625997056C7B032C473C592B36CEBD15F3F9FF5233B7ABCDC74D257624A60F8658567497B14CE1EC3C80B76FD02011038F9EE9EB0F2E12387A9C844D3F09855125116D1D731DF8B43D2CF4E0A0
310
79A020C6BE946BCE0B7EA1E1219331CD73C228AF5A2DDD31A4B1DA918CE91350854D40A71723140BFA92E94E62B0626016CEFA5864A50E5977E8753CEDBEE1CBB7F52780D20E17AF0BA0F5F9B02A3AD07DCC732EB6D1EBB661421BE0C39E21BABF0FE16D22EA6929407C8DE596724C88B749B6DB5512BC7B228ADFD7CB7EA6
310
3A22397E690BA8D5D8D4E40CEC8CDA23C2C0B7D5898640101CEC9C6D331CE328CB93CAFBBAC70A642DF70DF95155945B52F08AA973C23469FD69ADEF84F7BB18F983A8F8C90E37F5D35980B2139A1C523540813E824EF83448CF7C72B598CE97D7CEEDDDDD3B6736BFBC771677EF66CE6A7E7139F7A793E9EDF2B2B3A8B624
310
0CDA13AA5F8388264EC4A0129909F3B7F5A16CEDF08128E97D680ACA4B9BE7B7B58BB638F0B00700EF36AE8B32A705658A68F83EE897FC2B41573190D1CCAF0B92D233A47CFEB019D9809933F67DD1A5467F8CF69AD9A5AE859342D45355448C64F968A371DC2D596ADC6E43D93D1B466F877A64E2893E54F23C4B40388995
310
525E5005DA3983ED45412510D3EFCA13737B3863F74BD30F2A12E5B4B5E489A025CE25500DB855B11ACE5BBFA185D35DD48D8DC3CE7DC69F2944DB42AA6F6CF09BCA622ADD08C7A36E7C6AE18000BAB08E040135C2D21C9D75B3A91B77BB746C403F38018DFE6EC939DD92F16B40BC05294B9CDA035AAD6D330AE27FE4786B
310
8E45145EA34A75BE1C263A676A35A8ACC6297337400BF16C54EF515F3F77CB77EB3583889C754FFA29081AA98E2222ADEF05DA3E63D2EDEA8B8756C05A7FB6CABC4A91CBF325398202CC952E70A008A830324BA200D5E5EF8F5F04C75DB4B0EE3340E071C98B823333B83577596BF3849B69F2085AA0FAFA212F26BEFF5877
310
FDE622B28D88A42E49E43326DA82D31E8CB006401E1DA726059ECEC168F97A6599036306A135688F9AD2E61A6EA178F4CD51974A9F2CCB9F36FE5EBD14601068D9C3BF01504B0304140006080000B670623B000000000000000000000000350000006662782F42384135303843342D343331462D343546312D424341352D35
310
32343432364645413344462F76657274696365732E62696E504B0304140006080800B670623BF270F1330600000004000000360000006662782F42384135303843342D343331462D343546312D424341352D3532343432364645413344462F747269616E676C65732E62696E636660600000504B0304140006080000B67062
310
3B000000000000000000000000370000006662782F42384135303843342D343331462D343546312D424341352D3532343432364645413344462F617474726962757465732E62696E504B0304140006080800B670623B08DA0BD19000000041010000360000006662782F42384135303843342D343331462D343546312D4243
310
41352D3532343432364645413344462F6469726563746F72792E786D6C858F410AC3201045AF22B36F53E9A60B35CBEEBAE80D244E44489C6234F4F835464A48035D0DF398FF9F8AF63D0E6CC63039F212F8F9020C7D47C6792B21C5FE7403D62A1188E2E60C98D7234A5830286103A55745067B9D86B8A3CF9C7F90C11DE6
310
07FB144396D7B6A82D282E9A152AD114D5EF2CB866EEE831B8EEA07A7BB5A8D7D61A2BAAEB7FD5F70921FF497D00504B0304140006080800B670623B3B4606F3FE000000A00100003B0000006662782F42384135303843342D343331462D343546312D424341352D3532343432364645413344462F7265736F75726365732F
310
636F72652E786D6C8D504B6E833010BD0A9A6D65B08134808CA354A427E8052C332156828DFCA97AFC9A40A576D7CDCCE87D344F8F9FBEE647F689CE6B6B7A6039850C8DB2A336530F315C4903D94970676DF82583CCC8197B5861107C72362E3BA4AC096842428D1D7107A5F71820538F74F4E0D50D6799CB1892C2DFF345
310
AABB9C306779A2934E701F5C0A906D4FD609C2A1B7D129F4BCD858C163D4E3AED163FAA9AF1A1D88F67CA98E6D35906AA82A52BFB39ABCD5CD915C86331BD86BD3B665CD8BD52C78D0F34F46E550061C419494B6843142CB0F5677F4D0D58717DA7494F26295FF31C565FCA7296A13AA728FBBD93C0896823C09C18BB5AFB4
310
9E65A6BD762BBE01504B010214000A0000080000B670623B3DEE336E79000000790000001B00000000000000000000000000000000006175746F6465736B2D64657369676E2D7061636B6167652E786D6C504B01021400140006080800B670623BD486FD9CA0000000F40000001300000000000000000000000000B2000000
310
5B436F6E74656E745F54797065735D2E786D6C504B01021400140006080800B670623B28ED286BEB0000007C010000080000000000000000000000000083010000636F72652E786D6C504B01021400140006080800B670623B55019EA25F0000007C000000070000000000000000000000000094020000636E782E786D6C50
310
4B01021400140006080800B670623B7BC41AC871010000D40300000C00000000000000000000000000180300006662782F636F72652E786D6C504B01021400140006080800B670623B70102A487D0000009D0000000B00000000000000000000000000B30400006662782F636E782E786D6C504B01021400140006080800B6
310
70623B3610CA3329010000120200003100000000000000000000000000590500006662782F42384135303843342D343331462D343546312D424341352D3532343432364645413344462F636F72652E786D6C504B01021400140006080800B670623B1B8617914E010000330300003000000000000000000000000000D10600
310
006662782F42384135303843342D343331462D343546312D424341352D3532343432364645413344462F636E782E786D6C504B01021400140006080800B670623BBFEF2E3B690500003C10000034000000000000000000000000006D0800006662782F42384135303843342D343331462D343546312D424341352D35323434
310
32364645413344462F6F626A656374732E786D6C504B01021400140006080000B670623B0000000000000000000000003500000000000000000000000000280E00006662782F42384135303843342D343331462D343546312D424341352D3532343432364645413344462F76657274696365732E62696E504B010214001400
310
06080800B670623BF270F133060000000400000036000000000000000000000000007B0E00006662782F42384135303843342D343331462D343546312D424341352D3532343432364645413344462F747269616E676C65732E62696E504B01021400140006080000B670623B00000000000000000000000037000000000000
310
00000000000000D50E00006662782F42384135303843342D343331462D343546312D424341352D3532343432364645413344462F617474726962757465732E62696E504B01021400140006080800B670623B08DA0BD1900000004101000036000000000000000000000000002A0F00006662782F42384135303843342D3433
310
31462D343546312D424341352D3532343432364645413344462F6469726563746F72792E786D6C504B01021400140006080800B670623B3B4606F3FE000000A00100003B000000000000000000000000000E1000006662782F42384135303843342D343331462D343546312D424341352D3532343432364645413344462F72
310
65736F75726365732F636F72652E786D6C504B0506000000000E000E0080040000651100000000
  0
XRECORD
  5
187
102
{ACAD_REACTORS
330
186
102
}
330
186
100
AcDbXrecord
280
     1
 70
     1
 90
429727718
  1
887D55A9-D0DD-414E-B741-A7DCD4DA2B4C
310
504B03040A0000080000B670623B3DEE336E79000000790000001B0000006175746F6465736B2D64657369676E2D7061636B6167652E786D6C3C3F786D6C2076657273696F6E3D22312E302220656E636F64696E673D227574662D3822203F3E3C666F726D6174733E3C666F726D61743E687474703A2F2F736368656D612E
310
6175746F6465736B2E636F6D2F64657369676E2D7061636B6167652F323030393C2F666F726D61743E3C2F666F726D6174733E504B0304140006080800B670623BD486FD9CA0000000F4000000130000005B436F6E74656E745F54797065735D2E786D6C7D8EC10E82300C865F65E91D8A1E8C310C0EEA1BF002731658846E
310
D98AC1B77784ABF1D8FE5FBFBF75BBCE937A534CCEB38643598122B6FEE978D0B0485F9C41B54DDD7D022595594E1A469170414C76A4D9A4D207E29CF43ECE46F218070CC6BECC4078ACAA135ACF422C856C0E68EA1BF5669944DDD7BCDE7B1F8E415D77AECB980613C2E4AC91FC167A2B244592486606FC29C8FD7F045B9A
310
EF7053A7E60B504B0304140006080800B670623BBC1638F5EC0000007C01000008000000636F72652E786D6C8D90416EC3201045AF82665B61836BE2D8C24471DB9CA01740401C94182C03558F5F9C3852BBEB6A467FFE9B197D7EF89E6EE8CB2CC17AD7032D0820E394D7D68D3DA478C67B4007C117EFE32F1B202727D3C3
310
2A83E0E3E2D3BC49CABB685CCCAAF3DA6CA20CC14440EA969B1E82BA98491632C5EC08D76296EA2A4753D06797E194AC468F2356E77DF66CCD02825543D50CACC62D39ED70FDC68EB8FD68F6F8787A6784342D1DDA1D2F5758F068A7E77DB518198D065111D2624A31A93E69DD11D6D5EC85EC3B4278B9DAFF4069D6FF8492
310
75F1B5DADE7D600104CD8FDC0782976B16B9DC83CA75CD4DFC00504B0304140006080800B670623B55019EA25F0000007C00000007000000636E782E786D6C4DCB3B0E80201045D1AD90E915ED2CF8AC45050C11660C8261F98AB1B07AC9C97D42D718D865D3E909258CFD00CCE24AC6E326A164D74DC0B4128928FF326038
310
472BA13128B1252AC747C6BAB984FC68F0B87FE8960A5C09FE86CFB69FBA01504B0304140006080800B670623B3586FFB671010000D40300000C0000006662782F636F72652E786D6CC553ED6E8320147D15C2DF4541A76D6D90A6DDD627D80B50A4CE54C120983EFEAE1F4DD7A55BBA5FF3879273EEE59E7310B6393735EA
310
95ED2AA3731C851423A5A5292A5DE6D8BB63B0C268C39935C67D29C3488B46E578803167A535BE9D2169B453DA01AA4DA16650749D7218C91A1639EEE4876A4428BC838AEE14B6429E44A9C228041AEA38EB9C0501681A32BC313F1ECE8C4C3867DE57C5CC56054CAB8E95B298A7F12E5EEED224C8E87E11242FE936C8DE96
310
AB60BB7F4D295D66D12E5B30323473E6AAE6A24E5A259C2A308F29CD82280A68FC1E256B9AAE93F489AED694323294DF34F9B678B0C957DA3DC7B3DCA9ADC33C022123F1CD2D44E450277AD04338234388F01913BE0D1A0281909D38D4171F27807A259DB1093085F157AA17B557309586747CD0CF0B46A64E983A6E0EAEEF
310
CE881F9EF1FB8E70D44297604238581EBC1B74B249C31C5AAB6CD0BB33D2C636A27ECCC62F0EFF445DC5DF95244D6DEC7F2922F30191F9F720C37DE49F504B0304140006080800B670623B4220A0FF7D0000009D0000000B0000006662782F636E782E786D6C4DCCD10A83201886E15B91FFDCE542CB0335D0EC3E6259C84A
310
C3E9D8E5AF46073BFAE0E1E315DD675BD1DBA5978F41C2FD4600B9F088930F8B849267CC01754AA418F3DF0D50183727E164506249B1EC174D6E1ECB9A0F5D7D785E68DB8151CD286E5A5363CA6B8A39E90D36D40E96B086F55A43A544F52B1D7B86D517504B0304140006080800B670623B2FA3FEDE290100001202000031
310
0000006662782F45374635344235342D363743322D343832342D383044432D4334454645303536354442422F636F72652E786D6C8D515B6EC32010BC0AE22B55850D2E386E848994D7097A0117488A1283C5A3CAF10BB523B57FF961D1ECCCECC0F2ED7DBC816FED8371B687A4C210682B9D32F6D2C314CFA883602BB8772E
310
FEA141608751F7B0C050F08B77695A20E96CD43666D43AA5177008414708E42D5F7A18E4971E876A483133C2B59A06791D2EBA22556E679EE021FA1C00CC43CA09C5717D6274C7286AD7FB06D1AEA1A8C3873DDAD3E3E98859CB0EBB1DAF67A1E02919B5C88DCA71CCD968FFAC49110B1ECDF8882FBD1EA256503418BF2342
310
106E3E08DD60B6A1EC15771B8C795DE8FF4469524F8A92B1F1AD59E2CEB20005E1F5DC105CB9F4797B84D1F7C9F908CABC55D0F2050A5C61CC1AD2F27A26E6E767C7962E8E213A9FBF7775FDCC5CC266DB960A5E970DE5F2BBBE5CCB36C50F504B0304140006080800B670623B1B8617914E01000033030000300000006662
310
782F45374635344235342D363743322D343832342D383044432D4334454645303536354442422F636E782E786D6CD593C16EC32010447F0571AD6CE3D489D20813A9877E410FBD62D82434182CC055F3F75D1292E692438FBD206B7698593D61BEFD1E2DF982108D773D6D6B460938E5B571FB9ECE6957AD29D90A1EBC4F77
310
364A9C1CA1A759A682EF839FA72269D8C9D92654AD71C72206887E0E0A22CAF926B15E498B01E0AA19451807D01A34B919F16B070157417138917400F2F6FA41FCF0092A45DEE414C19BDC21783E4BD39D891265658C3D8DEA00A3ACE59CBC8678ACB54CB26EEB6BD7839D7E9348BE70AD9C8321B9BCA7F9A4A26C542347DE
310
E050F09802D22BA6749A800A394DD62899107273365E3C82CFC6A55557BC06C10774B7ABE7AEC3B0F34CF06446280E154026D0542C187BA9DAB6628BF7B6DBB0E5A65B3EB1F58631DE64BBE083F7B65CC218087E22CABB042E51D1F2268F1FE12B3EA24D40D63E9CFE00120194D60B9D5BC67FE6D39CDF37E20AF817881F50
310
4B0304140006080800B670623B29652116630500003C100000340000006662782F45374635344235342D363743322D343832342D383044432D4334454645303536354442422F6F626A656374732E786D6CAD575D739B3814FD2B0CFB0C989834C90EA1639B24E3E9A6EDD4D3CE3E64C623834CD8006224913AFDF57B040203
310
B65BEF871F0C12D2FD3CF7E8CA7FBFCB33E3957291B2E2D674ED8969D02262715A24B76625B7D6B569BC0F7CCE98EC2D338D82E4F4D654D366E0279C55A59E8AE99654991CCDDECFFF3444440B6A1A514684B83545F44C7362934AB2988A173B2692D8C97667BB76B3702836E1A47C1E092D09A78584A5982F20C5688C7287
310
C389E904BEA3BE07BEFAD7ABA6A75739B53F43FD69212429A20365233153D70BEF2E2E6FAC4BCF9B5ADEBB0BD79ADFCF43CBBD9A4E16EF168B9BD9DD0D140BC921495BC2E9D60C1E101B9E46BED37CEA2CD6861F3329624541A3DA7F7858DBAC25C6B4A4458C3CA654405BCFEBC970E8AAD8F43E4FD558ABEC4F9FE7557F47
310
4F506B7BFBEC5BCA367FC105710E2AB8A00A554D7CB4A30DFE26FBA86D18CBF4B75418399194A72433B274C3097F33032C554B027F2046A1932B842B0FCCC0DDCBEBDB8AD2F835768F59B9ADB24C41D30C6A64AF817F2A456D59FA83F2E3DA60137255A585BCD60EC9B7929AC18DEFD49381AF1ED30BFDB109A4B1CD488294
310
C3CDE6EBC8D185AABD6568061FEE37BB95AAC7E3CA4BCE4ACAA5820FA0D526AE7DAA2869B5EE5999531BE0CC20E6FBA07C41E43FA27CF7A6206F3CDD793B4F6B919C1462CB788EDCD893FA674CDA17AB7B3B7C019F8D561FAEE966FED562DFE98C1D12C6A9FC015C2A35D7FF3D7FC398F591DA4B5FE0BFA2C0189FEA50AE22
310
92817A1ED3020951A03432862970F976B33383259812CC8E5D240BBA801CBCF8CE2BBEE3BF910DB6AAD5F79E05123AE2DB33981FB1ACCB02B69D00CB014FD68AB573A7627EF9BFD4CC2C5C7D58557C4B22FAA88925A4DBB44825CECE3D78FB060D1231F0E885BE7D673C86A3874958F593906B5502D1563157814FDAC3420D
310
F69A070A22EC4B98E23CFF171A1E5311D12C23056555ABA53B8614563B92D17D02AAB009E8F46284624E5F53D5490C560CCCC2591FF1B45421EB0EBD8EA7ED13BE7C5D7E0428CD60FEF60779EB13E6664FF711CB185F6FDED60D139A001FF60CD1FD6D086F1D51474901E26B2CB794A343BC8ED3EDB612E0DD2351FCB65CF4
310
33D511C9E14B5B40ADC6A6263DB0336A8F700DDF56271A024E70B0B3629DE21847591E55DED73D56206AB927E46FAABC5C939C55853C274C93D69FD6FA4E78BF8B11DF898C9ECD60553FAD39283BA6F18984AA23E8884F83F45C5F5F859797B31B2B9C84A1E5B9DE9D35BFF25C6B76152E422F9C5DCC3D847F5801ED09D5AF
310
41441327A25FF15487F9EB725FB666F048A4701E9A827292E6F97569A32DF61DEC01C0BB8DCBBCCC684E0B49147C1FD54BF685A0AB18C868E6973949E819523E3DAC463660E68C7D9F55A9D1EFA3BD7A76A16AE1A810F95CE59B82A4D968A376DC2E8B44BBDD86B27B368CDE0ED548C7137DA860591A83706223A12CA712B4
310
7306DBF39C0A20A6DF95C7FAF670C6EED7A61F946493D1D6926782963813403548A78AE470DEF80D2D9CEAA26E4D1C76F60BFE74219A06527D6B82DF641A51616F703CAAC6A7160E08A00BEB4810A0274592A1B36E3675E36E978A0DE80727A0D6DF2D39A75BD27E0D8837276589537B40ABB56D5A41F48F1C6FCD3188C4EB
310
A6929D2FFB89CE995A4D00AE813BDD032DC48B56BD437DFDDC2DD7AED70C2272D63DE9A72068A45A92F0A4BE17A8A06B9366E16707AD80B1FC649459952097E74BB23805982B55E0401150A165964402AA8BDF9F3E7386BB686EDCA780C0D382E5392BF460A6EFB2C6EA1937D3F809B440D5F5435C4C5CF7A9EEFAF54564BD
310
2182DA24162F98680B4E7930C21A0079709CEAEB99A372305ABE0C0D7D6078105A83F6A0296DAEE1068A47DD1C55A9F4C9B2FC69E3EFD44B81028E963DF81B504B0304140006080000B670623B000000000000000000000000350000006662782F45374635344235342D363743322D343832342D383044432D433445464530
310
3536354442422F76657274696365732E62696E504B0304140006080800B670623BF270F1330600000004000000360000006662782F45374635344235342D363743322D343832342D383044432D4334454645303536354442422F747269616E676C65732E62696E636660600000504B0304140006080000B670623B00000000
310
0000000000000000370000006662782F45374635344235342D363743322D343832342D383044432D4334454645303536354442422F617474726962757465732E62696E504B0304140006080800B670623B08DA0BD19000000041010000360000006662782F45374635344235342D363743322D343832342D383044432D4334
310
454645303536354442422F6469726563746F72792E786D6C858F410AC3201045AF22B36F53E9A60B35CBEEBAE80D244E44489C6234F4F835464A48035D0DF398FF9F8AF63D0E6CC63039F212F8F9020C7D47C6792B21C5FE7403D62A1188E2E60C98D7234A5830286103A55745067B9D86B8A3CF9C7F90C11DE607FB144396
310
D7B6A82D282E9A152AD114D5EF2CB866EEE831B8EEA07A7BB5A8D7D61A2BAAEB7FD5F70921FF497D00504B0304140006080800B670623B6378F24DFF000000A00100003B0000006662782F45374635344235342D363743322D343832342D383044432D4334454645303536354442422F7265736F75726365732F636F72652E
310
786D6C8D504B6E833010BD0A9A6D65B0094E42641C85B639412F6099496225D8C89FAAC7AF09546A77DDCC8CDE47F3F4C4F16B7C149FE88371B603565228D06A37187BED20C50BD9437194C23B177FC9A0B06AC40E6618A4B87A97A615D2CE46B431A3D60DB8822A048C50E8473E3A08FA86A32A558A5911EEE5A4F45D5DB1
310
6465A6B34E8A107D0E502C4FE609D26370C96B0CA25A58295232C3AA3143FE692E063D485EF7F5AEE71BD2D2F39634AFFC44DAF7DD9E9CCE6F9CD25DCBFA762BAAD92C4534E34F46ED51451C40D694B6843142EB0FD61C283F34FC85EE0F948A6A96FF31A569F8A729191B37F51A77B105902C0779125254735F793DCBCC7B
310
EE567E03504B010214000A0000080000B670623B3DEE336E79000000790000001B00000000000000000000000000000000006175746F6465736B2D64657369676E2D7061636B6167652E786D6C504B01021400140006080800B670623BD486FD9CA0000000F40000001300000000000000000000000000B20000005B436F6E
310
74656E745F54797065735D2E786D6C504B01021400140006080800B670623BBC1638F5EC0000007C010000080000000000000000000000000083010000636F72652E786D6C504B01021400140006080800B670623B55019EA25F0000007C000000070000000000000000000000000095020000636E782E786D6C504B010214
310
00140006080800B670623B3586FFB671010000D40300000C00000000000000000000000000190300006662782F636F72652E786D6C504B01021400140006080800B670623B4220A0FF7D0000009D0000000B00000000000000000000000000B40400006662782F636E782E786D6C504B01021400140006080800B670623B2F
310
A3FEDE290100001202000031000000000000000000000000005A0500006662782F45374635344235342D363743322D343832342D383044432D4334454645303536354442422F636F72652E786D6C504B01021400140006080800B670623B1B8617914E010000330300003000000000000000000000000000D2060000666278
310
2F45374635344235342D363743322D343832342D383044432D4334454645303536354442422F636E782E786D6C504B01021400140006080800B670623B29652116630500003C10000034000000000000000000000000006E0800006662782F45374635344235342D363743322D343832342D383044432D4334454645303536
310
354442422F6F626A656374732E786D6C504B01021400140006080000B670623B0000000000000000000000003500000000000000000000000000230E00006662782F45374635344235342D363743322D343832342D383044432D4334454645303536354442422F76657274696365732E62696E504B01021400140006080800
310
B670623BF270F13306000000040000003600000000000000000000000000760E00006662782F45374635344235342D363743322D343832342D383044432D4334454645303536354442422F747269616E676C65732E62696E504B01021400140006080000B670623B0000000000000000000000003700000000000000000000
310
000000D00E00006662782F45374635344235342D363743322D343832342D383044432D4334454645303536354442422F617474726962757465732E62696E504B01021400140006080800B670623B08DA0BD190000000410100003600000000000000000000000000250F00006662782F45374635344235342D363743322D34
310
3832342D383044432D4334454645303536354442422F6469726563746F72792E786D6C504B01021400140006080800B670623B6378F24DFF000000A00100003B00000000000000000000000000091000006662782F45374635344235342D363743322D343832342D383044432D4334454645303536354442422F7265736F75
310
726365732F636F72652E786D6C504B0506000000000E000E0080040000611100000000
  0
XRECORD
  5
112
102
{ACAD_REACTORS
330
110
102
}
330
110
100
AcDbXrecord
280
     1
270
     1
271
     1
  0
XRECORD
  5
111
102
{ACAD_REACTORS
330
110
102
}
330
110
100
AcDbXrecord
280
     1
270
     1
271
     1
  0
XRECORD
  5
18A
102
{ACAD_REACTORS
330
110
102
}
330
110
100
AcDbXrecord
280
     1
 70
     0
 90
1778669749
  1
9BF507EE-FAF7-4A99-A33D-4EE51894BC40
310
504B03040A0000080000B670623B3DEE336E79000000790000001B0000006175746F6465736B2D64657369676E2D7061636B6167652E786D6C3C3F786D6C2076657273696F6E3D22312E302220656E636F64696E673D227574662D3822203F3E3C666F726D6174733E3C666F726D61743E687474703A2F2F736368656D612E
310
6175746F6465736B2E636F6D2F64657369676E2D7061636B6167652F323030393C2F666F726D61743E3C2F666F726D6174733E504B0304140006080800B670623BD486FD9CA0000000F4000000130000005B436F6E74656E745F54797065735D2E786D6C7D8EC10E82300C865F65E91D8A1E8C310C0EEA1BF002731658846E
310
D98AC1B77784ABF1D8FE5FBFBF75BBCE937A534CCEB38643598122B6FEE978D0B0485F9C41B54DDD7D022595594E1A469170414C76A4D9A4D207E29CF43ECE46F218070CC6BECC4078ACAA135ACF422C856C0E68EA1BF5669944DDD7BCDE7B1F8E415D77AECB980613C2E4AC91FC167A2B244592486606FC29C8FD7F045B9A
310
EF7053A7E60B504B0304140006080800B670623BCA089DFFEC0000007C01000008000000636F72652E786D6C8D90416E83301045AF62CDB632D8402020E32882F604BD80653BC44AB011B6AB1EBF262152BBEB6A467FFE9B197D76FA9EEFE84BAFDE38DB03CD08206DA553C64E3DC470C1474027CE56E7C22F1B202B66DDC3
310
260367D3EAE2B24BD2D9A06D48AA754AEFA2F05E0740F29E9A1EBCBCEA59642286E4F0B76C11F226269DD15797E0188D42CF2346A57DE662F40ABCAEC77628C6120F654571D50C04B7F5B9C1E3997CD4F550BE3745C3F20DE62C98F9755FAE5A04AD801784B498524C8A4F5A75E4D055873772EC0861F966FF03C545FD138A
310
C686B2D8DF7D621E384D8F3C069CE55B16A93C824A75CB8DFF00504B0304140006080800B670623B55019EA25F0000007C00000007000000636E782E786D6C4DCB3B0E80201045D1AD90E915ED2CF8AC45050C11660C8261F98AB1B07AC9C97D42D718D865D3E909258CFD00CCE24AC6E326A164D74DC0B4128928FF326038
310
472BA13128B1252AC747C6BAB984FC68F0B87FE8960A5C09FE86CFB69FBA01504B0304140006080800B670623B68FC0B7272010000D40300000C0000006662782F636F72652E786D6CC5535B6E833010BC8AE5DF0A6C1E8124328E22D29EA01770C0A128602363A31CBFCB234A53A555FA553EC09AD9F5CE8C31DB5DDA060D
310
D2F4B556190E7C8A9154852E6B5565D8D993B7C668C799D1DA7E29C3488956667884316795D1AE5BA0422B2B950554E9522EA0E87B69312A1A5864B82F3E642B7CE12C54F467BF13C55954D20F7CA0A18EB3DE1A1080E621E31BF3D3F1C2C88C73E65C5D2E6C5DC2B4FA544B8379921C36797888BC3C8A032F4E73EA6D927D
310
EA1DF6F42D49F2E8350D5346C666CE6CDD5ED515460A2B4BCC434A375E1078347C0FE22D5D6DE3D50B5D6F2965642CBF6B725DF96493AB958DC245EEDCD6631E809089F8E61622B2A81703E8219C913144F84C09DF070D8140C8561C9BAB8F3340832CAC363130A576376A108D933095FA747AD0CF0B46E64E983A6D0EAE1F
310
CE089F9EF1FB8E70D44255604258581E9D1D75B259C3125A278D37D80B52DAB4A279CEC62F0EFF44DDC43F9454E8469BFF5244960322CBEF41C6FBC83F01504B0304140006080800B670623B0F71DDB67E0000009D0000000B0000006662782F636E782E786D6C4DCCD10A83201886E15B91FFDCA54DB73F502386BB8F5816
310
32D3703976F9ABD1C18E3E78F87855FB990379BBFCF2296AE02706C4C5471A7C9C349475A408A4352AA7B4FEDD80C47E761A7606A3A69CCA72D0E0C6BE8475D3E0E3F3409428EA6B27A84079A782899AA2EC1A7AE3ECCC2FD858CB2D544655BFD2B67BD87C01504B0304140006080800B670623BE134B4FB28010000120200
310
00310000006662782F38353834323741342D343835462D343034322D383541392D4331303331363839454531452F636F72652E786D6C8D515B6EC32010BC0AE22B55850D0EA424C24451959EA0172086A42831583CAA1CBF503B52FB971F16CDCECC0EACD8DFC71BF836215AEF7A481A0C817183D7D65D7A98D3197108F652
310
04EFD31F1A044E8DA6871586525C82CFD3020DDE25E352419DD76601558C264130DCCAA58771F832A36A544E8511AFCDA486ABBA988634A55D7852C4144A00300FA927949C71DABD1D28A29C7D208A6987383B6CD13BC16BB2E1DBE3911C453B0BA5C8D9EA456E758963CFD684674DAA588A64C747FC2118958C86B2C3788B
310
0841B8FB247487D98EB257CC77188BB6D2FF89F2A49F1465EBD2BA5BE2CEB2082511EDDC9042FB7CBA3DC298FBE4430275DE2A9AE1054ADC60CC08E3A29D89E5F9C5714317C7987C28DFBBBA9E0A97B0D97643A568EB864AF95D5FA9759BF207504B0304140006080800B670623B1B8617914E010000330300003000000066
310
62782F38353834323741342D343835462D343034322D383541392D4331303331363839454531452F636E782E786D6CD593C16EC32010447F0571AD6CE3D489D20813A9877E410FBD62D82434182CC055F3F75D1292E692438FBD206B7698593D61BEFD1E2DF982108D773D6D6B460938E5B571FB9ECE6957AD29D90A1EBC4F
310
77364A9C1CA1A759A682EF839FA72269D8C9D92654AD71C72206887E0E0A22CAF926B15E498B01E0AA19451807D01A34B919F16B070157417138917400F2F6FA41FCF0092A45DEE414C19BDC21783E4BD39D891265658C3D8DEA00A3ACE59CBC8678ACB54CB26EEB6BD7839D7E9348BE70AD9C8321B9BCA7F9A4A26C542347
310
DEE050F09802D22BA6749A800A394DD62899107273365E3C82CFC6A55557BC06C10774B7ABE7AEC3B0F34CF06446280E154026D0542C187BA9DAB6628BF7B6DBB0E5A65B3EB1F58631DE64BBE083F7B65CC218087E22CABB042E51D1F2268F1FE12B3EA24D40D63E9CFE00120194D60B9D5BC67FE6D39CDF37E20AF817881F
310
504B0304140006080800B670623B5933D422630500003B100000340000006662782F38353834323741342D343835462D343034322D383541392D4331303331363839454531452F6F626A656374732E786D6CAD575B6FA33814FE2B887D0642934E9B156594264D158D3A534DD4D13E548A0C38942D60649B4EBABF7E3F8321
310
40924EF6928780CDF1B97EE762EFF32E4B8D37CA45C2F21BD3B547A641F39045491EDF98A5DC5AD7A6F1D9F73863B243661A39C9E88DA9B64DDF8B392B0BBD15D12D295339D85DDEFE618890E6D434C2940871638AF08566C426A5641115AF764424B1E3EDCE76ED9AB0CF36E6A47819302D08A7B984A6D8CFC1C5A89572FB
310
CB91E9F89EA3BEFB9EFAD754E3D3544E654F5F7E920B49F2F040D880CDD89D2CEE2E2EA7D6E56432B6269F2E5CEB7679BBB0DCABF168FE693E9FCEEEA6102C240727AD09A75BD3BF876F78127A4EFDA9D5582B7E4CA590E5390D2BFB6161A5B3E618D182E611E2985001691DAB47FDA5AB7CD3F93C566B2DB2BB7D9E55DD13
310
1D468DEECDB3AB290BFE8409E21C54704115AA6AFF68436BFC8DF65E0B184BF5B74418199194272435D224E084BF9B3E481589EFF5D828747285706581E9BB7B7E5D5D911ABFC6EE312DB7659A2A689A7E85EC0DF04FA5A8344BFEA2FCB834E8845895492EAFB541F2BDA0A63FF59C6AD3F7D4637CA13FD68E34B629891172
310
98597F1D183A57B9B75A98FE9765B05BAB7C3C2EBCE0ACA05C2AF8005A4DE09AA7F29216EB9E15397500C6F47CBE77CA7778FE2BD277AF0AE2C693DD6437D1522427B9D8329E2136F6A8FA19A3E6C56ADF0E5F50CF06D48734EDCEBF22F69C56D97EC138153F804B85E6FABFC7AFEFB32E523BE1F3BD372418E363EDCA7548
310
52949E8724474014288D94610BB57C1BEC4C7F854A89CA8E5324F55B871CBC78CE1BBEE3BFE68D6A5589EF3C730474506FCFA8FCF0659516D0ED04580EEA6425581B77CAE797FF4BCECC16EB2FEB926F49481F746159D06D922712BD730FDEAE42BD40F42C7AA5EF3F198F60E86110D6DD20645A9480B795CF95E3E3A659A8
310
C55E724F408873315335CFFB8584874484344D494E59D94869DB90C26A5B64F49C802CAC1D3ABE18A098D3B7444D123D8A9E5AE8F5214F0AE5B2B6E9B575DA3E61CBD3EA2B4009FA940524DD1305FB6A1FB294F14DF0BEA90BA109ECE1481FDC3FFAE8D60E75141700BE82725371B4873751B2DD960265F788137FACE6DD40
310
B575E4F0A5C99F46629D92131467A41EE11ABD8D4CCC039CA0AFB37C93A08B232B8F0AEFCA1E0A1015DF13FC83322B362463652ECF71D3A8B1A7D1BE65DE1D62C44F22C317D35F574FEB16153BA2D13E543D10A80E74C4A65E78A6B7CBCBD1D5DD9DB59C2DAFACC96C3AB566E3F1C29ADCDD5DBAD7D3C9ED7C822ED74F80A6
310
41755310DE4443F44A9E68373FADF6596BFA0F440AE7BECE2727AE9F4F2B1B53B1E7E00CF0DD1E5C65454A339A4BA2D0FBA05ED2EF0443458F47BDBFCA484CCFE0F2ED7E3DD0013B679C7B5499467F0ECEEADDB9CA85A34CE44B99053949D2C1416DB85DE4B136BB7165FBAC0B7AB3542BED4F8CA182A549847A1319316519
310
95A83A67147B9E5101C47487F2485F1ECE38FD568F839204296D3479219888530154036E6528FBFBC66F98E0D4107563A2D7D9AFF8D389681A08F58D89F22693900A3B407754734FC51C10C010D6D640809EE4718AC1BA3ED4AEDB53CA37283F68805A7E4B72CEB0A4EDEAD5DD8C14059A76AFAA56BA6901E13F32BC51C720
310
12AF41295B5BF61BAD3195181FB506E6B40F4C10AF5AF40EF9F5B159AE5DD1F43C72D635E94310D45C2D49785C5D0B94D3B54AB3C5A38349C0587D338AB48C11CBF339599C02CCA54A70A008A8D03C0B2201D5F9EFCF8F9CE12A9A19CB0410789EB32C63B95ECCF455D658BFE0621A3DA32C5075FB101723D77DAE867E7D0F
310
D90444509B44E2151B4DC2290B065803200FBAA9BE9D392A0603F2D5C2D00D6302A615680F66D2FA166E2079D4C551A54AB758161FCEFD4E450A14704CECFEDF504B0304140006080000B670623B000000000000000000000000350000006662782F38353834323741342D343835462D343034322D383541392D4331303331
310
363839454531452F76657274696365732E62696E504B0304140006080800B670623BF270F1330600000004000000360000006662782F38353834323741342D343835462D343034322D383541392D4331303331363839454531452F747269616E676C65732E62696E636660600000504B0304140006080000B670623B000000
310
000000000000000000370000006662782F38353834323741342D343835462D343034322D383541392D4331303331363839454531452F617474726962757465732E62696E504B0304140006080800B670623B08DA0BD19000000041010000360000006662782F38353834323741342D343835462D343034322D383541392D43
310
31303331363839454531452F6469726563746F72792E786D6C858F410AC3201045AF22B36F53E9A60B35CBEEBAE80D244E44489C6234F4F835464A48035D0DF398FF9F8AF63D0E6CC63039F212F8F9020C7D47C6792B21C5FE7403D62A1188E2E60C98D7234A5830286103A55745067B9D86B8A3CF9C7F90C11DE607FB1443
310
96D7B6A82D282E9A152AD114D5EF2CB866EEE831B8EEA07A7BB5A8D7D61A2BAAEB7FD5F70921FF497D00504B0304140006080800B670623BD9A3B367FE000000A00100003B0000006662782F38353834323741342D343835462D343034322D383541392D4331303331363839454531452F7265736F75726365732F636F7265
310
2E786D6C8D504B6E833010BD0A9A6D65B01D0201194711694FD00B586642AD043BF2A7EAF16B122AB5BB6E6646EFA3797AE2F8B5DC8A4FF4C1383B002B291468B59B8C9D0748F1420E501CA5F0CEC55F3228AC5A708015062966EFD27D83B4B3116DCCA875136EA00A012314FA968F0182FEC045952AC5AC08D7F2AEF455CD
310
58B232D3592745883E07289E4FD609D26370C96B0CA27AB252A464A64D63A6FCD35C0C7A904D73EE467EE664DCD58CD4ED4849D79C5A723ED1B7A61977AF2D6F45B59AA58866F9C9A83DAA8813484E6947182394BFB3BAA7FBBEDEBFD0434FA9A856F91F53BA4FFF342563E38E6F719FB60092E5200F428A6AED2BAF479979
310
AFDDCA6F504B010214000A0000080000B670623B3DEE336E79000000790000001B00000000000000000000000000000000006175746F6465736B2D64657369676E2D7061636B6167652E786D6C504B01021400140006080800B670623BD486FD9CA0000000F40000001300000000000000000000000000B20000005B436F6E
310
74656E745F54797065735D2E786D6C504B01021400140006080800B670623BCA089DFFEC0000007C010000080000000000000000000000000083010000636F72652E786D6C504B01021400140006080800B670623B55019EA25F0000007C000000070000000000000000000000000095020000636E782E786D6C504B010214
310
00140006080800B670623B68FC0B7272010000D40300000C00000000000000000000000000190300006662782F636F72652E786D6C504B01021400140006080800B670623B0F71DDB67E0000009D0000000B00000000000000000000000000B50400006662782F636E782E786D6C504B01021400140006080800B670623BE1
310
34B4FB280100001202000031000000000000000000000000005C0500006662782F38353834323741342D343835462D343034322D383541392D4331303331363839454531452F636F72652E786D6C504B01021400140006080800B670623B1B8617914E010000330300003000000000000000000000000000D3060000666278
310
2F38353834323741342D343835462D343034322D383541392D4331303331363839454531452F636E782E786D6C504B01021400140006080800B670623B5933D422630500003B10000034000000000000000000000000006F0800006662782F38353834323741342D343835462D343034322D383541392D4331303331363839
310
454531452F6F626A656374732E786D6C504B01021400140006080000B670623B0000000000000000000000003500000000000000000000000000240E00006662782F38353834323741342D343835462D343034322D383541392D4331303331363839454531452F76657274696365732E62696E504B01021400140006080800
310
B670623BF270F13306000000040000003600000000000000000000000000770E00006662782F38353834323741342D343835462D343034322D383541392D4331303331363839454531452F747269616E676C65732E62696E504B01021400140006080000B670623B0000000000000000000000003700000000000000000000
310
000000D10E00006662782F38353834323741342D343835462D343034322D383541392D4331303331363839454531452F617474726962757465732E62696E504B01021400140006080800B670623B08DA0BD190000000410100003600000000000000000000000000260F00006662782F38353834323741342D343835462D34
310
3034322D383541392D4331303331363839454531452F6469726563746F72792E786D6C504B01021400140006080800B670623BD9A3B367FE000000A00100003B000000000000000000000000000A1000006662782F38353834323741342D343835462D343034322D383541392D4331303331363839454531452F7265736F75
310
726365732F636F72652E786D6C504B0506000000000E000E0080040000611100000000
  0
XRECORD
  5
113
102
{ACAD_REACTORS
330
110
102
}
330
110
100
AcDbXrecord
280
     1
270
     1
271
     1
  0
XRECORD
  5
114
102
{ACAD_REACTORS
330
110
102
}
330
110
100
AcDbXrecord
280
     1
270
     1
271
     1
  0
CELLSTYLEMAP
  5
DB5F
102
{ACAD_REACTORS
330
104
102
}
330
104
100
AcDbCellStyleMap
 90
        3
300
CELLSTYLE
  1
TABLEFORMAT_BEGIN
 90
        5
170
     1
 91
        0
 92
    32768
 62
   257
 93
        1
300
CONTENTFORMAT
  1
CONTENTFORMAT_BEGIN
 90
        0
 91
        0
 92
      512
 93
        0
300

 40
0.0
140
1.0
 94
        5
 62
     0
340
11
144
0.25
309
CONTENTFORMAT_END
171
     1
301
MARGIN
  1
CELLMARGIN_BEGIN
 40
0.06
 40
0.06
 40
0.06
 40
0.06
 40
0.18
 40
0.18
309
CELLMARGIN_END
 94
        6
 95
        1
302
GRIDFORMAT
  1
GRIDFORMAT_BEGIN
 90
        0
 91
        1
 62
     0
 92
       -2
340
0
 93
        0
 40
0.045
309
GRIDFORMAT_END
 95
        2
302
GRIDFORMAT
  1
GRIDFORMAT_BEGIN
 90
        0
 91
        1
 62
     0
 92
       -2
340
0
 93
        0
 40
0.045
309
GRIDFORMAT_END
 95
        4
302
GRIDFORMAT
  1
GRIDFORMAT_BEGIN
 90
        0
 91
        1
 62
     0
 92
       -2
340
0
 93
        0
 40
0.045
309
GRIDFORMAT_END
 95
        8
302
GRIDFORMAT
  1
GRIDFORMAT_BEGIN
 90
        0
 91
        1
 62
     0
 92
       -2
340
0
 93
        0
 40
0.045
309
GRIDFORMAT_END
 95
       16
302
GRIDFORMAT
  1
GRIDFORMAT_BEGIN
 90
        0
 91
        1
 62
     0
 92
       -2
340
0
 93
        0
 40
0.045
309
GRIDFORMAT_END
 95
       32
302
GRIDFORMAT
  1
GRIDFORMAT_BEGIN
 90
        0
 91
        1
 62
     0
 92
       -2
340
0
 93
        0
 40
0.045
309
GRIDFORMAT_END
309
TABLEFORMAT_END
  1
CELLSTYLE_BEGIN
 90
        1
 91
        1
300
_TITLE
309
CELLSTYLE_END
300
CELLSTYLE
  1
TABLEFORMAT_BEGIN
 90
        5
170
     1
 91
        0
 92
        0
 62
   257
 93
        1
300
CONTENTFORMAT
  1
CONTENTFORMAT_BEGIN
 90
        0
 91
        0
 92
      512
 93
        0
300

 40
0.0
140
1.0
 94
        5
 62
     0
340
11
144
0.18
309
CONTENTFORMAT_END
171
     1
301
MARGIN
  1
CELLMARGIN_BEGIN
 40
0.06
 40
0.06
 40
0.06
 40
0.06
 40
0.18
 40
0.18
309
CELLMARGIN_END
 94
        6
 95
        1
302
GRIDFORMAT
  1
GRIDFORMAT_BEGIN
 90
        0
 91
        1
 62
     0
 92
       -2
340
0
 93
        0
 40
0.045
309
GRIDFORMAT_END
 95
        2
302
GRIDFORMAT
  1
GRIDFORMAT_BEGIN
 90
        0
 91
        1
 62
     0
 92
       -2
340
0
 93
        0
 40
0.045
309
GRIDFORMAT_END
 95
        4
302
GRIDFORMAT
  1
GRIDFORMAT_BEGIN
 90
        0
 91
        1
 62
     0
 92
       -2
340
0
 93
        0
 40
0.045
309
GRIDFORMAT_END
 95
        8
302
GRIDFORMAT
  1
GRIDFORMAT_BEGIN
 90
        0
 91
        1
 62
     0
 92
       -2
340
0
 93
        0
 40
0.045
309
GRIDFORMAT_END
 95
       16
302
GRIDFORMAT
  1
GRIDFORMAT_BEGIN
 90
        0
 91
        1
 62
     0
 92
       -2
340
0
 93
        0
 40
0.045
309
GRIDFORMAT_END
 95
       32
302
GRIDFORMAT
  1
GRIDFORMAT_BEGIN
 90
        0
 91
        1
 62
     0
 92
       -2
340
0
 93
        0
 40
0.045
309
GRIDFORMAT_END
309
TABLEFORMAT_END
  1
CELLSTYLE_BEGIN
 90
        2
 91
        1
300
_HEADER
309
CELLSTYLE_END
300
CELLSTYLE
  1
TABLEFORMAT_BEGIN
 90
        5
170
     1
 91
        0
 92
        0
 62
   257
 93
        1
300
CONTENTFORMAT
  1
CONTENTFORMAT_BEGIN
 90
        0
 91
        0
 92
      512
 93
        0
300

 40
0.0
140
1.0
 94
        2
 62
     0
340
11
144
0.18
309
CONTENTFORMAT_END
171
     1
301
MARGIN
  1
CELLMARGIN_BEGIN
 40
0.06
 40
0.06
 40
0.06
 40
0.06
 40
0.18
 40
0.18
309
CELLMARGIN_END
 94
        6
 95
        1
302
GRIDFORMAT
  1
GRIDFORMAT_BEGIN
 90
        0
 91
        1
 62
     0
 92
       -2
340
0
 93
        0
 40
0.045
309
GRIDFORMAT_END
 95
        2
302
GRIDFORMAT
  1
GRIDFORMAT_BEGIN
 90
        0
 91
        1
 62
     0
 92
       -2
340
0
 93
        0
 40
0.045
309
GRIDFORMAT_END
 95
        4
302
GRIDFORMAT
  1
GRIDFORMAT_BEGIN
 90
        0
 91
        1
 62
     0
 92
       -2
340
0
 93
        0
 40
0.045
309
GRIDFORMAT_END
 95
        8
302
GRIDFORMAT
  1
GRIDFORMAT_BEGIN
 90
        0
 91
        1
 62
     0
 92
       -2
340
0
 93
        0
 40
0.045
309
GRIDFORMAT_END
 95
       16
302
GRIDFORMAT
  1
GRIDFORMAT_BEGIN
 90
        0
 91
        1
 62
     0
 92
       -2
340
0
 93
        0
 40
0.045
309
GRIDFORMAT_END
 95
       32
302
GRIDFORMAT
  1
GRIDFORMAT_BEGIN
 90
        0
 91
        1
 62
     0
 92
       -2
340
0
 93
        0
 40
0.045
309
GRIDFORMAT_END
309
TABLEFORMAT_END
  1
CELLSTYLE_BEGIN
 90
        3
 91
        2
300
_DATA
309
CELLSTYLE_END
  0
ENDSEC
  0
SECTION
  2
ACDSDATA
 70
     2
 71
     8
  0
ACDSSCHEMA
 90
        0
  1
AcDb_Thumbnail_Schema
  2
AcDbDs::ID
280
    10
 91
        8
  2
Thumbnail_Data
280
    15
 91
        0
101
ACDSRECORD
 95
        0
 90
        1
  2
AcDbDs::TreatedAsObjectData
280
     1
291
     1
101
ACDSRECORD
 95
        0
 90
        2
  2
AcDbDs::Legacy
280
     1
291
     1
101
ACDSRECORD
  1
AcDbDs::ID
 90
        3
  2
AcDs:Indexable
280
     1
291
     1
101
ACDSRECORD
  1
AcDbDs::ID
 90
        4
  2
AcDbDs::HandleAttribute
280
     7
282
     1
  0
ACDSSCHEMA
 90
        1
  1
AcDbDs::TreatedAsObjectDataSchema
  2
AcDbDs::TreatedAsObjectData
280
     1
 91
        0
  0
ACDSSCHEMA
 90
        2
  1
AcDbDs::LegacySchema
  2
AcDbDs::Legacy
280
     1
 91
        0
  0
ACDSSCHEMA
 90
        3
  1
AcDbDs::IndexedPropertySchema
  2
AcDs:Indexable
280
     1
 91
        0
  0
ACDSSCHEMA
 90
        4
  1
AcDbDs::HandleAttributeSchema
  2
AcDbDs::HandleAttribute
280
     7
 91
        1
284
     1
  0
ACDSRECORD
 90
        0
  2
AcDbDs::ID
280
    10
320
22
  2
Thumbnail_Data
280
    15
 94
     1748
310
89504E470D0A1A0A0000000D49484452000001000000006D080300000079B14F6400000300504C5445212830FFFFFF2128300000000000000000000000000000000000000000000000000000330000660000990000CC0000FF0033000033330033660033990033CC0033FF0066000066330066660066990066CC0066FF0099
310
000099330099660099990099CC0099FF00CC0000CC3300CC6600CC9900CCCC00CCFF00FF0000FF3300FF6600FF9900FFCC00FFFF3300003300333300663300993300CC3300FF3333003333333333663333993333CC3333FF3366003366333366663366993366CC3366FF3399003399333399663399993399CC3399FF33CC00
310
33CC3333CC6633CC9933CCCC33CCFF33FF0033FF3333FF6633FF9933FFCC33FFFF6600006600336600666600996600CC6600FF6633006633336633666633996633CC6633FF6666006666336666666666996666CC6666FF6699006699336699666699996699CC6699FF66CC0066CC3366CC6666CC9966CCCC66CCFF66FF0066
310
FF3366FF6666FF9966FFCC66FFFF9900009900339900669900999900CC9900FF9933009933339933669933999933CC9933FF9966009966339966669966999966CC9966FF9999009999339999669999999999CC9999FF99CC0099CC3399CC6699CC9999CCCC99CCFF99FF0099FF3399FF6699FF9999FFCC99FFFFCC0000CC00
310
33CC0066CC0099CC00CCCC00FFCC3300CC3333CC3366CC3399CC33CCCC33FFCC6600CC6633CC6666CC6699CC66CCCC66FFCC9900CC9933CC9966CC9999CC99CCCC99FFCCCC00CCCC33CCCC66CCCC99CCCCCCCCCCFFCCFF00CCFF33CCFF66CCFF99CCFFCCCCFFFFFF0000FF0033FF0066FF0099FF00CCFF00FFFF3300FF3333
310
FF3366FF3399FF33CCFF33FFFF6600FF6633FF6666FF6699FF66CCFF66FFFF9900FF9933FF9966FF9999FF99CCFF99FFFFCC00FFCC33FFCC66FFCC99FFCCCCFFCCFFFFFF00FFFF33FFFF66FFFF99FFFFCCFFFFFF0000000D0D0D1A1A1A2828283535354343435050505D5D5D6B6B6B787878868686939393A1A1A1AEAEAEBB
310
BBBBC9C9C9D6D6D6E4E4E4F1F1F1FFFFFF0000000000000000000000000000000000000000000000000000000000002E4550F10000038F4944415478DAED9DEB6EE3201046E7FDDFF7FC5F6993ADCD6506E2E02E1F18A9A955D5161C7F73311E88D9D39E36B8F16AFB0E3FFDBD1F80E2604F01ECAB019CE32D018CF1A8AA16
310
30A0F77F83891601221E1F5FEB75BA148191008EB3D95401087A5346BA44C1888A0D3501BD803A18809C0D303888AB03F83E0DC83382C93930D405E6E70B3C638FF500D5F399D818CAFB038389CE4DA01C2E3748402B2BC2C64B605E028CEF2AA60380DFBC5988DCFFAFBB8A3E80514F43F313B803004246C01D5DDD1D000F
310
009D4010F4F58B6C4809C02D5D7D00E82443B700E0E6078D5F0370B1A7ADF3D607608B00B0DD01DCA580A908FC0F053C005607F03E8FCD010413ABBB00D057C0574E6005055C7C994103003A00AEF595063C9D4CF062671F00AC0000AE7796D78F3400EE03203221C23F215FE8FB12002AC59EBD951EAC022097406FFDEF3F
310
72E2265024B4DDF5BF84290432002C55C0B1A2A62F747A0A5002805516D2D039E9B90800CAC2EFA62B5C07C0CF470EE01B272804C0AA0AA04F013E009302701A7730FEF46F589407C802083C4096307076A2938FDF37680F40B5ACB20E40A35E94A04C8EE336E203C88D24043061951441592B4766EFAF82C933052C54C08C
310
8D16801452BEC4308FFF8B01282592F841AC0A005302E0F614EA5E2F5B12724E1E29C5200CC07A66B62B0112EFB293AE1C090276CFCB8D7CE38560DDA850BD7C72179DDCA7CE2F5A31A608E095FB0604F0D4C41200AA912F02105D16A5252304923F4B029F142202E84959339B3F3C7EB4F18236804001A7900791E1C80068
310
4BC005602B00A826428461EF4D201EA2368046DC075AF9C1B200A23DA7447DC0674E700300E5C45F3DD8AF0680609208EF39C1E28C5109C011DB1B00E84984B501588F0228FF977E4F3A23007722CB07600B02E879383C32425B07005820010740C3EF230420FB88FCFB4FAD084B02F07C40FE7EFC3D2B109AC04A002A8EAF
310
ACA45357003E80F34B12DFF30B0380500069D8EF0620B2536BA2FEF84DC0A70A0015000D179002B07E00A605802E13E806809805C4051C9E97EC75820A00B02600C251EA2A80A609F03980A4B87AE29DD448A638B0561E5035016A1347E7EF2B90011027429552E124432AA6CE14089C941A0178174B512D13F3DE139CA759
310
669600E7435F0265C1D441CDFD7A8EF94DC09CA2A75201B4D2081A8F51F3024808E051A2C7870429E4CC5EA01ABAFCBC3EB3A0F62274A57DE63FDD5215DA8BD0D102705D40A32EF9B4A735DB1F6C3B39AFB8E56F0F0000000049454E44AE426082
  0
ENDSEC
  0
EOF
