  0
SECTION
  2
HEADER
  9
$ACADVER
  1
AC1032
  9
$ACADMAINTVER
 90
      197
  9
$DWGCODEPAGE
  3
ANSI_1252
  9
$LASTSAVEDBY
  1
gregb
  9
$REQUIREDVERSIONS
160
                 0
  9
$INSBASE
 10
0.0
 20
0.0
 30
0.0
  9
$EXTMIN
 10
10518.40884501902
 20
30231.04513490795
 30
0.0
  9
$EXTMAX
 10
10711.61019211398
 20
30395.90075141642
 30
0.0
  9
$LIMMIN
 10
0.0
 20
0.0
  9
$LIMMAX
 10
12.0
 20
9.0
  9
$ORTHOMODE
 70
     1
  9
$REGENMODE
 70
     1
  9
$FILLMODE
 70
     1
  9
$QTEXTMODE
 70
     0
  9
$MIRRTEXT
 70
     0
  9
$LTSCALE
 40
1.0
  9
$ATTMODE
 70
     1
  9
$TEXTSIZE
 40
0.2
  9
$TRACEWID
 40
0.05
  9
$TEXTSTYLE
  7
Standard
  9
$CLAYER
  8
freecads.com
  9
$CELTYPE
  6
ByLayer
  9
$CECOLOR
 62
   256
  9
$CELTSCALE
 40
1.0
  9
$DISPSILH
 70
     1
  9
$DIMSCALE
 40
1.0
  9
$DIMASZ
 40
0.18
  9
$DIMEXO
 40
0.0625
  9
$DIMDLI
 40
0.38
  9
$DIMRND
 40
0.0
  9
$DIMDLE
 40
0.0
  9
$DIMEXE
 40
0.18
  9
$DIMTP
 40
0.0
  9
$DIMTM
 40
0.0
  9
$DIMTXT
 40
0.18
  9
$DIMCEN
 40
0.09
  9
$DIMTSZ
 40
0.0
  9
$DIMTOL
 70
     0
  9
$DIMLIM
 70
     0
  9
$DIMTIH
 70
     1
  9
$DIMTOH
 70
     1
  9
$DIMSE1
 70
     0
  9
$DIMSE2
 70
     0
  9
$DIMTAD
 70
     0
  9
$DIMZIN
 70
     0
  9
$DIMBLK
  1

  9
$DIMASO
 70
     1
  9
$DIMSHO
 70
     1
  9
$DIMPOST
  1

  9
$DIMAPOST
  1

  9
$DIMALT
 70
     0
  9
$DIMALTD
 70
     2
  9
$DIMALTF
 40
25.4
  9
$DIMLFAC
 40
1.0
  9
$DIMTOFL
 70
     0
  9
$DIMTVP
 40
0.0
  9
$DIMTIX
 70
     0
  9
$DIMSOXD
 70
     0
  9
$DIMSAH
 70
     0
  9
$DIMBLK1
  1

  9
$DIMBLK2
  1

  9
$DIMSTYLE
  2
Standard
  9
$DIMCLRD
 70
     0
  9
$DIMCLRE
 70
     0
  9
$DIMCLRT
 70
     0
  9
$DIMTFAC
 40
1.0
  9
$DIMGAP
 40
0.09
  9
$DIMJUST
 70
     0
  9
$DIMSD1
 70
     0
  9
$DIMSD2
 70
     0
  9
$DIMTOLJ
 70
     1
  9
$DIMTZIN
 70
     0
  9
$DIMALTZ
 70
     0
  9
$DIMALTTZ
 70
     0
  9
$DIMUPT
 70
     0
  9
$DIMDEC
 70
     4
  9
$DIMTDEC
 70
     4
  9
$DIMALTU
 70
     2
  9
$DIMALTTD
 70
     2
  9
$DIMTXSTY
  7
Standard
  9
$DIMAUNIT
 70
     0
  9
$DIMADEC
 70
     0
  9
$DIMALTRND
 40
0.0
  9
$DIMAZIN
 70
     0
  9
$DIMDSEP
 70
    46
  9
$DIMATFIT
 70
     3
  9
$DIMFRAC
 70
     0
  9
$DIMLDRBLK
  1

  9
$DIMLUNIT
 70
     2
  9
$DIMLWD
 70
    -2
  9
$DIMLWE
 70
    -2
  9
$DIMTMOVE
 70
     0
  9
$DIMFXL
 40
1.0
  9
$DIMFXLON
 70
     0
  9
$DIMJOGANG
 40
0.7853981633974483
  9
$DIMTFILL
 70
     0
  9
$DIMTFILLCLR
 70
     0
  9
$DIMARCSYM
 70
     0
  9
$DIMLTYPE
  6

  9
$DIMLTEX1
  6

  9
$DIMLTEX2
  6

  9
$DIMTXTDIRECTION
 70
     0
  9
$LUNITS
 70
     2
  9
$LUPREC
 70
     4
  9
$SKETCHINC
 40
0.1
  9
$FILLETRAD
 40
0.0
  9
$AUNITS
 70
     0
  9
$AUPREC
 70
     0
  9
$MENU
  1
.
  9
$ELEVATION
 40
0.0
  9
$PELEVATION
 40
0.0
  9
$THICKNESS
 40
0.0
  9
$LIMCHECK
 70
     0
  9
$CHAMFERA
 40
0.0
  9
$CHAMFERB
 40
0.0
  9
$CHAMFERC
 40
0.0
  9
$CHAMFERD
 40
0.0
  9
$SKPOLY
 70
     0
  9
$TDCREATE
 40
2458157.371250000
  9
$TDUCREATE
 40
2458157.287916667
  9
$TDUPDATE
 40
2461016.546273148
  9
$TDUUPDATE
 40
2461016.462939815
  9
$TDINDWG
 40
0.1092708333
  9
$TDUSRTIMER
 40
0.1092708333
  9
$USRTIMER
 70
     1
  9
$ANGBASE
 50
0.0
  9
$ANGDIR
 70
     0
  9
$PDMODE
 70
     0
  9
$PDSIZE
 40
0.0
  9
$PLINEWID
 40
0.0
  9
$SPLFRAME
 70
     0
  9
$SPLINETYPE
 70
     6
  9
$SPLINESEGS
 70
     8
  9
$HANDSEED
  5
C909
  9
$SURFTAB1
 70
     6
  9
$SURFTAB2
 70
     6
  9
$SURFTYPE
 70
     6
  9
$SURFU
 70
     6
  9
$SURFV
 70
     6
  9
$UCSBASE
  2

  9
$UCSNAME
  2

  9
$UCSORG
 10
0.0
 20
0.0
 30
0.0
  9
$UCSXDIR
 10
1.0
 20
0.0
 30
0.0
  9
$UCSYDIR
 10
0.0
 20
1.0
 30
0.0
  9
$UCSORTHOREF
  2

  9
$UCSORTHOVIEW
 70
     0
  9
$UCSORGTOP
 10
0.0
 20
0.0
 30
0.0
  9
$UCSORGBOTTOM
 10
0.0
 20
0.0
 30
0.0
  9
$UCSORGLEFT
 10
0.0
 20
0.0
 30
0.0
  9
$UCSORGRIGHT
 10
0.0
 20
0.0
 30
0.0
  9
$UCSORGFRONT
 10
0.0
 20
0.0
 30
0.0
  9
$UCSORGBACK
 10
0.0
 20
0.0
 30
0.0
  9
$PUCSBASE
  2

  9
$PUCSNAME
  2

  9
$PUCSORG
 10
0.0
 20
0.0
 30
0.0
  9
$PUCSXDIR
 10
1.0
 20
0.0
 30
0.0
  9
$PUCSYDIR
 10
0.0
 20
1.0
 30
0.0
  9
$PUCSORTHOREF
  2

  9
$PUCSORTHOVIEW
 70
     0
  9
$PUCSORGTOP
 10
0.0
 20
0.0
 30
0.0
  9
$PUCSORGBOTTOM
 10
0.0
 20
0.0
 30
0.0
  9
$PUCSORGLEFT
 10
0.0
 20
0.0
 30
0.0
  9
$PUCSORGRIGHT
 10
0.0
 20
0.0
 30
0.0
  9
$PUCSORGFRONT
 10
0.0
 20
0.0
 30
0.0
  9
$PUCSORGBACK
 10
0.0
 20
0.0
 30
0.0
  9
$USERI1
 70
     0
  9
$USERI2
 70
     0
  9
$USERI3
 70
     0
  9
$USERI4
 70
     0
  9
$USERI5
 70
     0
  9
$USERR1
 40
0.0
  9
$USERR2
 40
0.0
  9
$USERR3
 40
0.0
  9
$USERR4
 40
0.0
  9
$USERR5
 40
0.0
  9
$WORLDVIEW
 70
     1
  9
$SHADEDGE
 70
     3
  9
$SHADEDIF
 70
    70
  9
$TILEMODE
 70
     1
  9
$MAXACTVP
 70
    64
  9
$PINSBASE
 10
0.0
 20
0.0
 30
0.0
  9
$PLIMCHECK
 70
     0
  9
$PEXTMIN
 10
0.0
 20
0.0
 30
0.0
  9
$PEXTMAX
 10
0.0
 20
0.0
 30
0.0
  9
$PLIMMIN
 10
0.0
 20
0.0
  9
$PLIMMAX
 10
12.0
 20
9.0
  9
$UNITMODE
 70
     0
  9
$VISRETAIN
 70
     1
  9
$PLINEGEN
 70
     0
  9
$PSLTSCALE
 70
     1
  9
$TREEDEPTH
 70
  3020
  9
$CMLSTYLE
  2
Standard
  9
$CMLJUST
 70
     0
  9
$CMLSCALE
 40
1.0
  9
$PROXYGRAPHICS
 70
     1
  9
$MEASUREMENT
 70
     0
  9
$CELWEIGHT
370
    -1
  9
$ENDCAPS
280
     0
  9
$JOINSTYLE
280
     0
  9
$LWDISPLAY
290
     0
  9
$INSUNITS
 70
     1
  9
$HYPERLINKBASE
  1

  9
$STYLESHEET
  1
monochrome.ctb
  9
$XEDIT
290
     1
  9
$CEPSNTYPE
380
     0
  9
$PSTYLEMODE
290
     1
  9
$FINGERPRINTGUID
  2
{358EB121-6EE0-9143-8A3E-6E8E8869FDA6}
  9
$VERSIONGUID
  2
{557E2176-BB2D-4E49-B9D4-1D2A40436615}
  9
$EXTNAMES
290
     1
  9
$PSVPSCALE
 40
0.0
  9
$OLESTARTUP
290
     0
  9
$SORTENTS
280
   127
  9
$INDEXCTL
280
     0
  9
$HIDETEXT
280
     1
  9
$XCLIPFRAME
280
     2
  9
$HALOGAP
280
     0
  9
$OBSCOLOR
 70
   257
  9
$OBSLTYPE
280
     0
  9
$INTERSECTIONDISPLAY
280
     0
  9
$INTERSECTIONCOLOR
 70
   257
  9
$DIMASSOC
280
     2
  9
$PROJECTNAME
  1

  9
$CAMERADISPLAY
290
     0
  9
$LENSLENGTH
 40
50.0
  9
$CAMERAHEIGHT
 40
0.0
  9
$STEPSPERSEC
 40
2.0
  9
$STEPSIZE
 40
6.0
  9
$3DDWFPREC
 40
2.0
  9
$PSOLWIDTH
 40
0.25
  9
$PSOLHEIGHT
 40
4.0
  9
$LOFTANG1
 40
1.570796326794896
  9
$LOFTANG2
 40
1.570796326794896
  9
$LOFTMAG1
 40
0.0
  9
$LOFTMAG2
 40
0.0
  9
$LOFTPARAM
 70
     7
  9
$LOFTNORMALS
280
     1
  9
$LATITUDE
 40
37.795
  9
$LONGITUDE
 40
-122.394
  9
$NORTHDIRECTION
 40
0.0
  9
$TIMEZONE
 70
 -8000
  9
$LIGHTGLYPHDISPLAY
280
     1
  9
$TILEMODELIGHTSYNCH
280
     1
  9
$CMATERIAL
347
96
  9
$SOLIDHIST
280
     0
  9
$SHOWHIST
280
     1
  9
$DWFFRAME
280
     2
  9
$DGNFRAME
280
     0
  9
$REALWORLDSCALE
290
     1
  9
$INTERFERECOLOR
 62
     1
  9
$INTERFEREOBJVS
345
A3
  9
$INTERFEREVPVS
346
A0
  9
$CSHADOW
280
     0
  9
$SHADOWPLANELOCATION
 40
0.0
  0
ENDSEC
  0
SECTION
  2
CLASSES
  0
CLASS
  1
ACDBDICTIONARYWDFLT
  2
AcDbDictionaryWithDefault
  3
ObjectDBX Classes
 90
        0
 91
        1
280
     0
281
     0
  0
CLASS
  1
DICTIONARYVAR
  2
AcDbDictionaryVar
  3
ObjectDBX Classes
 90
        0
 91
        9
280
     0
281
     0
  0
CLASS
  1
TABLESTYLE
  2
AcDbTableStyle
  3
ObjectDBX Classes
 90
     4095
 91
        1
280
     0
281
     0
  0
CLASS
  1
MATERIAL
  2
AcDbMaterial
  3
ObjectDBX Classes
 90
     1153
 91
        3
280
     0
281
     0
  0
CLASS
  1
VISUALSTYLE
  2
AcDbVisualStyle
  3
ObjectDBX Classes
 90
     4095
 91
       25
280
     0
281
     0
  0
CLASS
  1
SCALE
  2
AcDbScale
  3
ObjectDBX Classes
 90
     1153
 91
       35
280
     0
281
     0
  0
CLASS
  1
MLEADERSTYLE
  2
AcDbMLeaderStyle
  3
ACDB_MLEADERSTYLE_CLASS
 90
     4095
 91
        1
280
     0
281
     0
  0
CLASS
  1
CELLSTYLEMAP
  2
AcDbCellStyleMap
  3
ObjectDBX Classes
 90
     1152
 91
        1
280
     0
281
     0
  0
CLASS
  1
EXACXREFPANELOBJECT
  2
ExAcXREFPanelObject
  3
EXAC_ESW
 90
     1025
 91
        0
280
     0
281
     0
  0
CLASS
  1
NPOCOLLECTION
  2
AcDbImpNonPersistentObjectsCollection
  3
ObjectDBX Classes
 90
     1153
 91
        0
280
     0
281
     0
  0
CLASS
  1
LAYER_INDEX
  2
AcDbLayerIndex
  3
ObjectDBX Classes
 90
        0
 91
        0
280
     0
281
     0
  0
CLASS
  1
SPATIAL_INDEX
  2
AcDbSpatialIndex
  3
ObjectDBX Classes
 90
        0
 91
        0
280
     0
281
     0
  0
CLASS
  1
IDBUFFER
  2
AcDbIdBuffer
  3
ObjectDBX Classes
 90
        0
 91
        0
280
     0
281
     0
  0
CLASS
  1
ACDBSECTIONVIEWSTYLE
  2
AcDbSectionViewStyle
  3
ObjectDBX Classes
 90
     1025
 91
        2
280
     0
281
     0
  0
CLASS
  1
ACDBDETAILVIEWSTYLE
  2
AcDbDetailViewStyle
  3
ObjectDBX Classes
 90
     1025
 91
        2
280
     0
281
     0
  0
CLASS
  1
SORTENTSTABLE
  2
AcDbSortentsTable
  3
ObjectDBX Classes
 90
        0
 91
        1
280
     0
281
     0
  0
CLASS
  1
SPATIAL_FILTER
  2
AcDbSpatialFilter
  3
ObjectDBX Classes
 90
        0
 91
        0
280
     0
281
     0
  0
CLASS
  1
SOLID_BACKGROUND
  2
AcDbSolidBackground
  3
SCENEOE
 90
     4095
 91
        0
280
     0
281
     0
  0
ENDSEC
  0
SECTION
  2
TABLES
  0
TABLE
  2
VPORT
  5
8
330
0
100
AcDbSymbolTable
 70
     1
  0
VPORT
  5
94
330
8
100
AcDbSymbolTableRecord
100
AcDbViewportTableRecord
  2
*Active
 70
     0
 10
0.0
 20
0.0
 11
1.0
 21
1.0
 12
10615.11420052582
 22
30326.71438749448
 13
0.0
 23
0.0
 14
0.5
 24
0.5
 15
0.5
 25
0.5
 16
0.0
 26
0.0
 36
1.0
 17
0.0
 27
0.0
 37
0.0
 40
189.3038191644945
 41
2.066284779050736
 42
50.0
 43
0.0
 44
0.0
 50
0.0
 51
0.0
 71
     0
 72
  1000
 73
     1
 74
     3
 75
     0
 76
     0
 77
     0
 78
     0
281
     0
 65
     1
110
0.0
120
0.0
130
0.0
111
1.0
121
0.0
131
0.0
112
0.0
122
1.0
132
0.0
 79
     0
146
0.0
348
9F
 60
     3
 61
     5
292
     1
282
     1
141
0.0
142
0.0
 63
   250
421
  3355443
1001
ACAD_NAV_VCDISPLAY
1070
     3
  0
ENDTAB
  0
TABLE
  2
LTYPE
  5
5
330
0
100
AcDbSymbolTable
 70
     1
  0
LTYPE
  5
14
330
5
100
AcDbSymbolTableRecord
100
AcDbLinetypeTableRecord
  2
ByBlock
 70
     0
  3

 72
    65
 73
     0
 40
0.0
  0
LTYPE
  5
15
330
5
100
AcDbSymbolTableRecord
100
AcDbLinetypeTableRecord
  2
ByLayer
 70
     0
  3

 72
    65
 73
     0
 40
0.0
  0
LTYPE
  5
16
330
5
100
AcDbSymbolTableRecord
100
AcDbLinetypeTableRecord
  2
Continuous
 70
     0
  3
Solid line
 72
    65
 73
     0
 40
0.0
  0
ENDTAB
  0
TABLE
  2
LAYER
  5
2
102
{ACAD_XDICTIONARY
360
18E
102
}
330
0
100
AcDbSymbolTable
 70
     2
  0
LAYER
  5
10
102
{ACAD_XDICTIONARY
360
E6
102
}
330
2
100
AcDbSymbolTableRecord
100
AcDbLayerTableRecord
  2
0
 70
     0
 62
     7
  6
Continuous
370
    -3
390
F
347
98
348
0
  0
LAYER
  5
204
330
2
100
AcDbSymbolTableRecord
100
AcDbLayerTableRecord
  2
freecads.com
 70
     0
 62
     7
  6
Continuous
370
    -3
390
F
347
98
348
0
1001
AcAecLayerStandard
1000

1000

1001
AcCmTransparency
1071
        0
  0
ENDTAB
  0
TABLE
  2
STYLE
  5
3
330
0
100
AcDbSymbolTable
 70
     1
  0
STYLE
  5
11
330
3
100
AcDbSymbolTableRecord
100
AcDbTextStyleTableRecord
  2
Standard
 70
     0
 40
0.0
 41
1.0
 50
0.0
 71
     0
 42
0.2
  3
arial.ttf
  4

1001
ACAD
1000
Arial
1071
       34
  0
ENDTAB
  0
TABLE
  2
VIEW
  5
6
330
0
100
AcDbSymbolTable
 70
     0
  0
ENDTAB
  0
TABLE
  2
UCS
  5
7
330
0
100
AcDbSymbolTable
 70
     0
  0
ENDTAB
  0
TABLE
  2
APPID
  5
9
330
0
100
AcDbSymbolTable
 70
    23
  0
APPID
  5
12
330
9
100
AcDbSymbolTableRecord
100
AcDbRegAppTableRecord
  2
ACAD
 70
     0
  0
APPID
  5
DD
330
9
100
AcDbSymbolTableRecord
100
AcDbRegAppTableRecord
  2
AcadAnnoPO
 70
     0
  0
APPID
  5
DE
330
9
100
AcDbSymbolTableRecord
100
AcDbRegAppTableRecord
  2
AcadAnnotative
 70
     0
  0
APPID
  5
DF
330
9
100
AcDbSymbolTableRecord
100
AcDbRegAppTableRecord
  2
ACAD_DSTYLE_DIMJAG
 70
     0
  0
APPID
  5
E0
330
9
100
AcDbSymbolTableRecord
100
AcDbRegAppTableRecord
  2
ACAD_DSTYLE_DIMTALN
 70
     0
  0
APPID
  5
107
330
9
100
AcDbSymbolTableRecord
100
AcDbRegAppTableRecord
  2
ACAD_MLEADERVER
 70
     0
  0
APPID
  5
1A6
330
9
100
AcDbSymbolTableRecord
100
AcDbRegAppTableRecord
  2
ACAD_NAV_VCDISPLAY
 70
     0
  0
APPID
  5
205
330
9
100
AcDbSymbolTableRecord
100
AcDbRegAppTableRecord
  2
AcAecLayerStandard
 70
     0
  0
APPID
  5
206
330
9
100
AcDbSymbolTableRecord
100
AcDbRegAppTableRecord
  2
AcCmTransparency
 70
     0
  0
APPID
  5
222
330
9
100
AcDbSymbolTableRecord
100
AcDbRegAppTableRecord
  2
ACAD_PSEXT
 70
     0
  0
APPID
  5
2DA
330
9
100
AcDbSymbolTableRecord
100
AcDbRegAppTableRecord
  2
GradientColor1ACI
 70
     0
  0
APPID
  5
2DB
330
9
100
AcDbSymbolTableRecord
100
AcDbRegAppTableRecord
  2
GradientColor2ACI
 70
     0
  0
APPID
  5
2F3
330
9
100
AcDbSymbolTableRecord
100
AcDbRegAppTableRecord
  2
ACAD_EXEMPT_FROM_CAD_STANDARDS
 70
     0
  0
APPID
  5
A1A
330
9
100
AcDbSymbolTableRecord
100
AcDbRegAppTableRecord
  2
AcDbBlockRepETag
 70
     0
  0
APPID
  5
228C
330
9
100
AcDbSymbolTableRecord
100
AcDbRegAppTableRecord
  2
RAK
 70
     0
  0
APPID
  5
2683
330
9
100
AcDbSymbolTableRecord
100
AcDbRegAppTableRecord
  2
ACAD_DSTYLE_DIMJOGGED_JOGANGLE_SYMBOL
 70
     0
  0
APPID
  5
47CF
330
9
100
AcDbSymbolTableRecord
100
AcDbRegAppTableRecord
  2
ACAD_DSTYLE_DIMBREAK
 70
     0
  0
APPID
  5
47D0
330
9
100
AcDbSymbolTableRecord
100
AcDbRegAppTableRecord
  2
AcDbDynamicBlockGUID
 70
     0
  0
APPID
  5
8BD5
330
9
100
AcDbSymbolTableRecord
100
AcDbRegAppTableRecord
  2
AcLayerTools
 70
     0
  0
APPID
  5
92D9
330
9
100
AcDbSymbolTableRecord
100
AcDbRegAppTableRecord
  2
AutoGrph01
 70
     0
  0
APPID
  5
92DA
330
9
100
AcDbSymbolTableRecord
100
AcDbRegAppTableRecord
  2
AutoGrphVars
 70
     0
  0
APPID
  5
92DB
330
9
100
AcDbSymbolTableRecord
100
AcDbRegAppTableRecord
  2
AutoGrphZ
 70
     0
  0
APPID
  5
92DC
330
9
100
AcDbSymbolTableRecord
100
AcDbRegAppTableRecord
  2
AutoGrph05
 70
     0
  0
ENDTAB
  0
TABLE
  2
DIMSTYLE
  5
A
330
0
100
AcDbSymbolTable
 70
     1
100
AcDbDimStyleTable
 71
     1
340
27
  0
DIMSTYLE
105
27
330
A
100
AcDbSymbolTableRecord
100
AcDbDimStyleTableRecord
  2
Standard
 70
     0
340
11
  0
ENDTAB
  0
TABLE
  2
BLOCK_RECORD
  5
1
330
0
100
AcDbSymbolTable
 70
     1
  0
BLOCK_RECORD
  5
1F
102
{ACAD_XDICTIONARY
360
15D
102
}
330
1
100
AcDbSymbolTableRecord
100
AcDbBlockTableRecord
  2
*Model_Space
340
22
 70
     0
280
     1
281
     0
  0
BLOCK_RECORD
  5
58
330
1
100
AcDbSymbolTableRecord
100
AcDbBlockTableRecord
  2
*Paper_Space
340
59
 70
     0
280
     1
281
     0
  0
BLOCK_RECORD
  5
5D
330
1
100
AcDbSymbolTableRecord
100
AcDbBlockTableRecord
  2
*Paper_Space0
340
5E
 70
     0
280
     1
281
     0
  0
ENDTAB
  0
ENDSEC
  0
SECTION
  2
BLOCKS
  0
BLOCK
  5
20
330
1F
100
AcDbEntity
  8
0
100
AcDbBlockBegin
  2
*Model_Space
 70
     0
 10
0.0
 20
0.0
 30
0.0
  3
*Model_Space
  1

  0
ENDBLK
  5
21
330
1F
100
AcDbEntity
  8
0
100
AcDbBlockEnd
  0
BLOCK
  5
5A
330
58
100
AcDbEntity
 67
     1
  8
0
100
AcDbBlockBegin
  2
*Paper_Space
 70
     0
 10
0.0
 20
0.0
 30
0.0
  3
*Paper_Space
  1

  0
ENDBLK
  5
5B
330
58
100
AcDbEntity
 67
     1
  8
0
100
AcDbBlockEnd
  0
BLOCK
  5
5F
330
5D
100
AcDbEntity
 67
     1
  8
0
100
AcDbBlockBegin
  2
*Paper_Space0
 70
     0
 10
0.0
 20
0.0
 30
0.0
  3
*Paper_Space0
  1

  0
ENDBLK
  5
60
330
5D
100
AcDbEntity
 67
     1
  8
0
100
AcDbBlockEnd
  0
ENDSEC
  0
SECTION
  2
ENTITIES
  0
ARC
  5
C699
330
1F
100
AcDbEntity
  8
freecads.com
100
AcDbCircle
 10
10680.71679096199
 20
30388.39994956277
 30
0.0
 40
8.363942251824594
100
AcDbArc
 50
137.8553076403469
 51
158.686645343854
  0
ARC
  5
C69A
330
1F
100
AcDbEntity
  8
freecads.com
100
AcDbCircle
 10
10682.20456757566
 20
30387.81949672416
 30
0.0
 40
9.960940921197604
100
AcDbArc
 50
158.6866804348832
 51
176.9600481846408
  0
ARC
  5
C69B
330
1F
100
AcDbEntity
  8
freecads.com
100
AcDbCircle
 10
10687.55265789336
 20
30387.53549495731
 30
0.0
 40
15.31656665957897
100
AcDbArc
 50
176.9601203679734
 51
191.2236800744469
  0
ARC
  5
C69C
330
1F
100
AcDbEntity
  8
freecads.com
100
AcDbCircle
 10
10711.88249980812
 20
30392.36342096964
 30
0.0
 40
40.12080172493876
100
AcDbArc
 50
191.2237320270498
 51
198.1740995409314
  0
ARC
  5
C69D
330
1F
100
AcDbEntity
  8
freecads.com
100
AcDbCircle
 10
10542.97473632839
 20
30336.91393044059
 30
0.0
 40
137.6556831195399
100
AcDbArc
 50
16.51073319662638
 51
18.17411505960609
  0
ARC
  5
C69E
330
1F
100
AcDbEntity
  8
freecads.com
100
AcDbCircle
 10
10667.1008711868
 20
30373.70706267871
 30
0.0
 40
8.191278997088083
100
AcDbArc
 50
3.4997814934577
 51
16.51072059561161
  0
ARC
  5
C69F
330
1F
100
AcDbEntity
  8
freecads.com
100
AcDbCircle
 10
10672.57996099182
 20
30374.04215322903
 30
0.0
 40
2.701952010264637
100
AcDbArc
 50
336.2586901759055
 51
3.499865408365883
  0
ARC
  5
C6A0
330
1F
100
AcDbEntity
  8
freecads.com
100
AcDbCircle
 10
10670.87714462815
 20
30374.79110108867
 30
0.0
 40
4.562195667646399
100
AcDbArc
 50
317.8553066740423
 51
336.2587018994296
  0
ARC
  5
C6A1
330
1F
100
AcDbEntity
  8
freecads.com
100
AcDbCircle
 10
10677.56562072452
 20
30368.73812101244
 30
0.0
 40
4.458573717217684
100
AcDbArc
 50
137.8553586473076
 51
151.5866830402384
  0
ARC
  5
C6A2
330
1F
100
AcDbEntity
  8
freecads.com
100
AcDbCircle
 10
10677.22415255709
 20
30368.92286176392
 30
0.0
 40
4.070334545336431
100
AcDbArc
 50
151.5867699609783
 51
166.2890627540372
  0
ARC
  5
C6A3
330
1F
100
AcDbEntity
  8
freecads.com
100
AcDbCircle
 10
10677.0094509791
 20
30368.97524553461
 30
0.0
 40
3.849334936701559
100
AcDbArc
 50
166.2890879953351
 51
181.4352542261372
  0
ARC
  5
C6A4
330
1F
100
AcDbEntity
  8
freecads.com
100
AcDbCircle
 10
10676.68699738698
 20
30368.96716472618
 30
0.0
 40
3.526780106423148
100
AcDbArc
 50
181.4352268696995
 51
197.60882021895
  0
ARC
  5
C6A5
330
1F
100
AcDbEntity
  8
freecads.com
100
AcDbCircle
 10
10669.32440316919
 20
30366.63036253194
 30
0.0
 40
4.197754708756378
100
AcDbArc
 50
2.818000763015688
 51
17.60884895712275
  0
ARC
  5
C6A6
330
1F
100
AcDbEntity
  8
freecads.com
100
AcDbCircle
 10
10672.16661350131
 20
30366.77026437644
 30
0.0
 40
1.352103272242956
100
AcDbArc
 50
328.417749875856
 51
2.818023017223791
  0
ARC
  5
C6A7
330
1F
100
AcDbEntity
  8
freecads.com
100
AcDbCircle
 10
10671.79771191133
 20
30366.99705291344
 30
0.0
 40
1.785140711268032
100
AcDbArc
 50
299.6892242286154
 51
328.4178518198184
  0
ARC
  5
C6A8
330
1F
100
AcDbEntity
  8
freecads.com
100
AcDbCircle
 10
10668.36875775803
 20
30373.01132132133
 30
0.0
 40
8.708228972120435
100
AcDbArc
 50
290.8167955668952
 51
299.6890812296136
  0
ARC
  5
C6A9
330
1F
100
AcDbEntity
  8
freecads.com
100
AcDbCircle
 10
10673.58553327247
 20
30359.29018838254
 30
0.0
 40
5.971152346314888
100
AcDbArc
 50
110.8168222098198
 51
136.8162320915448
  0
ARC
  5
C6AA
330
1F
100
AcDbEntity
  8
freecads.com
100
AcDbCircle
 10
10676.89136728681
 20
30356.18756821946
 30
0.0
 40
10.50489146614832
100
AcDbArc
 50
136.8162425724742
 51
153.8500122286634
  0
ARC
  5
C6AB
330
1F
100
AcDbEntity
  8
freecads.com
100
AcDbCircle
 10
10687.07682798101
 20
30351.18673739493
 30
0.0
 40
21.85178172245527
100
AcDbArc
 50
153.85000894317
 51
164.9930413840916
  0
ARC
  5
C6AC
330
1F
100
AcDbEntity
  8
freecads.com
100
AcDbCircle
 10
10756.38570975149
 20
30332.60643995379
 30
0.0
 40
93.60795598834261
100
AcDbArc
 50
164.9930317623995
 51
168.775355696798
  0
ARC
  5
C6AD
330
1F
100
AcDbEntity
  8
freecads.com
100
AcDbCircle
 10
10471.71669759616
 20
30389.0998674262
 30
0.0
 40
196.6125702138745
100
AcDbArc
 50
347.7717146975256
 51
348.7753011565571
  0
ARC
  5
C6AE
330
1F
100
AcDbEntity
  8
freecads.com
100
AcDbCircle
 10
10299.20520247017
 20
30426.48728280674
 30
0.0
 40
373.1289569303458
100
AcDbArc
 50
347.1504074951678
 51
347.7717214060363
  0
ARC
  5
C6AF
330
1F
100
AcDbEntity
  8
freecads.com
100
AcDbCircle
 10
10304.73634328843
 20
30425.22519321515
 30
0.0
 40
367.4556520093483
100
AcDbArc
 50
346.5273224047324
 51
347.1504697669853
  0
ARC
  5
C6B0
330
1F
100
AcDbEntity
  8
freecads.com
100
AcDbCircle
 10
10499.22844977375
 20
30378.62974629249
 30
0.0
 40
167.4598641562093
100
AcDbArc
 50
345.4059731267987
 51
346.5273571741926
  0
LINE
  5
C6B1
330
1F
100
AcDbEntity
  8
freecads.com
100
AcDbLine
 10
10661.2852957044
 20
30336.43514011793
 30
0.0
 11
10659.4906577044
 21
30329.54246511792
 31
0.0
  0
LINE
  5
C6B2
330
1F
100
AcDbEntity
  8
freecads.com
100
AcDbLine
 10
10659.4906577044
 20
30329.54246511792
 30
0.0
 11
10657.1332627044
 21
30332.28310111793
 31
0.0
  0
ARC
  5
C6B3
330
1F
100
AcDbEntity
  8
freecads.com
100
AcDbCircle
 10
10665.55011838596
 20
30339.52298947444
 30
0.0
 40
11.10222693782514
100
AcDbArc
 50
212.6567485663155
 51
220.7009794999108
  0
ARC
  5
C6B4
330
1F
100
AcDbEntity
  8
freecads.com
100
AcDbCircle
 10
10662.17430963301
 20
30337.3593569154
 30
0.0
 40
7.092564784094707
100
AcDbArc
 50
201.4032933370697
 51
212.6567571518482
  0
ARC
  5
C6B5
330
1F
100
AcDbEntity
  8
freecads.com
100
AcDbCircle
 10
10660.27548219473
 20
30336.61508274303
 30
0.0
 40
5.053082084006179
100
AcDbArc
 50
188.0893961653196
 51
201.4032307641942
  0
ARC
  5
C6B6
330
1F
100
AcDbEntity
  8
freecads.com
100
AcDbCircle
 10
10657.34701019871
 20
30336.19885236849
 30
0.0
 40
2.095178103788594
100
AcDbArc
 50
162.3911641544928
 51
188.0893953284395
  0
ARC
  5
C6B7
330
1F
100
AcDbEntity
  8
freecads.com
100
AcDbCircle
 10
10650.07233413162
 20
30338.50774123453
 30
0.0
 40
5.537113798174386
100
AcDbArc
 50
342.3912541617446
 51
8.47980112173492
  0
ARC
  5
C6B8
330
1F
100
AcDbEntity
  8
freecads.com
100
AcDbCircle
 10
10621.49266278238
 20
30334.24672153115
 30
0.0
 40
34.43268272046336
100
AcDbArc
 50
8.479898371169475
 51
15.23792421652942
  0
ARC
  5
C6B9
330
1F
100
AcDbEntity
  8
freecads.com
100
AcDbCircle
 10
10621.3923648752
 20
30334.21933587932
 30
0.0
 40
34.53665214051884
100
AcDbArc
 50
15.23802667922071
 51
21.9662845039521
  0
ARC
  5
C6BA
330
1F
100
AcDbEntity
  8
freecads.com
100
AcDbCircle
 10
10648.49058151816
 20
30345.14917240537
 30
0.0
 40
5.317229290052889
100
AcDbArc
 50
21.9663771797514
 51
48.76750718107697
  0
ARC
  5
C6BB
330
1F
100
AcDbEntity
  8
freecads.com
100
AcDbCircle
 10
10644.51931935989
 20
30340.61801665345
 30
0.0
 40
11.34236792562272
100
AcDbArc
 50
48.76753030199312
 51
61.88583581375901
  0
ARC
  5
C6BC
330
1F
100
AcDbEntity
  8
freecads.com
100
AcDbCircle
 10
10647.07534598924
 20
30345.40218016335
 30
0.0
 40
5.91820968499381
100
AcDbArc
 50
61.88584539685945
 51
83.23030936110759
  0
ARC
  5
C6BD
330
1F
100
AcDbEntity
  8
freecads.com
100
AcDbCircle
 10
10647.21717392925
 20
30346.5969162158
 30
0.0
 40
4.715084837127434
100
AcDbArc
 50
83.23037271473046
 51
107.6280681147164
  0
ARC
  5
C6BE
330
1F
100
AcDbEntity
  8
freecads.com
100
AcDbCircle
 10
10647.45366042006
 20
30345.8526618112
 30
0.0
 40
5.496007675227227
100
AcDbArc
 50
107.6280059174931
 51
129.3777290796101
  0
ARC
  5
C6BF
330
1F
100
AcDbEntity
  8
freecads.com
100
AcDbCircle
 10
10648.41567445952
 20
30344.68054926643
 30
0.0
 40
7.012358172209512
100
AcDbArc
 50
129.3776829655606
 51
154.9693148400394
  0
ARC
  5
C6C0
330
1F
100
AcDbEntity
  8
freecads.com
100
AcDbCircle
 10
10794.31175972187
 20
30276.55294495244
 30
0.0
 40
168.0311091437729
100
AcDbArc
 50
154.969317013256
 51
157.5243737352669
  0
ARC
  5
C6C1
330
1F
100
AcDbEntity
  8
freecads.com
100
AcDbCircle
 10
10875.08010804524
 20
30243.13794521339
 30
0.0
 40
255.438707774796
100
AcDbArc
 50
157.5243941613225
 51
159.2530896355329
  0
ARC
  5
C6C2
330
1F
100
AcDbEntity
  8
freecads.com
100
AcDbCircle
 10
10638.17532853249
 20
30332.87853114986
 30
0.0
 40
2.106421399351998
100
AcDbArc
 50
159.2531488378865
 51
211.7174349868432
  0
ARC
  5
C6C3
330
1F
100
AcDbEntity
  8
freecads.com
100
AcDbCircle
 10
10636.0120577204
 20
30331.54155766422
 30
0.0
 40
0.4366552231139941
100
AcDbArc
 50
347.4493180049007
 51
31.71750798329818
  0
ARC
  5
C6C4
330
1F
100
AcDbEntity
  8
freecads.com
100
AcDbCircle
 10
10635.56598583739
 20
30331.64086275523
 30
0.0
 40
0.8936471551097401
100
AcDbArc
 50
321.5157929866144
 51
347.449363048729
  0
ARC
  5
C6C5
330
1F
100
AcDbEntity
  8
freecads.com
100
AcDbCircle
 10
10635.01917598403
 20
30332.07556580293
 30
0.0
 40
1.592194043591504
100
AcDbArc
 50
302.8488236165204
 51
321.5158807565257
  0
ARC
  5
C6C6
330
1F
100
AcDbEntity
  8
freecads.com
100
AcDbCircle
 10
10634.29892285567
 20
30333.19108910855
 30
0.0
 40
2.920033195859466
100
AcDbArc
 50
290.9934750130575
 51
302.8488451436708
  0
ARC
  5
C6C7
330
1F
100
AcDbEntity
  8
freecads.com
100
AcDbCircle
 10
10635.95936976611
 20
30328.86402053601
 30
0.0
 40
1.714684311593666
100
AcDbArc
 50
110.9936706962166
 51
141.6058740266925
  0
ARC
  5
C6C8
330
1F
100
AcDbEntity
  8
freecads.com
100
AcDbCircle
 10
10653.30024241554
 20
30315.12271062859
 30
0.0
 40
23.83999701481914
100
AcDbArc
 50
141.6058778077302
 51
146.0771314355748
  0
ARC
  5
C6C9
330
1F
100
AcDbEntity
  8
freecads.com
100
AcDbCircle
 10
10655.90827488928
 20
30313.36873955542
 30
0.0
 40
26.98296502404254
100
AcDbArc
 50
146.0772466858146
 51
150.8717455141902
  0
ARC
  5
C6CA
330
1F
100
AcDbEntity
  8
freecads.com
100
AcDbCircle
 10
10664.57181499639
 20
30308.54108983388
 30
0.0
 40
36.90078378732964
100
AcDbArc
 50
150.8717620597589
 51
154.6634799367982
  0
ARC
  5
C6CB
330
1F
100
AcDbEntity
  8
freecads.com
100
AcDbCircle
 10
10607.74140968334
 20
30335.44901781116
 30
0.0
 40
25.97792132081136
100
AcDbArc
 50
324.1317091637763
 51
334.663504307143
  0
ARC
  5
C6CC
330
1F
100
AcDbEntity
  8
freecads.com
100
AcDbCircle
 10
10582.29355814222
 20
30353.84866805691
 30
0.0
 40
57.38079184602548
100
AcDbArc
 50
318.3080992606369
 51
324.1317636281619
  0
ARC
  5
C6CD
330
1F
100
AcDbEntity
  8
freecads.com
100
AcDbCircle
 10
10580.42057162241
 20
30355.51689795467
 30
0.0
 40
59.88899229512514
100
AcDbArc
 50
312.5584605360297
 51
318.3081459401699
  0
ARC
  5
C6CE
330
1F
100
AcDbEntity
  8
freecads.com
100
AcDbCircle
 10
10595.67329940174
 20
30338.90554960491
 30
0.0
 40
37.33721634051891
100
AcDbArc
 50
304.3667962102003
 51
312.5584359638683
  0
ARC
  5
C6CF
330
1F
100
AcDbEntity
  8
freecads.com
100
AcDbCircle
 10
10628.8366129303
 20
30290.41146556407
 30
0.0
 40
21.41209472909029
100
AcDbArc
 50
124.3667598922161
 51
127.5753430816465
  0
ARC
  5
C6D0
330
1F
100
AcDbEntity
  8
freecads.com
100
AcDbCircle
 10
10628.86645705896
 20
30290.37271963414
 30
0.0
 40
21.46100197239712
100
AcDbArc
 50
127.575411425572
 51
130.7784952963246
  0
ARC
  5
C6D1
330
1F
100
AcDbEntity
  8
freecads.com
100
AcDbCircle
 10
10627.12219936637
 20
30292.39498368238
 30
0.0
 40
18.79042398647401
100
AcDbArc
 50
130.7784715259316
 51
133.9735355504462
  0
ARC
  5
C6D2
330
1F
100
AcDbEntity
  8
freecads.com
100
AcDbCircle
 10
10616.26356520732
 20
30303.64983033583
 30
0.0
 40
3.151322062357265
100
AcDbArc
 50
133.9735743817628
 51
145.9404840485365
  0
ARC
  5
C6D3
330
1F
100
AcDbEntity
  8
freecads.com
100
AcDbCircle
 10
10612.06278457953
 20
30306.48964450428
 30
0.0
 40
1.919289576689198
100
AcDbArc
 50
311.9468253112738
 51
325.9405188200831
  0
ARC
  5
C6D4
330
1F
100
AcDbEntity
  8
freecads.com
100
AcDbCircle
 10
10612.60401966958
 20
30305.88741779574
 30
0.0
 40
1.109590601029742
100
AcDbArc
 50
290.8546218933913
 51
311.946866938224
  0
ARC
  5
C6D5
330
1F
100
AcDbEntity
  8
freecads.com
100
AcDbCircle
 10
10612.75195588734
 20
30305.49909352372
 30
0.0
 40
0.694041729350311
100
AcDbArc
 50
263.1811364700835
 51
290.8544760841871
  0
ARC
  5
C6D6
330
1F
100
AcDbEntity
  8
freecads.com
100
AcDbCircle
 10
10612.72314515967
 20
30305.25816006688
 30
0.0
 40
0.4513917990945019
100
AcDbArc
 50
225.0001340641075
 51
263.1812245150247
  0
ARC
  5
C6D7
330
1F
100
AcDbEntity
  8
freecads.com
100
AcDbCircle
 10
10612.98547087265
 20
30305.5204853356
 30
0.0
 40
0.8223760660189897
100
AcDbArc
 50
184.2174562766266
 51
225.0000516995957
  0
ARC
  5
C6D8
330
1F
100
AcDbEntity
  8
freecads.com
100
AcDbCircle
 10
12413.79549671286
 20
30438.31573279588
 30
0.0
 40
1806.522054006571
100
AcDbArc
 50
184.0254136034018
 51
184.2174690114095
  0
ARC
  5
C6D9
330
1F
100
AcDbEntity
  8
freecads.com
100
AcDbCircle
 10
11071.34807858871
 20
30343.84400103259
 30
0.0
 40
460.7546229360318
100
AcDbArc
 50
183.1650283125656
 51
184.0253776961364
  0
ARC
  5
C6DA
330
1F
100
AcDbEntity
  8
freecads.com
100
AcDbCircle
 10
11473.40897730325
 20
30366.07555751831
 30
0.0
 40
863.429688439743
100
AcDbArc
 50
182.6273012689356
 51
183.1649638775593
  0
ARC
  5
C6DB
330
1F
100
AcDbEntity
  8
freecads.com
100
AcDbCircle
 10
10128.53617854665
 20
30304.36298413284
 30
0.0
 40
482.8582772456423
100
AcDbArc
 50
2.6273123748697
 51
3.608668488594442
  0
ARC
  5
C6DC
330
1F
100
AcDbEntity
  8
freecads.com
100
AcDbCircle
 10
10292.22645594612
 20
30314.68590172648
 30
0.0
 40
318.8428220518242
100
AcDbArc
 50
3.608751938262088
 51
4.948082833175712
  0
ARC
  5
C6DD
330
1F
100
AcDbEntity
  8
freecads.com
100
AcDbCircle
 10
10215.61976770059
 20
30308.0534718243
 30
0.0
 40
395.7360845026855
100
AcDbArc
 50
4.948105075829325
 51
5.851311067984027
  0
ARC
  5
C6DE
330
1F
100
AcDbEntity
  8
freecads.com
100
AcDbCircle
 10
10601.37078925295
 20
30347.58568985305
 30
0.0
 40
7.964699675278346
100
AcDbArc
 50
5.851284184541397
 51
20.804624581446
  0
ARC
  5
C6DF
330
1F
100
AcDbEntity
  8
freecads.com
100
AcDbCircle
 10
10595.51463533221
 20
30345.3605853424
 30
0.0
 40
14.2293328510137
100
AcDbArc
 50
20.80469768162391
 51
27.26732323113528
  0
ARC
  5
C6E0
330
1F
100
AcDbEntity
  8
freecads.com
100
AcDbCircle
 10
10548.33663331817
 20
30321.04421957894
 30
0.0
 40
67.30521737476983
100
AcDbArc
 50
27.26735910096872
 51
29.30818082330748
  0
ARC
  5
C6E1
330
1F
100
AcDbEntity
  8
freecads.com
100
AcDbCircle
 10
10541.08103196464
 20
30316.97131746648
 30
0.0
 40
75.62581126043972
100
AcDbArc
 50
29.30810564378997
 51
31.33907326979749
  0
ARC
  5
C6E2
330
1F
100
AcDbEntity
  8
freecads.com
100
AcDbCircle
 10
10548.6099056618
 20
30321.55596935623
 30
0.0
 40
66.81088232721197
100
AcDbArc
 50
31.33908089380735
 51
33.5678164572227
  0
ARC
  5
C6E3
330
1F
100
AcDbEntity
  8
freecads.com
100
AcDbCircle
 10
10669.34506368332
 20
30401.67463958739
 30
0.0
 40
78.08901312513659
100
AcDbArc
 50
211.781914863958
 51
213.5679027485569
  0
ARC
  5
C6E4
330
1F
100
AcDbEntity
  8
freecads.com
100
AcDbCircle
 10
10645.86539899325
 20
30387.12688242886
 30
0.0
 40
50.46779135091032
100
AcDbArc
 50
209.3049937758471
 51
211.7819084736185
  0
ARC
  5
C6E5
330
1F
100
AcDbEntity
  8
freecads.com
100
AcDbCircle
 10
10654.10179877501
 20
30391.74981138262
 30
0.0
 40
59.91288285250909
100
AcDbArc
 50
207.5725756905467
 51
209.3049378855328
  0
ARC
  5
C6E6
330
1F
100
AcDbEntity
  8
freecads.com
100
AcDbCircle
 10
10602.12557243318
 20
30364.60896700988
 30
0.0
 40
1.277112728782837
100
AcDbArc
 50
179.9999951529169
 51
207.5725968073134
  0
ARC
  5
C6E7
330
1F
100
AcDbEntity
  8
freecads.com
100
AcDbCircle
 10
10594.46364766299
 20
30364.60896495909
 30
0.0
 40
6.384812041407395
100
AcDbArc
 50
0.000019372907771
 51
25.18778614002967
  0
ARC
  5
C6E8
330
1F
100
AcDbEntity
  8
freecads.com
100
AcDbCircle
 10
10488.9885425657
 20
30315.00348682084
 30
0.0
 40
122.9425284595331
100
AcDbArc
 50
25.18783735457695
 51
28.11595072085902
  0
ARC
  5
C6E9
330
1F
100
AcDbEntity
  8
freecads.com
100
AcDbCircle
 10
10497.67920770409
 20
30319.6468735158
 30
0.0
 40
113.0891685992134
100
AcDbArc
 50
28.11599808462528
 51
31.293647558692
  0
ARC
  5
C6EA
330
1F
100
AcDbEntity
  8
freecads.com
100
AcDbCircle
 10
10586.76117924069
 20
30373.79601966229
 30
0.0
 40
8.840774456952411
100
AcDbArc
 50
31.29372884620054
 51
51.81136066989221
  0
ARC
  5
C6EB
330
1F
100
AcDbEntity
  8
freecads.com
100
AcDbCircle
 10
10586.97007331983
 20
30374.06157311771
 30
0.0
 40
8.502905586046667
100
AcDbArc
 50
51.81141025621648
 51
69.41099867746867
  0
ARC
  5
C6EC
330
1F
100
AcDbEntity
  8
freecads.com
100
AcDbCircle
 10
10588.43244835339
 20
30377.95443171448
 30
0.0
 40
4.344433655968087
100
AcDbArc
 50
69.41097998420523
 51
98.49485905406929
  0
ARC
  5
C6ED
330
1F
100
AcDbEntity
  8
freecads.com
100
AcDbCircle
 10
10588.61700759826
 20
30376.71876233986
 30
0.0
 40
5.593809867619878
100
AcDbArc
 50
98.49486479372663
 51
123.3485996597573
  0
ARC
  5
C6EE
330
1F
100
AcDbEntity
  8
freecads.com
100
AcDbCircle
 10
10595.12652259079
 20
30366.82724377774
 30
0.0
 40
17.43509041081361
100
AcDbArc
 50
123.3485572554114
 51
134.0011027897742
  0
ARC
  5
C6EF
330
1F
100
AcDbEntity
  8
freecads.com
100
AcDbCircle
 10
10588.39992212032
 20
30373.79256664546
 30
0.0
 40
7.751967126420622
100
AcDbArc
 50
134.0010641172547
 51
149.3840686411905
  0
ARC
  5
C6F0
330
1F
100
AcDbEntity
  8
freecads.com
100
AcDbCircle
 10
10586.46749388458
 20
30374.93613192652
 30
0.0
 40
5.506522752064274
100
AcDbArc
 50
149.3841137659382
 51
169.2615932222374
  0
ARC
  5
C6F1
330
1F
100
AcDbEntity
  8
freecads.com
100
AcDbCircle
 10
10596.7491064673
 20
30372.98628079533
 30
0.0
 40
15.97139144378572
100
AcDbArc
 50
169.2616592152892
 51
179.1225903935508
  0
ARC
  5
C6F2
330
1F
100
AcDbEntity
  8
freecads.com
100
AcDbCircle
 10
10827.60510777838
 20
30369.4510585934
 30
0.0
 40
246.8544595482895
100
AcDbArc
 50
179.122662478549
 51
180.4594724451168
  0
ARC
  5
C6F3
330
1F
100
AcDbEntity
  8
freecads.com
100
AcDbCircle
 10
10225.88069231955
 20
30364.62514634428
 30
0.0
 40
354.8893078381369
100
AcDbArc
 50
359.5169115262213
 51
0.4595363753501412
  0
ARC
  5
C6F4
330
1F
100
AcDbEntity
  8
freecads.com
100
AcDbCircle
 10
10567.93195342727
 20
30361.74107550159
 30
0.0
 40
12.82588814815535
100
AcDbArc
 50
349.0850717218714
 51
359.5169231926517
  0
ARC
  5
C6F5
330
1F
100
AcDbEntity
  8
freecads.com
100
AcDbCircle
 10
10578.56630511811
 20
30359.69034845605
 30
0.0
 40
1.995610344712768
100
AcDbArc
 50
313.6143415002579
 51
349.0850729539415
  0
ARC
  5
C6F6
330
1F
100
AcDbEntity
  8
freecads.com
100
AcDbCircle
 10
10578.89890150175
 20
30359.34126161111
 30
0.0
 40
1.51344649318339
100
AcDbArc
 50
269.999931956158
 51
313.6143739510783
  0
ARC
  5
C6F7
330
1F
100
AcDbEntity
  8
freecads.com
100
AcDbCircle
 10
10578.89889693962
 20
30354.77466871903
 30
0.0
 40
3.053146398900595
100
AcDbArc
 50
89.99994811574195
 51
129.0922299902918
  0
ARC
  5
C6F8
330
1F
100
AcDbEntity
  8
freecads.com
100
AcDbCircle
 10
10582.07903929561
 20
30350.86042039541
 30
0.0
 40
8.096423641255359
100
AcDbArc
 50
129.0922318126439
 51
147.9798799420832
  0
ARC
  5
C6F9
330
1F
100
AcDbEntity
  8
freecads.com
100
AcDbCircle
 10
10591.51158090073
 20
30344.96172310228
 30
0.0
 40
19.22150660221549
100
AcDbArc
 50
147.9799192769189
 51
159.5202971805795
  0
ARC
  5
C6FA
330
1F
100
AcDbEntity
  8
freecads.com
100
AcDbCircle
 10
10651.8733434136
 20
30322.41776811857
 30
0.0
 40
83.65575432784833
100
AcDbArc
 50
159.5203061579574
 51
163.3924448222415
  0
ARC
  5
C6FB
330
1F
100
AcDbEntity
  8
freecads.com
100
AcDbCircle
 10
10504.63185159786
 20
30366.33348180662
 30
0.0
 40
69.99530105693337
100
AcDbArc
 50
340.7413911455518
 51
343.3924632050388
  0
ARC
  5
C6FC
330
1F
100
AcDbEntity
  8
freecads.com
100
AcDbCircle
 10
10457.78818029016
 20
30382.69982731284
 30
0.0
 40
119.6157283707744
100
AcDbArc
 50
338.9666750596163
 51
340.7414336491567
  0
ARC
  5
C6FD
330
1F
100
AcDbEntity
  8
freecads.com
100
AcDbCircle
 10
10461.92309473693
 20
30381.10972197483
 30
0.0
 40
115.1856095846745
100
AcDbArc
 50
337.179129607931
 51
338.9667216770637
  0
ARC
  5
C6FE
330
1F
100
AcDbEntity
  8
freecads.com
100
AcDbCircle
 10
10524.63631115243
 20
30354.72060609705
 30
0.0
 40
47.14640801684913
100
AcDbArc
 50
333.6951525094308
 51
337.1791550490126
  0
ARC
  5
C6FF
330
1F
100
AcDbEntity
  8
freecads.com
100
AcDbCircle
 10
10652.82166478825
 20
30291.35395432908
 30
0.0
 40
95.84596046141212
100
AcDbArc
 50
153.6951475209807
 51
155.3761755445825
  0
ARC
  5
C700
330
1F
100
AcDbEntity
  8
freecads.com
100
AcDbCircle
 10
10752.00013877234
 20
30245.89635533287
 30
0.0
 40
204.9457451004694
100
AcDbArc
 50
155.3761108624284
 51
156.3283612382556
  0
ARC
  5
C701
330
1F
100
AcDbEntity
  8
freecads.com
100
AcDbCircle
 10
10753.92980090169
 20
30245.05000676843
 30
0.0
 40
207.0528525196435
100
AcDbArc
 50
156.3282535023862
 51
157.2786704447612
  0
ARC
  5
C702
330
1F
100
AcDbEntity
  8
freecads.com
100
AcDbCircle
 10
10661.39328266091
 20
30283.79931531023
 30
0.0
 40
106.730790536293
100
AcDbArc
 50
157.2786514167532
 51
158.8391351520057
  0
ARC
  5
C703
330
1F
100
AcDbEntity
  8
freecads.com
100
AcDbCircle
 10
10517.43938041528
 20
30339.52218782464
 30
0.0
 40
47.63165467955026
100
AcDbArc
 50
330.8478678413266
 51
338.8392222430276
  0
ARC
  5
C704
330
1F
100
AcDbEntity
  8
freecads.com
100
AcDbCircle
 10
10523.09258908968
 20
30336.36885017276
 30
0.0
 40
41.15845557401686
100
AcDbArc
 50
321.9314910937588
 51
330.8479425115767
  0
ARC
  5
C705
330
1F
100
AcDbEntity
  8
freecads.com
100
AcDbCircle
 10
10530.24369607091
 20
30330.76797135946
 30
0.0
 40
32.07505452942178
100
AcDbArc
 50
312.2110763266963
 51
321.9315457295693
  0
ARC
  5
C706
330
1F
100
AcDbEntity
  8
freecads.com
100
AcDbCircle
 10
10547.07112764239
 20
30312.21710534412
 30
0.0
 40
7.02915500051646
100
AcDbArc
 50
282.2292258318731
 51
312.2110912668144
  0
ARC
  5
C707
330
1F
100
AcDbEntity
  8
freecads.com
100
AcDbCircle
 10
10538.83714087407
 20
30350.20709740587
 30
0.0
 40
45.90122768712708
100
AcDbArc
 50
276.3072740786162
 51
282.2291934564481
  0
ARC
  5
C708
330
1F
100
AcDbEntity
  8
freecads.com
100
AcDbCircle
 10
10535.02345572191
 20
30384.7116021022
 30
0.0
 40
80.61585052498189
100
AcDbArc
 50
272.4229345003164
 51
276.3072163918546
  0
ARC
  5
C709
330
1F
100
AcDbEntity
  8
freecads.com
100
AcDbCircle
 10
10535.56691771493
 20
30371.86861908608
 30
0.0
 40
67.76137411833613
100
AcDbArc
 50
268.6561641117132
 51
272.4229078209475
  0
ARC
  5
C70A
330
1F
100
AcDbEntity
  8
freecads.com
100
AcDbCircle
 10
10533.98541585331
 20
30304.45210211923
 30
0.0
 40
0.3263097372614475
100
AcDbArc
 50
123.8603417077905
 51
268.656258206311
  0
ARC
  5
C70B
330
1F
100
AcDbEntity
  8
freecads.com
100
AcDbCircle
 10
10532.3738698099
 20
30306.85392758523
 30
0.0
 40
2.566067523605307
100
AcDbArc
 50
303.8603108482125
 51
353.4825524115149
  0
ARC
  5
C70C
330
1F
100
AcDbEntity
  8
freecads.com
100
AcDbCircle
 10
10512.19316387193
 20
30309.15942853742
 30
0.0
 40
22.87804002248621
100
AcDbArc
 50
353.4826156910145
 51
3.422010080718097
  0
ARC
  5
C70D
330
1F
100
AcDbEntity
  8
freecads.com
100
AcDbCircle
 10
10512.20273831746
 20
30309.16001984536
 30
0.0
 40
22.86844735339601
100
AcDbArc
 50
3.421963087320794
 51
13.54115064931711
  0
ARC
  5
C70E
330
1F
100
AcDbEntity
  8
freecads.com
100
AcDbCircle
 10
10530.8478262683
 20
30313.65047948527
 30
0.0
 40
3.690242732722912
100
AcDbArc
 50
13.54108106364142
 51
52.49156471898165
  0
ARC
  5
C70F
330
1F
100
AcDbEntity
  8
freecads.com
100
AcDbCircle
 10
10530.93951696234
 20
30313.76994325429
 30
0.0
 40
3.539647993555051
100
AcDbArc
 50
52.49150017502157
 51
68.26551224714247
  0
ARC
  5
C710
330
1F
100
AcDbEntity
  8
freecads.com
100
AcDbCircle
 10
10528.33820887427
 20
30307.24460080202
 30
0.0
 40
10.564382713703
100
AcDbArc
 50
68.26547157456655
 51
75.24537641261659
  0
ARC
  5
C711
330
1F
100
AcDbEntity
  8
freecads.com
100
AcDbCircle
 10
10528.00937687785
 20
30305.99604189325
 30
0.0
 40
11.85551780752921
100
AcDbArc
 50
75.24534777518181
 51
81.98894760826886
  0
ARC
  5
C712
330
1F
100
AcDbEntity
  8
freecads.com
100
AcDbCircle
 10
10528.34846395937
 20
30308.40535445749
 30
0.0
 40
9.422460660434387
100
AcDbArc
 50
81.98898573678404
 51
90.00002587344777
  0
ARC
  5
C713
330
1F
100
AcDbEntity
  8
freecads.com
100
AcDbCircle
 10
10528.34845762014
 20
30307.56181203615
 30
0.0
 40
10.26600308177579
100
AcDbArc
 50
89.99998836743829
 51
103.6187272813908
  0
ARC
  5
C714
330
1F
100
AcDbEntity
  8
freecads.com
100
AcDbCircle
 10
10527.33492544024
 20
30311.7452387049
 30
0.0
 40
5.961551180263503
100
AcDbArc
 50
103.6186595917984
 51
124.0776334652827
  0
ARC
  5
C715
330
1F
100
AcDbEntity
  8
freecads.com
100
AcDbCircle
 10
10528.95012779461
 20
30309.35757388347
 30
0.0
 40
8.844227357882724
100
AcDbArc
 50
124.0775836245129
 51
140.0954157149771
  0
ARC
  5
C716
330
1F
100
AcDbEntity
  8
freecads.com
100
AcDbCircle
 10
10550.28184966636
 20
30291.51855789248
 30
0.0
 40
36.65201133180906
100
AcDbArc
 50
140.095382338759
 51
145.6654977501949
  0
ARC
  5
C717
330
1F
100
AcDbEntity
  8
freecads.com
100
AcDbCircle
 10
10596.82013954768
 20
30259.7313104977
 30
0.0
 40
93.01016532935948
100
AcDbArc
 50
145.6655503531686
 51
147.2010542681455
  0
ARC
  5
C718
330
1F
100
AcDbEntity
  8
freecads.com
100
AcDbCircle
 10
10519.85066298654
 20
30309.3327500813
 30
0.0
 40
1.442686763760216
100
AcDbArc
 50
147.2010974651306
 51
177.5717145455373
  0
ARC
  5
C719
330
1F
100
AcDbEntity
  8
freecads.com
100
AcDbCircle
 10
10518.88397545596
 20
30309.37374354158
 30
0.0
 40
0.4751304369479758
100
AcDbArc
 50
177.5716147069362
 51
246.5176281766257
  0
ARC
  5
C71A
330
1F
100
AcDbEntity
  8
freecads.com
100
AcDbCircle
 10
10521.88973334529
 20
30316.29237273126
 30
0.0
 40
8.018472557877494
100
AcDbArc
 50
246.5177391894616
 51
255.3449430647934
  0
ARC
  5
C71B
330
1F
100
AcDbEntity
  8
freecads.com
100
AcDbCircle
 10
10519.27100557128
 20
30306.27837551041
 30
0.0
 40
2.332270192932555
100
AcDbArc
 50
40.421258247641
 51
75.34497389183986
  0
ARC
  5
C71C
330
1F
100
AcDbEntity
  8
freecads.com
100
AcDbCircle
 10
10518.01350247831
 20
30305.20735531044
 30
0.0
 40
3.984056588805282
100
AcDbArc
 50
17.02644520314752
 51
40.42121904222074
  0
ARC
  5
C71D
330
1F
100
AcDbEntity
  8
freecads.com
100
AcDbCircle
 10
10515.24258557219
 20
30304.3588148189
 30
0.0
 40
6.881987137714852
100
AcDbArc
 50
359.8929785065769
 51
17.02634572545081
  0
ARC
  5
C71E
330
1F
100
AcDbEntity
  8
freecads.com
100
AcDbCircle
 10
10506.54294556518
 20
30304.37508333068
 30
0.0
 40
15.58164235593057
100
AcDbArc
 50
350.59112367167
 51
359.8929099957077
  0
ARC
  5
C71F
330
1F
100
AcDbEntity
  8
freecads.com
100
AcDbCircle
 10
10669.01543365403
 20
30277.45204209126
 30
0.0
 40
149.1064250179932
100
AcDbArc
 50
170.5911106559744
 51
172.2920765252606
  0
ARC
  5
C720
330
1F
100
AcDbEntity
  8
freecads.com
100
AcDbCircle
 10
11019.48085267095
 20
30230.01794376379
 30
0.0
 40
502.7672846149404
100
AcDbArc
 50
172.292080866498
 51
172.9800865201533
  0
ARC
  5
C721
330
1F
100
AcDbEntity
  8
freecads.com
100
AcDbCircle
 10
11032.27726557511
 20
30228.44163747305
 30
0.0
 40
515.6604193928719
100
AcDbArc
 50
172.9800214954735
 51
173.674215037054
  0
ARC
  5
C722
330
1F
100
AcDbEntity
  8
freecads.com
100
AcDbCircle
 10
10768.34265640248
 20
30257.70030571804
 30
0.0
 40
250.109016484732
100
AcDbArc
 50
173.6741656869116
 51
174.8668238670148
  0
ARC
  5
C723
330
1F
100
AcDbEntity
  8
freecads.com
100
AcDbCircle
 10
10688.14206136809
 20
30264.90493005316
 30
0.0
 40
169.5854667885944
100
AcDbArc
 50
174.8668577961483
 51
176.2605031589669
  0
ARC
  5
C724
330
1F
100
AcDbEntity
  8
freecads.com
100
AcDbCircle
 10
10528.31699041978
 20
30275.35100360277
 30
0.0
 40
9.419384997744076
100
AcDbArc
 50
176.2605562771063
 51
187.6998896369866
  0
ARC
  5
C725
330
1F
100
AcDbEntity
  8
freecads.com
100
AcDbCircle
 10
10520.63746794993
 20
30274.31271061315
 30
0.0
 40
1.669990331239887
100
AcDbArc
 50
187.7000298106572
 51
222.4853609657436
  0
ARC
  5
C726
330
1F
100
AcDbEntity
  8
freecads.com
100
AcDbCircle
 10
10520.21695336756
 20
30273.92757718986
 30
0.0
 40
1.099762071927969
100
AcDbArc
 50
222.4853451494299
 51
269.9999654503068
  0
ARC
  5
C727
330
1F
100
AcDbEntity
  8
freecads.com
100
AcDbCircle
 10
10520.21695280767
 20
30271.80278790635
 30
0.0
 40
1.025027211581805
100
AcDbArc
 50
34.93047894301811
 51
90.00000577276882
  0
ARC
  5
C728
330
1F
100
AcDbEntity
  8
freecads.com
100
AcDbCircle
 10
10518.58041461614
 20
30270.65983223438
 30
0.0
 40
3.021174731279945
100
AcDbArc
 50
10.27488808754898
 51
34.93041823628696
  0
ARC
  5
C729
330
1F
100
AcDbEntity
  8
freecads.com
100
AcDbCircle
 10
10506.54920748068
 20
30268.47883017572
 30
0.0
 40
15.24846859036399
100
AcDbArc
 50
1.251143871924937
 51
10.27491759488618
  0
ARC
  5
C72A
330
1F
100
AcDbEntity
  8
freecads.com
100
AcDbCircle
 10
10293.58281484496
 20
30263.82770199085
 30
0.0
 40
228.2656448594644
100
AcDbArc
 50
0.0000283954776078
 51
1.25112660911844
  0
ARC
  5
C72B
330
1F
100
AcDbEntity
  8
freecads.com
100
AcDbCircle
 10
10914.9248730023
 20
30263.82775867766
 30
0.0
 40
393.0764132979092
100
AcDbArc
 50
179.9999917730488
 51
180.8605703366304
  0
ARC
  5
C72C
330
1F
100
AcDbEntity
  8
freecads.com
100
AcDbCircle
 10
10529.66073083875
 20
30258.04073183974
 30
0.0
 40
7.768810314729281
100
AcDbArc
 50
180.8605204903044
 51
195.2866201286512
  0
ARC
  5
C72D
330
1F
100
AcDbEntity
  8
freecads.com
100
AcDbCircle
 10
10523.44347590802
 20
30256.34144356582
 30
0.0
 40
1.323514393550854
100
AcDbArc
 50
195.2866108948528
 51
245.204323606947
  0
ARC
  5
C72E
330
1F
100
AcDbEntity
  8
freecads.com
100
AcDbCircle
 10
10524.30831658856
 20
30258.21349361364
 30
0.0
 40
3.385678495712435
100
AcDbArc
 50
245.2042692055213
 51
270.0000188833845
  0
ARC
  5
C72F
330
1F
100
AcDbEntity
  8
freecads.com
100
AcDbCircle
 10
10524.30831248065
 20
30250.442092175
 30
0.0
 40
4.385722942925368
100
AcDbArc
 50
72.76287144762534
 51
89.99993175605485
  0
ARC
  5
C730
330
1F
100
AcDbEntity
  8
freecads.com
100
AcDbCircle
 10
10524.99322791839
 20
30252.64963363749
 30
0.0
 40
2.074370856931803
100
AcDbArc
 50
42.59447288064463
 51
72.76285278854314
  0
ARC
  5
C731
330
1F
100
AcDbEntity
  8
freecads.com
100
AcDbCircle
 10
10523.7730209034
 20
30251.5278137162
 30
0.0
 40
3.731894641140875
100
AcDbArc
 50
21.92383469605763
 51
42.59446467064125
  0
ARC
  5
C732
330
1F
100
AcDbEntity
  8
freecads.com
100
AcDbCircle
 10
10505.08347505023
 20
30244.00562837739
 30
0.0
 40
23.87841782677124
100
AcDbArc
 50
16.67852759663635
 51
21.92384230186193
  0
ARC
  5
C733
330
1F
100
AcDbEntity
  8
freecads.com
100
AcDbCircle
 10
10491.93009402933
 20
30240.06474643498
 30
0.0
 40
37.60947688147148
100
AcDbArc
 50
12.90315174373855
 51
16.67860205375297
  0
ARC
  5
C734
330
1F
100
AcDbEntity
  8
freecads.com
100
AcDbCircle
 10
10525.62764208512
 20
30247.78446495937
 30
0.0
 40
3.038986588907818
100
AcDbArc
 50
349.0886655371717
 51
12.90317303347381
  0
ARC
  5
C735
330
1F
100
AcDbEntity
  8
freecads.com
100
AcDbCircle
 10
10526.62300903671
 20
30247.59257927285
 30
0.0
 40
2.025292608952296
100
AcDbArc
 50
317.5302559193845
 51
349.0887768417957
  0
ARC
  5
C736
330
1F
100
AcDbEntity
  8
freecads.com
100
AcDbCircle
 10
10519.35893037995
 20
30254.24181042963
 30
0.0
 40
11.873090012837
100
AcDbArc
 50
308.9987933477277
 51
317.5303171466336
  0
ARC
  5
C737
330
1F
100
AcDbEntity
  8
freecads.com
100
AcDbCircle
 10
10531.82951228368
 20
30238.84127797658
 30
0.0
 40
7.943363071796766
100
AcDbArc
 50
128.9988697581405
 51
138.4635610793133
  0
ARC
  5
C738
330
1F
100
AcDbEntity
  8
freecads.com
100
AcDbCircle
 10
10528.80971347025
 20
30241.51639447693
 30
0.0
 40
3.909080835257016
100
AcDbArc
 50
138.4635442553388
 51
154.5500226010363
  0
ARC
  5
C739
330
1F
100
AcDbEntity
  8
freecads.com
100
AcDbCircle
 10
10527.65168648077
 20
30242.06750228854
 30
0.0
 40
2.626604196724575
100
AcDbArc
 50
154.5499791750977
 51
174.6708219335222
  0
ARC
  5
C73A
330
1F
100
AcDbEntity
  8
freecads.com
100
AcDbCircle
 10
10526.86359564972
 20
30242.14102027056
 30
0.0
 40
1.835091687898215
100
AcDbArc
 50
174.6709523510763
 51
200.9936159929546
  0
ARC
  5
C73B
330
1F
100
AcDbEntity
  8
freecads.com
100
AcDbCircle
 10
10527.31215763758
 20
30242.31315140959
 30
0.0
 40
2.315546665987975
100
AcDbArc
 50
200.9936544844627
 51
240.245284153489
  0
ARC
  5
C73C
330
1F
100
AcDbEntity
  8
freecads.com
100
AcDbCircle
 10
10527.68579069699
 20
30242.9667499648
 30
0.0
 40
3.068403049669503
100
AcDbArc
 50
240.2452949093851
 51
272.0423629977817
  0
ARC
  5
C73D
330
1F
100
AcDbEntity
  8
freecads.com
100
AcDbCircle
 10
10527.60714972039
 20
30245.17198204052
 30
0.0
 40
5.275036891294241
100
AcDbArc
 50
272.042363584392
 51
295.095746644943
  0
ARC
  5
C73E
330
1F
100
AcDbEntity
  8
freecads.com
100
AcDbCircle
 10
10525.44621535935
 20
30249.7859544868
 30
0.0
 40
10.36997350009669
100
AcDbArc
 50
295.0957936566029
 51
308.9988380721008
  0
ARC
  5
C73F
330
1F
100
AcDbEntity
  8
freecads.com
100
AcDbCircle
 10
10524.62526416144
 20
30250.79978922836
 30
0.0
 40
11.67451240428325
100
AcDbArc
 50
308.9988306483594
 51
317.9743212628677
  0
ARC
  5
C740
330
1F
100
AcDbEntity
  8
freecads.com
100
AcDbCircle
 10
10531.76419792373
 20
30244.36606802743
 30
0.0
 40
2.064249985718738
100
AcDbArc
 50
317.9743331692197
 51
350.3233228330967
  0
ARC
  5
C741
330
1F
100
AcDbEntity
  8
freecads.com
100
AcDbCircle
 10
10530.2245536174
 20
30244.62859208342
 30
0.0
 40
3.626115367226886
100
AcDbArc
 50
350.3234345130089
 51
12.1190360977237
  0
ARC
  5
C742
330
1F
100
AcDbEntity
  8
freecads.com
100
AcDbCircle
 10
10476.2120155206
 20
30233.03056240753
 30
0.0
 40
58.86983504667175
100
AcDbArc
 50
12.11901085726376
 51
14.97379729948297
  0
ARC
  5
C743
330
1F
100
AcDbEntity
  8
freecads.com
100
AcDbCircle
 10
10579.74596110346
 20
30260.72165898128
 30
0.0
 40
48.3032712692831
100
AcDbArc
 50
192.6236082009804
 51
194.9737986931237
  0
ARC
  5
C744
330
1F
100
AcDbEntity
  8
freecads.com
100
AcDbCircle
 10
10582.00620753976
 20
30261.2278840008
 30
0.0
 40
50.61951342474398
100
AcDbArc
 50
190.354564754718
 51
192.6236326629577
  0
ARC
  5
C745
330
1F
100
AcDbEntity
  8
freecads.com
100
AcDbCircle
 10
10576.23653380519
 20
30260.17362248302
 30
0.0
 40
44.75431075580934
100
AcDbArc
 50
188.0939040310667
 51
190.35449299213
  0
ARC
  5
C746
330
1F
100
AcDbEntity
  8
freecads.com
100
AcDbCircle
 10
10539.83701126886
 20
30254.99715573016
 30
0.0
 40
7.988551564465015
100
AcDbArc
 50
180.0000115632551
 51
188.0939136101315
  0
ARC
  5
C747
330
1F
100
AcDbEntity
  8
freecads.com
100
AcDbCircle
 10
10553.5157793977
 20
30254.99716776129
 30
0.0
 40
21.66731969330815
100
AcDbArc
 50
176.5458205174039
 51
180.0000360777729
  0
ARC
  5
C748
330
1F
100
AcDbEntity
  8
freecads.com
100
AcDbCircle
 10
10532.19280405914
 20
30256.28422170199
 30
0.0
 40
0.3055364078443923
100
AcDbArc
 50
103.9691583125303
 51
176.5458660007387
  0
ARC
  5
C749
330
1F
100
AcDbEntity
  8
freecads.com
100
AcDbCircle
 10
10532.22937449438
 20
30256.13721001194
 30
0.0
 40
0.4570284331885749
100
AcDbArc
 50
50.02029069943367
 51
103.9692005329047
  0
ARC
  5
C74A
330
1F
100
AcDbEntity
  8
freecads.com
100
AcDbCircle
 10
10505.88936355229
 20
30224.72401745218
 30
0.0
 40
41.4519652330668
100
AcDbArc
 50
47.85531721541123
 51
50.02011656394446
  0
ARC
  5
C74B
330
1F
100
AcDbEntity
  8
freecads.com
100
AcDbCircle
 10
10536.83482232813
 20
30258.91839762636
 30
0.0
 40
4.666112072302389
100
AcDbArc
 50
227.8553860647001
 51
240.6026822086442
  0
ARC
  5
C74C
330
1F
100
AcDbEntity
  8
freecads.com
100
AcDbCircle
 10
10536.83943260731
 20
30258.92658472047
 30
0.0
 40
4.675507985219661
100
AcDbArc
 50
240.602707899934
 51
253.3308120681103
  0
ARC
  5
C74D
330
1F
100
AcDbEntity
  8
freecads.com
100
AcDbCircle
 10
10536.62598563191
 20
30258.21372412116
 30
0.0
 40
3.931377724219447
100
AcDbArc
 50
253.330760979278
 51
267.149089080281
  0
ARC
  5
C74E
330
1F
100
AcDbEntity
  8
freecads.com
100
AcDbCircle
 10
10536.52472566884
 20
30256.18043718965
 30
0.0
 40
1.895570924461401
100
AcDbArc
 50
267.1492260451383
 51
290.9936598353914
  0
ARC
  5
C74F
330
1F
100
AcDbEntity
  8
freecads.com
100
AcDbCircle
 10
10537.98789065633
 20
30252.36748550929
 30
0.0
 40
2.188477593538934
100
AcDbArc
 50
89.23516051672551
 51
110.9935144066519
  0
ARC
  5
C750
330
1F
100
AcDbEntity
  8
freecads.com
100
AcDbCircle
 10
10538.00900456752
 20
30253.9490030308
 30
0.0
 40
0.6068191386067479
100
AcDbArc
 50
32.8666559465723
 51
89.23525790520491
  0
ARC
  5
C751
330
1F
100
AcDbEntity
  8
freecads.com
100
AcDbCircle
 10
10537.0994796505
 20
30253.36135877594
 30
0.0
 40
1.689667856084201
100
AcDbArc
 50
4.540496227668706
 51
32.86656342604279
  0
ARC
  5
C752
330
1F
100
AcDbEntity
  8
freecads.com
100
AcDbCircle
 10
10518.259650193
 20
30251.86523668192
 30
0.0
 40
20.58880951141211
100
AcDbArc
 50
0.0000457390054423
 51
4.540485918345414
  0
ARC
  5
C753
330
1F
100
AcDbEntity
  8
freecads.com
100
AcDbCircle
 10
10558.0751779513
 20
30251.86526261207
 30
0.0
 40
19.22671824689867
100
AcDbArc
 50
180.0000282927163
 51
185.1947198000158
  0
ARC
  5
C754
330
1F
100
AcDbEntity
  8
freecads.com
100
AcDbCircle
 10
10540.45703745007
 20
30250.26352494851
 30
0.0
 40
1.535917296575687
100
AcDbArc
 50
185.1947814708203
 51
218.2219188414771
  0
ARC
  5
C755
330
1F
100
AcDbEntity
  8
freecads.com
100
AcDbCircle
 10
10539.96447884288
 20
30249.87561504658
 30
0.0
 40
0.9089499341682946
100
AcDbArc
 50
218.2219539913007
 51
265.6246317551413
  0
ARC
  5
C756
330
1F
100
AcDbEntity
  8
freecads.com
100
AcDbCircle
 10
10540.3183782512
 20
30254.50088120665
 30
0.0
 40
5.547735534154399
100
AcDbArc
 50
265.624583291271
 51
278.0832956377614
  0
ARC
  5
C757
330
1F
100
AcDbEntity
  8
freecads.com
100
AcDbCircle
 10
10540.61930851833
 20
30252.38203490484
 30
0.0
 40
3.407626033138505
100
AcDbArc
 50
278.0832288831616
 51
298.8227361038325
  0
ARC
  5
C758
330
1F
100
AcDbEntity
  8
freecads.com
100
AcDbCircle
 10
10541.26202573484
 20
30251.21403758554
 30
0.0
 40
2.074470693995314
100
AcDbArc
 50
298.8226983267087
 51
328.895348153726
  0
ARC
  5
C759
330
1F
100
AcDbEntity
  8
freecads.com
100
AcDbCircle
 10
10539.23233786186
 20
30252.43865250615
 30
0.0
 40
4.444980041266025
100
AcDbArc
 50
328.8953023618403
 51
347.364731519277
  0
ARC
  5
C75A
330
1F
100
AcDbEntity
  8
freecads.com
100
AcDbCircle
 10
10512.46653169722
 20
30258.4387793365
 30
0.0
 40
31.87507121178868
100
AcDbArc
 50
347.3648034014673
 51
351.6825607953713
  0
ARC
  5
C75B
330
1F
100
AcDbEntity
  8
freecads.com
100
AcDbCircle
 10
10510.29857511624
 20
30258.75569600033
 30
0.0
 40
34.06606913696812
100
AcDbArc
 50
351.6826072857921
 51
355.8761902582138
  0
ARC
  5
C75C
330
1F
100
AcDbEntity
  8
freecads.com
100
AcDbCircle
 10
10539.030709443
 20
30256.68414735877
 30
0.0
 40
5.259353656973398
100
AcDbArc
 50
355.876212617597
 51
12.54891584005196
  0
ARC
  5
C75D
330
1F
100
AcDbEntity
  8
freecads.com
100
AcDbCircle
 10
10541.13196198122
 20
30257.15186323312
 30
0.0
 40
3.10667616870052
100
AcDbArc
 50
12.54897079087081
 51
35.94351782671118
  0
ARC
  5
C75E
330
1F
100
AcDbEntity
  8
freecads.com
100
AcDbCircle
 10
10538.22214894334
 20
30255.04214330736
 30
0.0
 40
6.700828374793367
100
AcDbArc
 50
35.94349385947035
 51
49.11136872878874
  0
ARC
  5
C75F
330
1F
100
AcDbEntity
  8
freecads.com
100
AcDbCircle
 10
10545.46067730635
 20
30263.40188283274
 30
0.0
 40
4.357269915338203
100
AcDbArc
 50
203.7076366187842
 51
229.1113913101408
  0
ARC
  5
C760
330
1F
100
AcDbEntity
  8
freecads.com
100
AcDbCircle
 10
10551.71619336034
 20
30266.14887471004
 30
0.0
 40
11.18935930846409
100
AcDbArc
 50
191.1445829977478
 51
203.7077202240041
  0
ARC
  5
C761
330
1F
100
AcDbEntity
  8
freecads.com
100
AcDbCircle
 10
10577.55946584476
 20
30271.23998108517
 30
0.0
 40
37.52933077440081
100
AcDbArc
 50
185.1186424763316
 51
191.1445403086302
  0
ARC
  5
C762
330
1F
100
AcDbEntity
  8
freecads.com
100
AcDbCircle
 10
11005.51373986262
 20
30309.57447306937
 30
0.0
 40
467.1971023442964
100
AcDbArc
 50
184.1673372501111
 51
185.1186709091155
  0
ARC
  5
C763
330
1F
100
AcDbEntity
  8
freecads.com
100
AcDbCircle
 10
10743.10649181385
 20
30290.4551719547
 30
0.0
 40
204.0942488754474
100
AcDbArc
 50
182.5908929341749
 51
184.1674187362205
  0
ARC
  5
C764
330
1F
100
AcDbEntity
  8
freecads.com
100
AcDbCircle
 10
10725.23199878295
 20
30289.64654573156
 30
0.0
 40
186.2014744277727
100
AcDbArc
 50
180.9021354445327
 51
182.590955272935
  0
ARC
  5
C765
330
1F
100
AcDbEntity
  8
freecads.com
100
AcDbCircle
 10
10706.52637549467
 20
30289.35195359546
 30
0.0
 40
167.4935315390451
100
AcDbArc
 50
179.2896147963682
 51
180.9021206060846
  0
ARC
  5
C766
330
1F
100
AcDbEntity
  8
freecads.com
100
AcDbCircle
 10
10558.65244980526
 20
30291.18545821599
 30
0.0
 40
19.60823937654722
100
AcDbArc
 50
171.4715071752416
 51
179.2895762714571
  0
ARC
  5
C767
330
1F
100
AcDbEntity
  8
freecads.com
100
AcDbCircle
 10
10588.50337903734
 20
30286.7089838835
 30
0.0
 40
49.79295071303789
100
AcDbArc
 50
168.2436243981537
 51
171.4714551736987
  0
ARC
  5
C768
330
1F
100
AcDbEntity
  8
freecads.com
100
AcDbCircle
 10
10542.91216211434
 20
30296.19726036481
 30
0.0
 40
3.224866673582131
100
AcDbArc
 50
144.4521891106974
 51
168.2435711852397
  0
ARC
  5
C769
330
1F
100
AcDbEntity
  8
freecads.com
100
AcDbCircle
 10
10541.50951940132
 20
30297.19952043445
 30
0.0
 40
1.500937490706837
100
AcDbArc
 50
104.1758888980834
 51
144.4521189294781
  0
ARC
  5
C76A
330
1F
100
AcDbEntity
  8
freecads.com
100
AcDbCircle
 10
10542.71210887464
 20
30292.43849761467
 30
0.0
 40
6.411493440066745
100
AcDbArc
 50
90.46806050851952
 51
104.1758635324756
  0
ARC
  5
C76B
330
1F
100
AcDbEntity
  8
freecads.com
100
AcDbCircle
 10
10542.6041498864
 20
30305.65396246291
 30
0.0
 40
6.804412366876142
100
AcDbArc
 50
270.4680339948992
 51
281.7569353433853
  0
ARC
  5
C76C
330
1F
100
AcDbEntity
  8
freecads.com
100
AcDbCircle
 10
10538.55003358901
 20
30325.1330002317
 30
0.0
 40
26.70086359192462
100
AcDbArc
 50
281.7569578459868
 51
285.8424016754597
  0
ARC
  5
C76D
330
1F
100
AcDbEntity
  8
freecads.com
100
AcDbCircle
 10
10537.62385928033
 20
30328.39674802232
 30
0.0
 40
30.09348035345143
100
AcDbArc
 50
285.8424337153754
 51
289.8481466697524
  0
ARC
  5
C76E
330
1F
100
AcDbEntity
  8
freecads.com
100
AcDbCircle
 10
10539.24193684399
 20
30323.91420519364
 30
0.0
 40
25.32783609344705
100
AcDbArc
 50
289.8481327091087
 51
294.4066712210081
  0
ARC
  5
C76F
330
1F
100
AcDbEntity
  8
freecads.com
100
AcDbCircle
 10
10563.52707848311
 20
30270.39454265163
 30
0.0
 40
33.44394610722864
100
AcDbArc
 50
111.0487408776592
 51
114.4067207892
  0
ARC
  5
C770
330
1F
100
AcDbEntity
  8
freecads.com
100
AcDbCircle
 10
10562.93833474537
 20
30271.9244568702
 30
0.0
 40
31.80466068237384
100
AcDbArc
 50
107.5618084907967
 51
111.0487897220533
  0
ARC
  5
C771
330
1F
100
AcDbEntity
  8
freecads.com
100
AcDbCircle
 10
10561.7170473052
 20
30275.78338112476
 30
0.0
 40
27.75708864299758
100
AcDbArc
 50
104.1076027033263
 51
107.5618182636986
  0
ARC
  5
C772
330
1F
100
AcDbEntity
  8
freecads.com
100
AcDbCircle
 10
10555.95765891429
 20
30298.69958464296
 30
0.0
 40
4.128230474976914
100
AcDbArc
 50
89.99993351790099
 51
104.1075600940839
  0
ARC
  5
C773
330
1F
100
AcDbEntity
  8
freecads.com
100
AcDbCircle
 10
10555.95766805271
 20
30306.20286464964
 30
0.0
 40
3.375049531720678
100
AcDbArc
 50
269.9999261819301
 51
282.375689034506
  0
ARC
  5
C774
330
1F
100
AcDbEntity
  8
freecads.com
100
AcDbCircle
 10
10556.20289150375
 20
30305.08527556807
 30
0.0
 40
2.230873017283595
100
AcDbArc
 50
282.3756230042094
 51
299.2528040685956
  0
ARC
  5
C775
330
1F
100
AcDbEntity
  8
freecads.com
100
AcDbCircle
 10
10556.58667235389
 20
30304.40006079675
 30
0.0
 40
1.44550238900602
100
AcDbArc
 50
299.2528702288203
 51
320.6093757863812
  0
ARC
  5
C776
330
1F
100
AcDbEntity
  8
freecads.com
100
AcDbCircle
 10
10557.21169678265
 20
30303.8868318134
 30
0.0
 40
0.6367629217548279
100
AcDbArc
 50
320.609333557259
 51
0.0000274010064002
  0
ARC
  5
C777
330
1F
100
AcDbEntity
  8
freecads.com
100
AcDbCircle
 10
10558.83723981722
 20
30303.88683284655
 30
0.0
 40
0.9887801128200363
100
AcDbArc
 50
158.5422102103218
 51
180.0000422207326
  0
ARC
  5
C778
330
1F
100
AcDbEntity
  8
freecads.com
100
AcDbCircle
 10
10558.32937510262
 20
30304.08645397887
 30
0.0
 40
0.4430923222237776
100
AcDbArc
 50
119.4639483523156
 51
158.5422075720015
  0
ARC
  5
C779
330
1F
100
AcDbEntity
  8
freecads.com
100
AcDbCircle
 10
10558.32686232848
 20
30304.09089892325
 30
0.0
 40
0.4379862902653304
100
AcDbArc
 50
80.09909871452979
 51
119.4637619702554
  0
ARC
  5
C77A
330
1F
100
AcDbEntity
  8
freecads.com
100
AcDbCircle
 10
10558.23620328495
 20
30303.57146552238
 30
0.0
 40
0.9652719055690106
100
AcDbArc
 50
58.2826688410781
 51
80.0993920809981
  0
ARC
  5
C77B
330
1F
100
AcDbEntity
  8
freecads.com
100
AcDbCircle
 10
10559.08852804489
 20
30304.95055859464
 30
0.0
 40
0.655948375080213
100
AcDbArc
 50
238.2824360717921
 51
312.2388785681865
  0
ARC
  5
C77C
330
1F
100
AcDbEntity
  8
freecads.com
100
AcDbCircle
 10
10557.73185841988
 20
30306.444722702
 30
0.0
 40
2.674135395937503
100
AcDbArc
 50
312.2388108666498
 51
338.4868345779779
  0
ARC
  5
C77D
330
1F
100
AcDbEntity
  8
freecads.com
100
AcDbCircle
 10
10553.03892613221
 20
30308.29457224868
 30
0.0
 40
7.718494304860841
100
AcDbArc
 50
338.4867753157327
 51
352.7535311710934
  0
ARC
  5
C77E
330
1F
100
AcDbEntity
  8
freecads.com
100
AcDbCircle
 10
10541.73190884464
 20
30309.73229728759
 30
0.0
 40
19.11655085977261
100
AcDbArc
 50
352.7535344745833
 51
359.9999515364644
  0
ARC
  5
C77F
330
1F
100
AcDbEntity
  8
freecads.com
100
AcDbCircle
 10
10568.3534768055
 20
30309.7322786994
 30
0.0
 40
7.505017101104548
100
AcDbArc
 50
149.5582098897061
 51
179.9999815361027
  0
ARC
  5
C780
330
1F
100
AcDbEntity
  8
freecads.com
100
AcDbCircle
 10
10788.87983576366
 20
30180.13400631847
 30
0.0
 40
263.2931857083784
100
AcDbArc
 50
147.2229294459866
 51
149.5582245917891
  0
ARC
  5
C781
330
1F
100
AcDbEntity
  8
freecads.com
100
AcDbCircle
 10
10875.18230142592
 20
30124.56471660493
 30
0.0
 40
365.9385048352272
100
AcDbArc
 50
145.5292950033495
 51
147.222927415289
  0
ARC
  5
C782
330
1F
100
AcDbEntity
  8
freecads.com
100
AcDbCircle
 10
10574.19203681835
 20
30331.20308598195
 30
0.0
 40
0.8432363266777255
100
AcDbArc
 50
28.54775680275703
 51
145.5292785951566
  0
ARC
  5
C783
330
1F
100
AcDbEntity
  8
freecads.com
100
AcDbCircle
 10
10573.36409531172
 20
30330.75265477571
 30
0.0
 40
1.785773015593653
100
AcDbArc
 50
358.8759839158167
 51
28.54780468377822
  0
ARC
  5
C784
330
1F
100
AcDbEntity
  8
freecads.com
100
AcDbCircle
 10
10510.51811127188
 20
30331.98565447964
 30
0.0
 40
64.64385124111757
100
AcDbArc
 50
356.6484449080107
 51
358.8760346642492
  0
ARC
  5
C785
330
1F
100
AcDbEntity
  8
freecads.com
100
AcDbCircle
 10
10516.41461121099
 20
30331.64029635724
 30
0.0
 40
58.73724614491266
100
AcDbArc
 50
353.6823367210613
 51
356.6484881943301
  0
ARC
  5
C786
330
1F
100
AcDbEntity
  8
freecads.com
100
AcDbCircle
 10
10486.05345842894
 20
30335.00162624721
 30
0.0
 40
89.28390122992956
100
AcDbArc
 50
351.5150464305561
 51
353.6823665680378
  0
ARC
  5
C787
330
1F
100
AcDbEntity
  8
freecads.com
100
AcDbCircle
 10
10743.67140936813
 20
30296.56973930509
 30
0.0
 40
171.1849425500239
100
AcDbArc
 50
171.5151167586831
 51
172.837947025607
  0
ARC
  5
C788
330
1F
100
AcDbEntity
  8
freecads.com
100
AcDbCircle
 10
10945.16344145228
 20
30271.25156069156
 30
0.0
 40
374.2614039174861
100
AcDbArc
 50
172.8380408800911
 51
173.5750912466372
  0
ARC
  5
C789
330
1F
100
AcDbEntity
  8
freecads.com
100
AcDbCircle
 10
10950.51914939137
 20
30270.64863335229
 30
0.0
 40
379.6509427546633
100
AcDbArc
 50
173.5751166376606
 51
174.3103335583558
  0
ARC
  5
C78A
330
1F
100
AcDbEntity
  8
freecads.com
100
AcDbCircle
 10
10771.22607150854
 20
30288.51156983976
 30
0.0
 40
199.4702215979564
100
AcDbArc
 50
174.3102667021701
 51
175.5004039359761
  0
ARC
  5
C78B
330
1F
100
AcDbEntity
  8
freecads.com
100
AcDbCircle
 10
11009.22936864686
 20
30269.78154894961
 30
0.0
 40
438.2093745058227
100
AcDbArc
 50
175.5003461280761
 51
176.2930873716999
  0
ARC
  5
C78C
330
1F
100
AcDbEntity
  8
freecads.com
100
AcDbCircle
 10
10580.44466107759
 20
30297.56174875091
 30
0.0
 40
8.525694403522141
100
AcDbArc
 50
176.2930054356053
 51
189.7253815348692
  0
ARC
  5
C78D
330
1F
100
AcDbEntity
  8
freecads.com
100
AcDbCircle
 10
10573.4561909547
 20
30296.36400204541
 30
0.0
 40
1.435326865166004
100
AcDbArc
 50
189.7254168156661
 51
236.4744207330389
  0
ARC
  5
C78E
330
1F
100
AcDbEntity
  8
freecads.com
100
AcDbCircle
 10
10574.45296220695
 20
30297.86849742694
 30
0.0
 40
3.24005933353414
100
AcDbArc
 50
236.4744019766463
 51
261.9428989553937
  0
ARC
  5
C78F
330
1F
100
AcDbEntity
  8
freecads.com
100
AcDbCircle
 10
10573.64928334622
 20
30292.19108360611
 30
0.0
 40
2.493955612752588
100
AcDbArc
 50
36.28529001780119
 51
81.94290582472786
  0
ARC
  5
C790
330
1F
100
AcDbEntity
  8
freecads.com
100
AcDbCircle
 10
10570.5286959715
 20
30289.9000241404
 30
0.0
 40
6.365262761328381
100
AcDbArc
 50
13.57925296740239
 51
36.28524211710575
  0
ARC
  5
C791
330
1F
100
AcDbEntity
  8
freecads.com
100
AcDbCircle
 10
10539.22399792225
 20
30282.33866308084
 30
0.0
 40
38.57020494459948
100
AcDbArc
 50
6.474496984851632
 51
13.57918872114673
  0
ARC
  5
C792
330
1F
100
AcDbEntity
  8
freecads.com
100
AcDbCircle
 10
9434.198925962897
 20
30156.93564193908
 30
0.0
 40
1150.688151643709
100
AcDbArc
 50
5.865077583050831
 51
6.474474057709686
  0
ARC
  5
C793
330
1F
100
AcDbEntity
  8
freecads.com
100
AcDbCircle
 10
10672.86050083113
 20
30284.17591583676
 30
0.0
 40
94.49158813550978
100
AcDbArc
 50
185.8651044416007
 51
188.9458275298406
  0
ARC
  5
C794
330
1F
100
AcDbEntity
  8
freecads.com
100
AcDbCircle
 10
10693.48403392471
 20
30287.42250222957
 30
0.0
 40
115.3690985343938
100
AcDbArc
 50
188.9458889094185
 51
191.5983358834882
  0
ARC
  5
C795
330
1F
100
AcDbEntity
  8
freecads.com
100
AcDbCircle
 10
10687.53472278614
 20
30286.20148060572
 30
0.0
 40
109.2957800980587
100
AcDbArc
 50
191.5983443544815
 51
194.3108290796678
  0
ARC
  5
C796
330
1F
100
AcDbEntity
  8
freecads.com
100
AcDbCircle
 10
10646.22019758993
 20
30275.66224827308
 30
0.0
 40
66.65817450922316
100
AcDbArc
 50
194.3108494049148
 51
198.2393507886536
  0
ARC
  5
C797
330
1F
100
AcDbEntity
  8
freecads.com
100
AcDbCircle
 10
10499.95337223535
 20
30227.4608520986
 30
0.0
 40
87.34623709147218
100
AcDbArc
 50
15.22574804029359
 51
18.23933234526164
  0
ARC
  5
C798
330
1F
100
AcDbEntity
  8
freecads.com
100
AcDbCircle
 10
10533.87324273137
 20
30236.69310232866
 30
0.0
 40
52.19240289415488
100
AcDbArc
 50
10.79384079625024
 51
15.22568979795305
  0
ARC
  5
C799
330
1F
100
AcDbEntity
  8
freecads.com
100
AcDbCircle
 10
10543.45964631459
 20
30238.52073773688
 30
0.0
 40
42.43333609216838
100
AcDbArc
 50
5.850899487981816
 51
10.79384195906951
  0
ARC
  5
C79A
330
1F
100
AcDbEntity
  8
freecads.com
100
AcDbCircle
 10
10551.96159786212
 20
30239.3919678944
 30
0.0
 40
33.88686184228764
100
AcDbArc
 50
359.9999767067371
 51
5.850896176739359
  0
ARC
  5
C79B
330
1F
100
AcDbEntity
  8
freecads.com
100
AcDbCircle
 10
10668.39518344515
 20
30239.39189850405
 30
0.0
 40
82.54672374076776
100
AcDbArc
 50
179.9999613984255
 51
182.4363153451292
  0
ARC
  5
C79C
330
1F
100
AcDbEntity
  8
freecads.com
100
AcDbCircle
 10
10595.39788346691
 20
30236.28604796954
 30
0.0
 40
9.483380594870419
100
AcDbArc
 50
182.436270981752
 51
194.4082089370633
  0
ARC
  5
C79D
330
1F
100
AcDbEntity
  8
freecads.com
100
AcDbCircle
 10
10589.56986158402
 20
30234.78877756092
 30
0.0
 40
3.466100665869663
100
AcDbArc
 50
194.4082306349322
 51
216.8563861959142
  0
ARC
  5
C79E
330
1F
100
AcDbEntity
  8
freecads.com
100
AcDbCircle
 10
10589.20026564033
 20
30234.51171532903
 30
0.0
 40
3.004186559213714
100
AcDbArc
 50
216.8563643100223
 51
241.8450835546887
  0
ARC
  5
C79F
330
1F
100
AcDbEntity
  8
freecads.com
100
AcDbCircle
 10
10591.06110187862
 20
30237.98870064989
 30
0.0
 40
6.947806524050134
100
AcDbArc
 50
241.8449813769485
 51
267.6292080964233
  0
ARC
  5
C7A0
330
1F
100
AcDbEntity
  8
freecads.com
100
AcDbCircle
 10
10590.85615367263
 20
30233.03846012613
 30
0.0
 40
1.993325218188551
100
AcDbArc
 50
267.629195342373
 51
332.6265718563342
  0
ARC
  5
C7A1
330
1F
100
AcDbEntity
  8
freecads.com
100
AcDbCircle
 10
10587.90465267437
 20
30234.56664044934
 30
0.0
 40
5.316981825449939
100
AcDbArc
 50
332.6265365307693
 51
6.698269194268151
  0
ARC
  5
C7A2
330
1F
100
AcDbEntity
  8
freecads.com
100
AcDbCircle
 10
10555.11499512542
 20
30230.71573761059
 30
0.0
 40
38.33199499902005
100
AcDbArc
 50
6.698280381148756
 51
14.63515504165856
  0
ARC
  5
C7A3
330
1F
100
AcDbEntity
  8
freecads.com
100
AcDbCircle
 10
10649.72875732286
 20
30255.42284247274
 30
0.0
 40
59.45453284519459
100
AcDbArc
 50
191.74124481344
 51
194.6352154044467
  0
ARC
  5
C7A4
330
1F
100
AcDbEntity
  8
freecads.com
100
AcDbCircle
 10
10605.40545921723
 20
30246.21066284066
 30
0.0
 40
14.18402358658781
100
AcDbArc
 50
183.3496161944178
 51
191.7412999075749
  0
ARC
  5
C7A5
330
1F
100
AcDbEntity
  8
freecads.com
100
AcDbCircle
 10
10598.19612890445
 20
30245.7887198254
 30
0.0
 40
6.962356226014788
100
AcDbArc
 50
170.8411595187858
 51
183.3496856949783
  0
ARC
  5
C7A6
330
1F
100
AcDbEntity
  8
freecads.com
100
AcDbCircle
 10
10594.39654817659
 20
30246.40131401995
 30
0.0
 40
3.113709015012669
100
AcDbArc
 50
148.0148467235928
 51
170.8411082680286
  0
ARC
  5
C7A7
330
1F
100
AcDbEntity
  8
freecads.com
100
AcDbCircle
 10
10589.04801673915
 20
30249.74152361177
 30
0.0
 40
3.192144508060524
100
AcDbArc
 50
328.0148011268238
 51
348.9197802138951
  0
ARC
  5
C7A8
330
1F
100
AcDbEntity
  8
freecads.com
100
AcDbCircle
 10
10559.50144357604
 20
30255.52768638426
 30
0.0
 40
33.29994524661571
100
AcDbArc
 50
348.9198682681926
 51
352.6600338659322
  0
ARC
  5
C7A9
330
1F
100
AcDbEntity
  8
freecads.com
100
AcDbCircle
 10
10555.16304484436
 20
30256.08650674837
 30
0.0
 40
37.67418618124177
100
AcDbArc
 50
352.6600602275069
 51
356.591310999985
  0
ARC
  5
C7AA
330
1F
100
AcDbEntity
  8
freecads.com
100
AcDbCircle
 10
10546.71387465242
 20
30256.58975159422
 30
0.0
 40
46.13833010175109
100
AcDbArc
 50
356.5913286302519
 51
359.9683266338304
  0
ARC
  5
C7AB
330
1F
100
AcDbEntity
  8
freecads.com
100
AcDbCircle
 10
10647.7722817659
 20
30256.53390901944
 30
0.0
 40
54.92009244040048
100
AcDbArc
 50
176.3718460040614
 51
179.9683506032791
  0
ARC
  5
C7AC
330
1F
100
AcDbEntity
  8
freecads.com
100
AcDbCircle
 10
10611.68330255226
 20
30258.82223442906
 30
0.0
 40
18.75863707888834
100
AcDbArc
 50
168.3585020394536
 51
176.3718312074164
  0
ARC
  5
C7AD
330
1F
100
AcDbEntity
  8
freecads.com
100
AcDbCircle
 10
10605.98533471498
 20
30259.99613487934
 30
0.0
 40
12.9410018427288
100
AcDbArc
 50
158.4233420462373
 51
168.3583901381066
  0
ARC
  5
C7AE
330
1F
100
AcDbEntity
  8
freecads.com
100
AcDbCircle
 10
10606.22247969625
 20
30259.9023456865
 30
0.0
 40
13.19601979263416
100
AcDbArc
 50
148.6326061476796
 51
158.4233073582202
  0
ARC
  5
C7AF
330
1F
100
AcDbEntity
  8
freecads.com
100
AcDbCircle
 10
10586.05141438185
 20
30272.19908415137
 30
0.0
 40
10.42773208532532
100
AcDbArc
 50
328.6325208680721
 51
340.3310861737464
  0
ARC
  5
C7B0
330
1F
100
AcDbEntity
  8
freecads.com
100
AcDbCircle
 10
10551.68535110149
 20
30284.48287250851
 30
0.0
 40
46.92318059322979
100
AcDbArc
 50
340.3310998971552
 51
344.1619972496399
  0
ARC
  5
C7B1
330
1F
100
AcDbEntity
  8
freecads.com
100
AcDbCircle
 10
10543.03644961516
 20
30286.93648554002
 30
0.0
 40
55.91338158253697
100
AcDbArc
 50
344.1619740739341
 51
347.847608404645
  0
ARC
  5
C7B2
330
1F
100
AcDbEntity
  8
freecads.com
100
AcDbCircle
 10
10538.6954517902
 20
30287.87133478676
 30
0.0
 40
60.35390015883464
100
AcDbArc
 50
347.8475459754621
 51
351.3278824318367
  0
ARC
  5
C7B3
330
1F
100
AcDbEntity
  8
freecads.com
100
AcDbCircle
 10
10754.18781999987
 20
30255.00359446881
 30
0.0
 40
157.6306155991025
100
AcDbArc
 50
168.9794932119725
 51
171.3278504317727
  0
ARC
  5
C7B4
330
1F
100
AcDbEntity
  8
freecads.com
100
AcDbCircle
 10
10634.9945908725
 20
30278.21667729343
 30
0.0
 40
36.19802901694798
100
AcDbArc
 50
161.9775926237479
 51
168.97947857569
  0
ARC
  5
C7B5
330
1F
100
AcDbEntity
  8
freecads.com
100
AcDbCircle
 10
10616.38401621574
 20
30284.27166234142
 30
0.0
 40
16.62722594231592
100
AcDbArc
 50
151.9292983335084
 51
161.9775765784546
  0
ARC
  5
C7B6
330
1F
100
AcDbEntity
  8
freecads.com
100
AcDbCircle
 10
10602.93270306765
 20
30291.44515717793
 30
0.0
 40
1.382657939998947
100
AcDbArc
 50
90.00005649173841
 51
151.9292798372292
  0
ARC
  5
C7B7
330
1F
100
AcDbEntity
  8
freecads.com
100
AcDbCircle
 10
10602.93270169661
 20
30293.56982174238
 30
0.0
 40
0.7420066244512783
100
AcDbArc
 50
270.0000006016645
 51
359.9261319818367
  0
ARC
  5
C7B8
330
1F
100
AcDbEntity
  8
freecads.com
100
AcDbCircle
 10
10022.98486802763
 20
30294.31715647445
 30
0.0
 40
580.6903218099876
100
AcDbArc
 50
359.926167275693
 51
0.7796412618517813
  0
ARC
  5
C7B9
330
1F
100
AcDbEntity
  8
freecads.com
100
AcDbCircle
 10
10247.16555970166
 20
30297.3675754038
 30
0.0
 40
356.4888776242384
100
AcDbArc
 50
0.7796838262832858
 51
2.631901458913662
  0
ARC
  5
C7BA
330
1F
100
AcDbEntity
  8
freecads.com
100
AcDbCircle
 10
9125.782437259015
 20
30245.81999602254
 30
0.0
 40
1479.056140748935
100
AcDbArc
 50
2.63190906460457
 51
3.275453568780235
  0
ARC
  5
C7BB
330
1F
100
AcDbEntity
  8
freecads.com
100
AcDbCircle
 10
11510.76142976946
 20
30382.31124159182
 30
0.0
 40
909.8253244631564
100
AcDbArc
 50
182.9744958874489
 51
183.2754131483925
  0
ARC
  5
C7BC
330
1F
100
AcDbEntity
  8
freecads.com
100
AcDbCircle
 10
10607.46645425654
 20
30335.37473663522
 30
0.0
 40
5.311726840416875
100
AcDbArc
 50
171.4265677822115
 51
182.9744895558632
  0
ARC
  5
C7BD
330
1F
100
AcDbEntity
  8
freecads.com
100
AcDbCircle
 10
10602.30708407749
 20
30336.15257104913
 30
0.0
 40
0.0940523565197871
100
AcDbArc
 50
14.09780340702007
 51
171.4265430418955
  0
ARC
  5
C7BE
330
1F
100
AcDbEntity
  8
freecads.com
100
AcDbCircle
 10
10525.5948136376
 20
30316.88692426861
 30
0.0
 40
79.1885375113906
100
AcDbArc
 50
12.35282478895448
 51
14.09779132996354
  0
ARC
  5
C7BF
330
1F
100
AcDbEntity
  8
freecads.com
100
AcDbCircle
 10
10672.55352256728
 20
30349.07105412788
 30
0.0
 40
71.2530802181374
100
AcDbArc
 50
192.3528159477138
 51
194.1628665787161
  0
ARC
  5
C7C0
330
1F
100
AcDbEntity
  8
freecads.com
100
AcDbCircle
 10
10829.79216980891
 20
30388.75026400144
 30
0.0
 40
233.420992835157
100
AcDbArc
 50
194.1628972803834
 51
194.9107191405643
  0
ARC
  5
C7C1
330
1F
100
AcDbEntity
  8
freecads.com
100
AcDbCircle
 10
10848.86242891212
 20
30393.8283954517
 30
0.0
 40
253.1557895475605
100
AcDbArc
 50
194.9107426108951
 51
195.6503139656663
  0
ARC
  5
C7C2
330
1F
100
AcDbEntity
  8
freecads.com
100
AcDbCircle
 10
10779.42830317139
 20
30374.37633166522
 30
0.0
 40
181.0483654989113
100
AcDbArc
 50
195.650324621841
 51
196.601199922437
  0
ARC
  5
C7C3
330
1F
100
AcDbEntity
  8
freecads.com
100
AcDbCircle
 10
10519.3984648973
 20
30296.85214639274
 30
0.0
 40
90.29185653794547
100
AcDbArc
 50
13.25650615447253
 51
16.60119628745212
  0
ARC
  5
C7C4
330
1F
100
AcDbEntity
  8
freecads.com
100
AcDbCircle
 10
10583.15610749327
 20
30311.87268494448
 30
0.0
 40
24.78877594034744
100
AcDbArc
 50
4.505129086233476
 51
13.25658486792212
  0
ARC
  5
C7C5
330
1F
100
AcDbEntity
  8
freecads.com
100
AcDbCircle
 10
10576.36870012865
 20
30311.33784621576
 30
0.0
 40
31.59722298775127
100
AcDbArc
 50
357.0474782588385
 51
4.505213708075956
  0
ARC
  5
C7C6
330
1F
100
AcDbEntity
  8
freecads.com
100
AcDbCircle
 10
10407.0944767103
 20
30320.06841728576
 30
0.0
 40
201.0964430009845
100
AcDbArc
 50
355.14784181304
 51
357.0474971724386
  0
LINE
  5
C7C7
330
1F
100
AcDbEntity
  8
freecads.com
100
AcDbLine
 10
10607.4702447044
 20
30303.05868511792
 30
0.0
 11
10606.8531717044
 21
30295.78955511793
 31
0.0
  0
LINE
  5
C7C8
330
1F
100
AcDbEntity
  8
freecads.com
100
AcDbLine
 10
10606.8531717044
 20
30295.78955511793
 30
0.0
 11
10609.4137887044
 21
30296.25388311793
 31
0.0
  0
ARC
  5
C7C9
330
1F
100
AcDbEntity
  8
freecads.com
100
AcDbCircle
 10
10608.5576919654
 20
30300.97495374651
 30
0.0
 40
4.798063099480967
100
AcDbArc
 50
280.2780622190344
 51
294.2347659456936
  0
ARC
  5
C7CA
330
1F
100
AcDbEntity
  8
freecads.com
100
AcDbCircle
 10
10606.50024442688
 20
30305.54559691305
 30
0.0
 40
9.810434726712601
100
AcDbArc
 50
294.2346839867413
 51
302.4084702356562
  0
ARC
  5
C7CB
330
1F
100
AcDbEntity
  8
freecads.com
100
AcDbCircle
 10
10606.28499004582
 20
30305.88467315637
 30
0.0
 40
10.21206533728794
100
AcDbArc
 50
302.4084689667045
 51
310.4671206241069
  0
ARC
  5
C7CC
330
1F
100
AcDbEntity
  8
freecads.com
100
AcDbCircle
 10
10608.71384293049
 20
30303.03754259885
 30
0.0
 40
6.469675893770364
100
AcDbArc
 50
310.4671346008046
 51
321.8113631469495
  0
ARC
  5
C7CD
330
1F
100
AcDbEntity
  8
freecads.com
100
AcDbCircle
 10
10619.51285791649
 20
30294.54302693829
 30
0.0
 40
7.269884542260348
100
AcDbArc
 50
129.1769599382474
 51
141.811386426932
  0
ARC
  5
C7CE
330
1F
100
AcDbEntity
  8
freecads.com
100
AcDbCircle
 10
10647.76896713811
 20
30259.86898716655
 30
0.0
 40
51.99903323117002
100
AcDbArc
 50
126.2177947622404
 51
129.1768427459541
  0
ARC
  5
C7CF
330
1F
100
AcDbEntity
  8
freecads.com
100
AcDbCircle
 10
10651.98176324802
 20
30254.11655287065
 30
0.0
 40
59.1291209857067
100
AcDbArc
 50
123.2027624602508
 51
126.2177216259948
  0
ARC
  5
C7D0
330
1F
100
AcDbEntity
  8
freecads.com
100
AcDbCircle
 10
10653.9773639767
 20
30251.0672575368
 30
0.0
 40
62.77338007381095
100
AcDbArc
 50
120.3200107365392
 51
123.2027531383678
  0
ARC
  5
C7D1
330
1F
100
AcDbEntity
  8
freecads.com
100
AcDbCircle
 10
10601.04231508469
 20
30341.58207925252
 30
0.0
 40
42.08391510125545
100
AcDbArc
 50
300.3200597698528
 51
304.8401106203093
  0
ARC
  5
C7D2
330
1F
100
AcDbEntity
  8
freecads.com
100
AcDbCircle
 10
10591.68947833624
 20
30355.01899035502
 30
0.0
 40
58.45541885684316
100
AcDbArc
 50
304.8400968511558
 51
308.3733622132432
  0
ARC
  5
C7D3
330
1F
100
AcDbEntity
  8
freecads.com
100
AcDbCircle
 10
10594.64886698562
 20
30351.28162201329
 30
0.0
 40
53.68824953956234
100
AcDbArc
 50
308.3733496084873
 51
311.96618817988
  0
ARC
  5
C7D4
330
1F
100
AcDbEntity
  8
freecads.com
100
AcDbCircle
 10
10618.91004083803
 20
30324.30484050074
 30
0.0
 40
17.40669365407156
100
AcDbArc
 50
311.966233000965
 51
320.2851333054589
  0
LINE
  5
C7D5
330
1F
100
AcDbEntity
  8
freecads.com
100
AcDbLine
 10
10632.2998577044
 20
30313.18253011793
 30
0.0
 11
10635.6479957044
 21
30317.21324711793
 31
0.0
  0
LINE
  5
C7D6
330
1F
100
AcDbEntity
  8
freecads.com
100
AcDbLine
 10
10635.6479957044
 20
30317.21324711793
 30
0.0
 11
10636.3562357044
 21
30310.59980011792
 31
0.0
  0
ARC
  5
C7D7
330
1F
100
AcDbEntity
  8
freecads.com
100
AcDbCircle
 10
10565.05535130553
 20
30302.9640607273
 30
0.0
 40
71.7085813003062
100
AcDbArc
 50
4.02756038714836
 51
6.112610867393985
  0
ARC
  5
C7D8
330
1F
100
AcDbEntity
  8
freecads.com
100
AcDbCircle
 10
10590.29327630599
 20
30304.74109058779
 30
0.0
 40
46.40817234208522
100
AcDbArc
 50
1.138832436149591
 51
4.027532654188914
  0
ARC
  5
C7D9
330
1F
100
AcDbEntity
  8
freecads.com
100
AcDbCircle
 10
10583.9496498917
 20
30304.61498969438
 30
0.0
 40
52.75305197210084
100
AcDbArc
 50
359.0375069515027
 51
1.138828075749409
  0
ARC
  5
C7DA
330
1F
100
AcDbEntity
  8
freecads.com
100
AcDbCircle
 10
10635.42481893813
 20
30303.75019403595
 30
0.0
 40
1.270619046979867
100
AcDbArc
 50
328.282581069644
 51
359.0374975534551
  0
ARC
  5
C7DB
330
1F
100
AcDbEntity
  8
freecads.com
100
AcDbCircle
 10
10638.49287691315
 20
30301.85403093597
 30
0.0
 40
2.336098884850239
100
AcDbArc
 50
148.2825164429485
 51
193.2341526032124
  0
ARC
  5
C7DC
330
1F
100
AcDbEntity
  8
freecads.com
100
AcDbCircle
 10
10756.30114654221
 20
30329.5598030516
 30
0.0
 40
123.3584034469286
100
AcDbArc
 50
193.2341507139638
 51
195.8400796378858
  0
ARC
  5
C7DD
330
1F
100
AcDbEntity
  8
freecads.com
100
AcDbCircle
 10
10716.27520228586
 20
30318.20337368775
 30
0.0
 40
81.75257811551423
100
AcDbArc
 50
195.8400918936991
 51
200.017866505009
  0
ARC
  5
C7DE
330
1F
100
AcDbEntity
  8
freecads.com
100
AcDbCircle
 10
10679.09284324255
 20
30304.65700602436
 30
0.0
 40
42.17945717598583
100
AcDbArc
 50
200.0179128223455
 51
206.873026622087
  0
ARC
  5
C7DF
330
1F
100
AcDbEntity
  8
freecads.com
100
AcDbCircle
 10
10610.81274145432
 20
30270.05690968345
 30
0.0
 40
34.36686191914354
100
AcDbArc
 50
22.20159411165038
 51
26.87307408948748
  0
ARC
  5
C7E0
330
1F
100
AcDbEntity
  8
freecads.com
100
AcDbCircle
 10
10631.36771548813
 20
30278.44589873812
 30
0.0
 40
12.1659138562856
100
AcDbArc
 50
12.06436960269212
 51
22.2016272941022
  0
ARC
  5
C7E1
330
1F
100
AcDbEntity
  8
freecads.com
100
AcDbCircle
 10
10634.30504059258
 20
30279.0736931495
 30
0.0
 40
9.162248663191791
100
AcDbArc
 50
0.0782806719370743
 51
12.06438919615954
  0
ARC
  5
C7E2
330
1F
100
AcDbEntity
  8
freecads.com
100
AcDbCircle
 10
10631.27242804761
 20
30279.06955631296
 30
0.0
 40
12.19486402971936
100
AcDbArc
 50
350.4046792584468
 51
0.078250182017491
  0
ARC
  5
C7E3
330
1F
100
AcDbEntity
  8
freecads.com
100
AcDbCircle
 10
10181.6547594946
 20
30355.0790810951
 30
0.0
 40
468.1921181142643
100
AcDbArc
 50
349.4152828269067
 51
350.4046602013004
  0
ARC
  5
C7E4
330
1F
100
AcDbEntity
  8
freecads.com
100
AcDbCircle
 10
10443.7984851718
 20
30306.09256052216
 30
0.0
 40
201.5106374866042
100
AcDbArc
 50
347.557571917192
 51
349.4152895844782
  0
ARC
  5
C7E5
330
1F
100
AcDbEntity
  8
freecads.com
100
AcDbCircle
 10
10390.77527306084
 20
30317.79163840298
 30
0.0
 40
255.8091590670797
100
AcDbArc
 50
346.3935609440448
 51
347.5575719916873
  0
ARC
  5
C7E6
330
1F
100
AcDbEntity
  8
freecads.com
100
AcDbCircle
 10
10636.72966671641
 20
30258.25974979136
 30
0.0
 40
2.752624829872171
100
AcDbArc
 50
316.8675410004043
 51
346.3935398545112
  0
ARC
  5
C7E7
330
1F
100
AcDbEntity
  8
freecads.com
100
AcDbCircle
 10
10640.40496040098
 20
30254.81655841244
 30
0.0
 40
2.283579151276977
100
AcDbArc
 50
136.867451208091
 51
151.6265751650812
  0
ARC
  5
C7E8
330
1F
100
AcDbEntity
  8
freecads.com
100
AcDbCircle
 10
10642.71558852232
 20
30253.56859240299
 30
0.0
 40
4.909683009814993
100
AcDbArc
 50
151.62658803892
 51
159.953270297697
  0
ARC
  5
C7E9
330
1F
100
AcDbEntity
  8
freecads.com
100
AcDbCircle
 10
10642.9816282228
 20
30253.47150546001
 30
0.0
 40
5.19288434568775
100
AcDbArc
 50
159.9531602709046
 51
168.1155019131298
  0
ARC
  5
C7EA
330
1F
100
AcDbEntity
  8
freecads.com
100
AcDbCircle
 10
10641.28688001259
 20
30253.82816909908
 30
0.0
 40
3.461012396769197
100
AcDbArc
 50
168.1155511732906
 51
179.17810034159
  0
ARC
  5
C7EB
330
1F
100
AcDbEntity
  8
freecads.com
100
AcDbCircle
 10
10635.429808273
 20
30253.91219596244
 30
0.0
 40
2.396662045908501
100
AcDbArc
 50
340.5421799123952
 51
359.1780464586773
  0
ARC
  5
C7EC
330
1F
100
AcDbEntity
  8
freecads.com
100
AcDbCircle
 10
10627.54716349865
 20
30256.69706549923
 30
0.0
 40
10.75678088331321
100
AcDbArc
 50
334.4278410049152
 51
340.542141476439
  0
ARC
  5
C7ED
330
1F
100
AcDbEntity
  8
freecads.com
100
AcDbCircle
 10
10625.85012411579
 20
30257.50915483595
 30
0.0
 40
12.63811864075231
100
AcDbArc
 50
328.5207350760493
 51
334.4277674700983
  0
ARC
  5
C7EE
330
1F
100
AcDbEntity
  8
freecads.com
100
AcDbCircle
 10
10626.20612794124
 20
30257.29118890666
 30
0.0
 40
12.22068856294016
100
AcDbArc
 50
322.4629376803782
 51
328.5206698317296
  0
ARC
  5
C7EF
330
1F
100
AcDbEntity
  8
freecads.com
100
AcDbCircle
 10
10646.20235000877
 20
30241.92697195619
 30
0.0
 40
12.99652895754744
100
AcDbArc
 50
142.4628842387801
 51
149.0397796357013
  0
ARC
  5
C7F0
330
1F
100
AcDbEntity
  8
freecads.com
100
AcDbCircle
 10
10637.91075867211
 20
30246.90123182902
 30
0.0
 40
3.327312434130815
100
AcDbArc
 50
149.0397945419175
 51
167.1514654576147
  0
ARC
  5
C7F1
330
1F
100
AcDbEntity
  8
freecads.com
100
AcDbCircle
 10
10636.39250654026
 20
30247.24752430187
 30
0.0
 40
1.770068711197598
100
AcDbArc
 50
167.151506918014
 51
193.7163723471109
  0
ARC
  5
C7F2
330
1F
100
AcDbEntity
  8
freecads.com
100
AcDbCircle
 10
10636.44491043902
 20
30247.26031584136
 30
0.0
 40
1.824011199886538
100
AcDbArc
 50
193.7164022689896
 51
219.6902459965003
  0
ARC
  5
C7F3
330
1F
100
AcDbEntity
  8
freecads.com
100
AcDbCircle
 10
10637.6213547029
 20
30248.23667214391
 30
0.0
 40
3.35283190080119
100
AcDbArc
 50
219.6901372352641
 51
265.853122298565
  0
ARC
  5
C7F4
330
1F
100
AcDbEntity
  8
freecads.com
100
AcDbCircle
 10
10637.75263430814
 20
30250.04728747632
 30
0.0
 40
5.168200242673409
100
AcDbArc
 50
265.8530781408609
 51
299.2679807383363
  0
ARC
  5
C7F5
330
1F
100
AcDbEntity
  8
freecads.com
100
AcDbCircle
 10
10636.4937308041
 20
30252.29359470069
 30
0.0
 40
7.7432214423235
100
AcDbArc
 50
299.2678827302518
 51
325.5188469084538
  0
ARC
  5
C7F6
330
1F
100
AcDbEntity
  8
freecads.com
100
AcDbCircle
 10
10635.6248425198
 20
30252.89035810556
 30
0.0
 40
8.797305600191601
100
AcDbArc
 50
325.5187730653858
 51
349.3747690689173
  0
ARC
  5
C7F7
330
1F
100
AcDbEntity
  8
freecads.com
100
AcDbCircle
 10
10674.02793141999
 20
30245.68587518518
 30
0.0
 40
30.27572616375832
100
AcDbArc
 50
163.5230971054576
 51
169.3747036766429
  0
ARC
  5
C7F8
330
1F
100
AcDbEntity
  8
freecads.com
100
AcDbCircle
 10
10646.34099504326
 20
30253.87498028377
 30
0.0
 40
1.403111314304176
100
AcDbArc
 50
109.1119361853051
 51
163.5230948309562
  0
ARC
  5
C7F9
330
1F
100
AcDbEntity
  8
freecads.com
100
AcDbCircle
 10
10646.10428799759
 20
30254.55808653468
 30
0.0
 40
0.6801560075939465
100
AcDbArc
 50
19.95657527610555
 51
109.1118634942243
  0
ARC
  5
C7FA
330
1F
100
AcDbEntity
  8
freecads.com
100
AcDbCircle
 10
10632.16046484616
 20
30249.49492271497
 30
0.0
 40
15.51477201016096
100
AcDbArc
 50
10.62524548466162
 51
19.95654760175182
  0
ARC
  5
C7FB
330
1F
100
AcDbEntity
  8
freecads.com
100
AcDbCircle
 10
10662.33368625311
 20
30255.15546598411
 30
0.0
 40
15.1848214753329
100
AcDbArc
 50
190.6253076953517
 51
195.8662702001257
  0
ARC
  5
C7FC
330
1F
100
AcDbEntity
  8
freecads.com
100
AcDbCircle
 10
10656.22916643159
 20
30253.42044651458
 30
0.0
 40
8.838526902074015
100
AcDbArc
 50
195.8663580100816
 51
203.7263185685335
  0
ARC
  5
C7FD
330
1F
100
AcDbEntity
  8
freecads.com
100
AcDbCircle
 10
10653.92387228078
 20
30252.40723718676
 30
0.0
 40
6.320397782327569
100
AcDbArc
 50
203.7263790285126
 51
212.1887846202937
  0
ARC
  5
C7FE
330
1F
100
AcDbEntity
  8
freecads.com
100
AcDbCircle
 10
10648.95975117253
 20
30249.28251951213
 30
0.0
 40
0.4547043942055644
100
AcDbArc
 50
212.1887147945261
 51
269.9999410124953
  0
ARC
  5
C7FF
330
1F
100
AcDbEntity
  8
freecads.com
100
AcDbCircle
 10
10648.95975073385
 20
30248.3531455716
 30
0.0
 40
0.4746695463272781
100
AcDbArc
 50
44.31772510488536
 51
90.00000355474993
  0
ARC
  5
C800
330
1F
100
AcDbEntity
  8
freecads.com
100
AcDbCircle
 10
10648.21901080525
 20
30247.62984587012
 30
0.0
 40
1.509975346552075
100
AcDbArc
 50
25.0100105752389
 51
44.31757212223426
  0
ARC
  5
C801
330
1F
100
AcDbEntity
  8
freecads.com
100
AcDbCircle
 10
10647.30871142614
 20
30247.2051798646
 30
0.0
 40
2.514458385648949
100
AcDbArc
 50
10.2368155064104
 51
25.00986168050394
  0
ARC
  5
C802
330
1F
100
AcDbEntity
  8
freecads.com
100
AcDbCircle
 10
10645.74525711689
 20
30246.92283475334
 30
0.0
 40
4.103202587512435
100
AcDbArc
 50
0.0000330182783711
 51
10.2367885242477
  0
ARC
  5
C803
330
1F
100
AcDbEntity
  8
freecads.com
100
AcDbCircle
 10
10652.02467838266
 20
30246.92283659946
 30
0.0
 40
2.176218678266257
100
AcDbArc
 50
179.9999863498352
 51
228.8228324589751
  0
ARC
  5
C804
330
1F
100
AcDbEntity
  8
freecads.com
100
AcDbCircle
 10
10678.56909114376
 20
30277.26865032828
 30
0.0
 40
42.49338945816675
100
AcDbArc
 50
228.8228180270082
 51
234.4488207613377
  0
ARC
  5
C805
330
1F
100
AcDbEntity
  8
freecads.com
100
AcDbCircle
 10
10675.82458214059
 20
30273.42817821385
 30
0.0
 40
37.77305517676805
100
AcDbArc
 50
234.4487562064988
 51
240.8502380489937
  0
ARC
  5
C806
330
1F
100
AcDbEntity
  8
freecads.com
100
AcDbCircle
 10
10659.77653186218
 20
30244.6543609893
 30
0.0
 40
4.826545871373405
100
AcDbArc
 50
240.8502482050325
 51
269.9999743851231
  0
ARC
  5
C807
330
1F
100
AcDbEntity
  8
freecads.com
100
AcDbCircle
 10
10659.77653000139
 20
30240.73044662854
 30
0.0
 40
0.902631510613495
100
AcDbArc
 50
269.9999811484028
 51
335.970799695748
  0
ARC
  5
C808
330
1F
100
AcDbEntity
  8
freecads.com
100
AcDbCircle
 10
10658.58342307641
 20
30241.26238188834
 30
0.0
 40
2.208946654462441
100
AcDbArc
 50
335.9707742105559
 51
9.968307968133167
  0
ARC
  5
C809
330
1F
100
AcDbEntity
  8
freecads.com
100
AcDbCircle
 10
10654.1685335662
 20
30240.48643179434
 30
0.0
 40
6.691507076338013
100
AcDbArc
 50
9.968338710346362
 51
27.55539619495092
  0
ARC
  5
C80A
330
1F
100
AcDbEntity
  8
freecads.com
100
AcDbCircle
 10
10645.38179187747
 20
30235.9015412684
 30
0.0
 40
16.60251361650252
100
AcDbArc
 50
27.55539398750917
 51
36.47665096568858
  0
ARC
  5
C80B
330
1F
100
AcDbEntity
  8
freecads.com
100
AcDbCircle
 10
10667.22625950701
 20
30252.05183582596
 30
0.0
 40
10.56387702181776
100
AcDbArc
 50
207.4705445132618
 51
216.4766984267828
  0
ARC
  5
C80C
330
1F
100
AcDbEntity
  8
freecads.com
100
AcDbCircle
 10
10681.15439435794
 20
30259.29325122781
 30
0.0
 40
26.26199912122082
100
AcDbArc
 50
202.9087709696177
 51
207.4705167749137
  0
ARC
  5
C80D
330
1F
100
AcDbEntity
  8
freecads.com
100
AcDbCircle
 10
10682.4987931493
 20
30259.86136880696
 30
0.0
 40
27.72150783774146
100
AcDbArc
 50
198.4076945014098
 51
202.9087305202062
  0
ARC
  5
C80E
330
1F
100
AcDbEntity
  8
freecads.com
100
AcDbCircle
 10
10672.88368573066
 20
30256.66139613914
 30
0.0
 40
17.58789467429322
100
AcDbArc
 50
192.0782942244053
 51
198.4076390613731
  0
ARC
  5
C80F
330
1F
100
AcDbEntity
  8
freecads.com
100
AcDbCircle
 10
10710.80633948646
 20
30264.77631404534
 30
0.0
 40
56.36907001113335
100
AcDbArc
 50
184.9498211844966
 51
192.0783249899619
  0
ARC
  5
C810
330
1F
100
AcDbEntity
  8
freecads.com
100
AcDbCircle
 10
10946.4273141859
 20
30285.18300946024
 30
0.0
 40
292.8720867699658
100
AcDbArc
 50
182.8472124508633
 51
184.9499085583704
  0
ARC
  5
C811
330
1F
100
AcDbEntity
  8
freecads.com
100
AcDbCircle
 10
11073.77512346629
 20
30291.51678515835
 30
0.0
 40
420.3773072241501
100
AcDbArc
 50
181.384159598159
 51
182.8472447477842
  0
ARC
  5
C812
330
1F
100
AcDbEntity
  8
freecads.com
100
AcDbCircle
 10
10665.82217741276
 20
30281.65947977515
 30
0.0
 40
12.30528825792695
100
AcDbArc
 50
162.6558507622802
 51
181.3841487291758
  0
ARC
  5
C813
330
1F
100
AcDbEntity
  8
freecads.com
100
AcDbCircle
 10
10702.45576590258
 20
30270.21838908162
 30
0.0
 40
50.68390680913479
100
AcDbArc
 50
159.0281584252802
 51
162.6558241866888
  0
ARC
  5
C814
330
1F
100
AcDbEntity
  8
freecads.com
100
AcDbCircle
 10
10675.17386128628
 20
30280.67557698114
 30
0.0
 40
21.46653015999984
100
AcDbArc
 50
152.1348716950442
 51
159.028224652177
  0
ARC
  5
C815
330
1F
100
AcDbEntity
  8
freecads.com
100
AcDbCircle
 10
10666.79790348847
 20
30285.10390885306
 30
0.0
 40
11.99199628237679
100
AcDbArc
 50
143.598835453636
 51
152.1349365625997
  0
ARC
  5
C816
330
1F
100
AcDbEntity
  8
freecads.com
100
AcDbCircle
 10
10657.4643491192
 20
30291.98549182339
 30
0.0
 40
0.3958149565418719
100
AcDbArc
 50
44.99997024890137
 51
143.5988807033606
  0
ARC
  5
C817
330
1F
100
AcDbEntity
  8
freecads.com
100
AcDbCircle
 10
10657.88001925545
 20
30292.40116154761
 30
0.0
 40
0.1920310962606524
100
AcDbArc
 50
224.9999743943904
 51
328.2570196674742
  0
ARC
  5
C818
330
1F
100
AcDbEntity
  8
freecads.com
100
AcDbCircle
 10
10648.35706663412
 20
30298.2925246273
 30
0.0
 40
11.39001241276652
100
AcDbArc
 50
328.2570429337957
 51
333.9105309918211
  0
ARC
  5
C819
330
1F
100
AcDbEntity
  8
freecads.com
100
AcDbCircle
 10
10644.10697686202
 20
30300.37365297752
 30
0.0
 40
16.12228018636578
100
AcDbArc
 50
333.9105328606179
 51
339.4371289959493
  0
ARC
  5
C81A
330
1F
100
AcDbEntity
  8
freecads.com
100
AcDbCircle
 10
10625.06603259709
 20
30307.51655449922
 30
0.0
 40
36.45891217516952
100
AcDbArc
 50
339.4371879688461
 51
342.4402316667332
  0
ARC
  5
C81B
330
1F
100
AcDbEntity
  8
freecads.com
100
AcDbCircle
 10
10690.10507373261
 20
30286.93520331164
 30
0.0
 40
31.75889260140206
100
AcDbArc
 50
157.896575242412
 51
162.4402227250745
  0
ARC
  5
C81C
330
1F
100
AcDbEntity
  8
freecads.com
100
AcDbCircle
 10
10667.00810577484
 20
30296.31551716907
 30
0.0
 40
6.829788788669769
100
AcDbArc
 50
143.6857486840388
 51
157.8965711323841
  0
ARC
  5
C81D
330
1F
100
AcDbEntity
  8
freecads.com
100
AcDbCircle
 10
10664.22403673855
 20
30298.36168357119
 30
0.0
 40
3.374671230036513
100
AcDbArc
 50
121.9441751283347
 51
143.6857217542183
  0
ARC
  5
C81E
330
1F
100
AcDbEntity
  8
freecads.com
100
AcDbCircle
 10
10664.01574617564
 20
30298.69573257666
 30
0.0
 40
2.981004243069165
100
AcDbArc
 50
98.08377608687944
 51
121.9440795504775
  0
ARC
  5
C81F
330
1F
100
AcDbEntity
  8
freecads.com
100
AcDbCircle
 10
10662.33706194545
 20
30310.51478775125
 30
0.0
 40
8.956669146866234
100
AcDbArc
 50
278.083762955214
 51
285.6447490602523
  0
ARC
  5
C820
330
1F
100
AcDbEntity
  8
freecads.com
100
AcDbCircle
 10
10664.53857956008
 20
30302.65354877169
 30
0.0
 40
0.7929838209027547
100
AcDbArc
 50
285.6447207181349
 51
330.321795497492
  0
ARC
  5
C821
330
1F
100
AcDbEntity
  8
freecads.com
100
AcDbCircle
 10
10664.61947715344
 20
30302.60744603895
 30
0.0
 40
0.6998716166691562
100
AcDbArc
 50
330.3218194726858
 51
19.04547703616406
  0
ARC
  5
C822
330
1F
100
AcDbEntity
  8
freecads.com
100
AcDbCircle
 10
10658.7844503293
 20
30300.59311270174
 30
0.0
 40
6.872802592459166
100
AcDbArc
 50
19.04540259365414
 51
28.15498554799995
  0
ARC
  5
C823
330
1F
100
AcDbEntity
  8
freecads.com
100
AcDbCircle
 10
10667.93576420892
 20
30305.49074956375
 30
0.0
 40
3.506667170277427
100
AcDbArc
 50
188.3966783497198
 51
208.1549615914167
  0
ARC
  5
C824
330
1F
100
AcDbEntity
  8
freecads.com
100
AcDbCircle
 10
10673.89905776748
 20
30306.37098283674
 30
0.0
 40
9.534575653357778
100
AcDbArc
 50
179.0306217710512
 51
188.3967017898058
  0
ARC
  5
C825
330
1F
100
AcDbEntity
  8
freecads.com
100
AcDbCircle
 10
10679.7380806573
 20
30306.27217458753
 30
0.0
 40
15.37443450249621
100
AcDbArc
 50
171.6751894985239
 51
179.0305870523459
  0
ARC
  5
C826
330
1F
100
AcDbEntity
  8
freecads.com
100
AcDbCircle
 10
10701.61717602899
 20
30303.07068585357
 30
0.0
 40
37.48652043751004
100
AcDbArc
 50
167.8956188463325
 51
171.6751933317011
  0
ARC
  5
C827
330
1F
100
AcDbEntity
  8
freecads.com
100
AcDbCircle
 10
10678.31660409471
 20
30308.06776333774
 30
0.0
 40
13.65613152235761
100
AcDbArc
 50
153.2013312514882
 51
167.895635583112
  0
ARC
  5
C828
330
1F
100
AcDbEntity
  8
freecads.com
100
AcDbCircle
 10
10666.62358881264
 20
30313.97398968841
 30
0.0
 40
0.5561270913671088
100
AcDbArc
 50
18.60962239603596
 51
153.2013603577061
  0
ARC
  5
C829
330
1F
100
AcDbEntity
  8
freecads.com
100
AcDbCircle
 10
10652.30677804725
 20
30309.15318424373
 30
0.0
 40
15.66278905315161
100
AcDbArc
 50
3.274265710704082
 51
18.60958577025335
  0
ARC
  5
C82A
330
1F
100
AcDbEntity
  8
freecads.com
100
AcDbCircle
 10
10400.31232767999
 20
30294.73689447666
 30
0.0
 40
268.0692715898372
100
AcDbArc
 50
1.338617754620289
 51
3.274252344294809
  0
ARC
  5
C82B
330
1F
100
AcDbEntity
  8
freecads.com
100
AcDbCircle
 10
10784.97007462117
 20
30303.72526879428
 30
0.0
 40
116.6934775878543
100
AcDbArc
 50
181.3385536424036
 51
183.7975941298872
  0
ARC
  5
C82C
330
1F
100
AcDbEntity
  8
freecads.com
100
AcDbCircle
 10
10802.9940686066
 20
30304.92161346921
 30
0.0
 40
134.7571316967571
100
AcDbArc
 50
183.7975739723374
 51
186.0049975021986
  0
ARC
  5
C82D
330
1F
100
AcDbEntity
  8
freecads.com
100
AcDbCircle
 10
10787.6316193573
 20
30303.30570633644
 30
0.0
 40
119.3099312129695
100
AcDbArc
 50
186.0050481835807
 51
188.2665537879136
  0
ARC
  5
C82E
330
1F
100
AcDbEntity
  8
freecads.com
100
AcDbCircle
 10
10702.22729306161
 20
30290.89750638546
 30
0.0
 40
33.00893251630788
100
AcDbArc
 50
188.2666099240022
 51
194.1505101368559
  0
ARC
  5
C82F
330
1F
100
AcDbEntity
  8
freecads.com
100
AcDbCircle
 10
10624.17282399341
 20
30271.2183684402
 30
0.0
 40
47.48807743927135
100
AcDbArc
 50
9.535893933891141
 51
14.15055982374466
  0
ARC
  5
C830
330
1F
100
AcDbEntity
  8
freecads.com
100
AcDbCircle
 10
10643.23212005837
 20
30274.42011096166
 30
0.0
 40
28.16172440348265
100
AcDbArc
 50
2.710936120396195
 51
9.535824687021362
  0
ARC
  5
C831
330
1F
100
AcDbEntity
  8
freecads.com
100
AcDbCircle
 10
10634.31872257585
 20
30273.99806378146
 30
0.0
 40
37.08510820693674
100
AcDbArc
 50
356.9358227072577
 51
2.710931358655652
  0
ARC
  5
C832
330
1F
100
AcDbEntity
  8
freecads.com
100
AcDbCircle
 10
10543.61742409611
 20
30278.85324966469
 30
0.0
 40
127.9162613200895
100
AcDbArc
 50
354.6386341773476
 51
356.9358888116396
  0
ARC
  5
C833
330
1F
100
AcDbEntity
  8
freecads.com
100
AcDbCircle
 10
10774.24460732336
 20
30257.20951755893
 30
0.0
 40
103.7242981309806
100
AcDbArc
 50
174.6386700977299
 51
178.0857825918118
  0
ARC
  5
C834
330
1F
100
AcDbEntity
  8
freecads.com
100
AcDbCircle
 10
10701.03698952411
 20
30259.65624739284
 30
0.0
 40
30.47580469444596
100
AcDbArc
 50
178.0857771578522
 51
186.6669644060637
  0
ARC
  5
C835
330
1F
100
AcDbEntity
  8
freecads.com
100
AcDbCircle
 10
10687.23000393002
 20
30258.04237470882
 30
0.0
 40
16.57481781453468
100
AcDbArc
 50
186.6669822968382
 51
198.6720609551711
  0
ARC
  5
C836
330
1F
100
AcDbEntity
  8
freecads.com
100
AcDbCircle
 10
10678.95292010094
 20
30255.24523450483
 30
0.0
 40
7.837878417101048
100
AcDbArc
 50
198.6720629386626
 51
219.690223115373
  0
ARC
  5
C837
330
1F
100
AcDbEntity
  8
freecads.com
100
AcDbCircle
 10
10671.54047351937
 20
30249.09343966948
 30
0.0
 40
1.794823385655673
100
AcDbArc
 50
9.624768751311217
 51
39.69021023874578
  0
ARC
  5
C838
330
1F
100
AcDbEntity
  8
freecads.com
100
AcDbCircle
 10
10671.85090362183
 20
30249.14608503923
 30
0.0
 40
1.47996090223759
100
AcDbArc
 50
334.8872867273824
 51
9.624692370237182
  0
ARC
  5
C839
330
1F
100
AcDbEntity
  8
freecads.com
100
AcDbCircle
 10
10669.40869838983
 20
30250.29075591536
 30
0.0
 40
4.17711455189655
100
AcDbArc
 50
316.9262008943965
 51
334.8873180885315
  0
ARC
  5
C83A
330
1F
100
AcDbEntity
  8
freecads.com
100
AcDbCircle
 10
10647.99814172357
 20
30270.3080369574
 30
0.0
 40
33.4875815743655
100
AcDbArc
 50
313.0497174039119
 51
316.9262093030998
  0
ARC
  5
C83B
330
1F
100
AcDbEntity
  8
freecads.com
100
AcDbCircle
 10
10647.76141777861
 20
30270.56137148781
 30
0.0
 40
33.83430424090005
100
AcDbArc
 50
310.1090930474405
 51
313.0498094190162
  0
ARC
  5
C83C
330
1F
100
AcDbEntity
  8
freecads.com
100
AcDbCircle
 10
10654.79076694384
 20
30262.2163749101
 30
0.0
 40
22.92326773806832
100
AcDbArc
 50
306.1722181023122
 51
310.1091967647246
  0
ARC
  5
C83D
330
1F
100
AcDbEntity
  8
freecads.com
100
AcDbCircle
 10
10655.07825379451
 20
30261.82313514851
 30
0.0
 40
22.43614742555239
100
AcDbArc
 50
302.870434823941
 51
306.1722767245131
  0
ARC
  5
C83E
330
1F
100
AcDbEntity
  8
freecads.com
100
AcDbCircle
 10
10666.74270597311
 20
30243.77222221308
 30
0.0
 40
0.9444070951535278
100
AcDbArc
 50
269.9999230292625
 51
302.8703742462943
  0
ARC
  5
C83F
330
1F
100
AcDbEntity
  8
freecads.com
100
AcDbCircle
 10
10666.74270369149
 20
30241.97085882472
 30
0.0
 40
0.8569562932040373
100
AcDbArc
 50
89.99993227694849
 51
157.5027269906919
  0
ARC
  5
C840
330
1F
100
AcDbEntity
  8
freecads.com
100
AcDbCircle
 10
10667.40465469163
 20
30241.69670636523
 30
0.0
 40
1.573432878750161
100
AcDbArc
 50
157.5027173043361
 51
200.5989508029988
  0
ARC
  5
C841
330
1F
100
AcDbEntity
  8
freecads.com
100
AcDbCircle
 10
10669.88031373949
 20
30242.62719661476
 30
0.0
 40
4.218182361350954
100
AcDbArc
 50
200.5989880368953
 51
224.137319126349
  0
ARC
  5
C842
330
1F
100
AcDbEntity
  8
freecads.com
100
AcDbCircle
 10
10670.29742006041
 20
30243.03193028035
 30
0.0
 40
4.799376840857167
100
AcDbArc
 50
224.1373394980932
 51
245.5045233508537
  0
ARC
  5
C843
330
1F
100
AcDbEntity
  8
freecads.com
100
AcDbCircle
 10
10671.93700694445
 20
30246.63041007519
 30
0.0
 40
8.753779701489595
100
AcDbArc
 50
245.5044742637395
 51
254.7984811798905
  0
ARC
  5
C844
330
1F
100
AcDbEntity
  8
freecads.com
100
AcDbCircle
 10
10670.48256912001
 20
30241.27775095664
 30
0.0
 40
3.207037502281446
100
AcDbArc
 50
254.7984839956404
 51
274.4609930464076
  0
ARC
  5
C845
330
1F
100
AcDbEntity
  8
freecads.com
100
AcDbCircle
 10
10670.47979183974
 20
30241.31338416305
 30
0.0
 40
3.242778776420675
100
AcDbArc
 50
274.4609453820871
 51
293.9880848759109
  0
ARC
  5
C846
330
1F
100
AcDbEntity
  8
freecads.com
100
AcDbCircle
 10
10668.11259201187
 20
30246.63315996989
 30
0.0
 40
9.065462836213237
100
AcDbArc
 50
293.9881339907472
 51
303.0565288314987
  0
ARC
  5
C847
330
1F
100
AcDbEntity
  8
freecads.com
100
AcDbCircle
 10
10677.63001097266
 20
30232.00921707167
 30
0.0
 40
8.382774025023879
100
AcDbArc
 50
114.199079115403
 51
123.0564901525341
  0
ARC
  5
C848
330
1F
100
AcDbEntity
  8
freecads.com
100
AcDbCircle
 10
10683.69540722112
 20
30218.51247079745
 30
0.0
 40
23.17977343846193
100
AcDbArc
 50
110.0524151150269
 51
114.1990311016302
  0
ARC
  5
C849
330
1F
100
AcDbEntity
  8
freecads.com
100
AcDbCircle
 10
10684.28225603772
 20
30216.90471099157
 30
0.0
 40
24.89128830166004
100
AcDbArc
 50
105.9720244702525
 51
110.0524278711228
  0
ARC
  5
C84A
330
1F
100
AcDbEntity
  8
freecads.com
100
AcDbCircle
 10
10682.07900744515
 20
30224.60254939553
 30
0.0
 40
16.8843525298324
100
AcDbArc
 50
100.5141568136639
 51
105.9720374919831
  0
ARC
  5
C84B
330
1F
100
AcDbEntity
  8
freecads.com
100
AcDbCircle
 10
10676.12505797482
 20
30256.68298010462
 30
0.0
 40
15.74391050663231
100
AcDbArc
 50
280.514134972631
 51
292.5324697716464
  0
ARC
  5
C84C
330
1F
100
AcDbEntity
  8
freecads.com
100
AcDbCircle
 10
10680.68973753717
 20
30245.68052088975
 30
0.0
 40
3.832134472732181
100
AcDbArc
 50
292.5323993875894
 51
326.8641075844085
  0
ARC
  5
C84D
330
1F
100
AcDbEntity
  8
freecads.com
100
AcDbCircle
 10
10680.18035110574
 20
30246.01304422054
 30
0.0
 40
4.440448784608355
100
AcDbArc
 50
326.8640686697738
 51
358.0244833011883
  0
ARC
  5
C84E
330
1F
100
AcDbEntity
  8
freecads.com
100
AcDbCircle
 10
10661.56127785685
 20
30246.6552682476
 30
0.0
 40
23.07059479445862
100
AcDbArc
 50
358.024489653654
 51
7.217819954015144
  0
ARC
  5
C84F
330
1F
100
AcDbEntity
  8
freecads.com
100
AcDbCircle
 10
10848.48658210163
 20
30270.32871545498
 30
0.0
 40
165.3478264644224
100
AcDbArc
 50
184.0448298020248
 51
187.2178964934586
  0
ARC
  5
C850
330
1F
100
AcDbEntity
  8
freecads.com
100
AcDbCircle
 10
11127.78804052228
 20
30290.07950824283
 30
0.0
 40
445.3467523401339
100
AcDbArc
 50
182.5302471570035
 51
184.0448963317588
  0
ARC
  5
C851
330
1F
100
AcDbEntity
  8
freecads.com
100
AcDbCircle
 10
11151.11487627037
 20
30291.11095729744
 30
0.0
 40
468.6963808764415
100
AcDbArc
 50
181.1497428067754
 51
182.5303252104009
  0
ARC
  5
C852
330
1F
100
AcDbEntity
  8
freecads.com
100
AcDbCircle
 10
10744.22065098631
 20
30282.94485968851
 30
0.0
 40
61.72021975684335
100
AcDbArc
 50
174.996567171438
 51
181.1498008719466
  0
LINE
  5
C853
330
1F
100
AcDbEntity
  8
freecads.com
100
AcDbLine
 10
10682.7356177044
 20
30288.32781511793
 30
0.0
 11
10683.3484597044
 21
30295.32781511793
 31
0.0
  0
LINE
  5
C854
330
1F
100
AcDbEntity
  8
freecads.com
100
AcDbLine
 10
10683.3484597044
 20
30295.32781511793
 30
0.0
 11
10685.0521967044
 21
30290.82781511793
 31
0.0
  0
ARC
  5
C855
330
1F
100
AcDbEntity
  8
freecads.com
100
AcDbCircle
 10
10617.75650006546
 20
30265.34912745198
 30
0.0
 40
71.95744792096629
100
AcDbArc
 50
11.38036638703442
 51
20.73706556678276
  0
ARC
  5
C856
330
1F
100
AcDbEntity
  8
freecads.com
100
AcDbCircle
 10
10578.20096616606
 20
30257.38751292504
 30
0.0
 40
112.3062715461841
100
AcDbArc
 50
4.677259299511051
 51
11.38032862169016
  0
ARC
  5
C857
330
1F
100
AcDbEntity
  8
freecads.com
100
AcDbCircle
 10
10586.66626667975
 20
30258.08014767308
 30
0.0
 40
103.8126824532643
100
AcDbArc
 50
357.9418793635529
 51
4.677235737061712
  0
ARC
  5
C858
330
1F
100
AcDbEntity
  8
freecads.com
100
AcDbCircle
 10
10664.25809072855
 20
30255.29178889782
 30
0.0
 40
26.17077299788003
100
AcDbArc
 50
339.1832704268856
 51
357.9418463258361
  0
ARC
  5
C859
330
1F
100
AcDbEntity
  8
freecads.com
100
AcDbCircle
 10
10697.42713138831
 20
30242.68095471302
 30
0.0
 40
9.314694409578013
100
AcDbArc
 50
159.1831901068765
 51
168.8773507065872
  0
ARC
  5
C85A
330
1F
100
AcDbEntity
  8
freecads.com
100
AcDbCircle
 10
10690.36427928691
 20
30244.06953167267
 30
0.0
 40
2.116637325954338
100
AcDbArc
 50
168.8773718753411
 51
197.9991361742754
  0
ARC
  5
C85B
330
1F
100
AcDbEntity
  8
freecads.com
100
AcDbCircle
 10
10690.8686715637
 20
30244.2334085978
 30
0.0
 40
2.646983642498157
100
AcDbArc
 50
197.999102146698
 51
223.08814246946
  0
ARC
  5
C85C
330
1F
100
AcDbEntity
  8
freecads.com
100
AcDbCircle
 10
10701.73750093476
 20
30254.40005624555
 30
0.0
 40
17.52959686366034
100
AcDbArc
 50
223.0881311371158
 51
229.2990769704
  0
ARC
  5
C85D
330
1F
100
AcDbEntity
  8
freecads.com
100
AcDbCircle
 10
10681.79589890082
 20
30231.21654089687
 30
0.0
 40
13.05050901586478
100
AcDbArc
 50
41.65824999474977
 51
49.29913306085193
  0
ARC
  5
C85E
330
1F
100
AcDbEntity
  8
freecads.com
100
AcDbCircle
 10
10688.71137930562
 20
30237.36896809085
 30
0.0
 40
3.794363511046753
100
AcDbArc
 50
22.49050383513533
 51
41.65833612361934
  0
ARC
  5
C85F
330
1F
100
AcDbEntity
  8
freecads.com
100
AcDbCircle
 10
10689.54749669925
 20
30237.71513634311
 30
0.0
 40
2.889418896826596
100
AcDbArc
 50
359.7983685954794
 51
22.49051426686382
  0
ARC
  5
C860
330
1F
100
AcDbEntity
  8
freecads.com
100
AcDbCircle
 10
10686.86769322187
 20
30237.72456278894
 30
0.0
 40
5.569238953337123
100
AcDbArc
 50
345.9106660230681
 51
359.7984115466461
  0
ARC
  5
C861
330
1F
100
AcDbEntity
  8
freecads.com
100
AcDbCircle
 10
10699.42651160121
 20
30234.57250419652
 30
0.0
 40
7.379096555739826
100
AcDbArc
 50
165.9107657363145
 51
176.6188819091564
  0
ARC
  5
C862
330
1F
100
AcDbEntity
  8
freecads.com
100
AcDbCircle
 10
10693.58493737345
 20
30234.91762795316
 30
0.0
 40
1.527336148314623
100
AcDbArc
 50
176.618962650223
 51
211.0441058562234
  0
ARC
  5
C863
330
1F
100
AcDbEntity
  8
freecads.com
100
AcDbCircle
 10
10693.84591570203
 20
30235.07471127475
 30
0.0
 40
1.831942218363814
100
AcDbArc
 50
211.0440566714185
 51
241.5295088937051
  0
ARC
  5
C864
330
1F
100
AcDbEntity
  8
freecads.com
100
AcDbCircle
 10
10698.64496472926
 20
30243.92433151357
 30
0.0
 40
11.89904954554841
100
AcDbArc
 50
241.529521301771
 51
249.1832243381085
  0
ARC
  5
C865
330
1F
100
AcDbEntity
  8
freecads.com
100
AcDbCircle
 10
10698.63423342433
 20
30243.89611049089
 30
0.0
 40
11.86885704608156
100
AcDbArc
 50
249.1832319541544
 51
261.9001407205558
  0
ARC
  5
C866
330
1F
100
AcDbEntity
  8
freecads.com
100
AcDbCircle
 10
10697.30675545903
 20
30234.5685884956
 30
0.0
 40
2.447346322158161
100
AcDbArc
 50
261.9001030346416
 51
302.8822471578803
  0
ARC
  5
C867
330
1F
100
AcDbEntity
  8
freecads.com
100
AcDbCircle
 10
10696.85716374652
 20
30235.26402247219
 30
0.0
 40
3.275453274036713
100
AcDbArc
 50
302.8822602822443
 51
336.5860664344889
  0
ARC
  5
C868
330
1F
100
AcDbEntity
  8
freecads.com
100
AcDbCircle
 10
10677.76614801107
 20
30243.53093147973
 30
0.0
 40
24.07950735851586
100
AcDbArc
 50
336.5861185790777
 51
344.3279576099237
  0
ARC
  5
C869
330
1F
100
AcDbEntity
  8
freecads.com
100
AcDbCircle
 10
10677.20504025903
 20
30243.6883387191
 30
0.0
 40
24.66227570711216
100
AcDbArc
 50
344.3279970919065
 51
353.4561145056581
  0
ARC
  5
C86A
330
1F
100
AcDbEntity
  8
freecads.com
100
AcDbCircle
 10
10662.46375164241
 20
30245.37935897028
 30
0.0
 40
39.50023849073737
100
AcDbArc
 50
353.4560799834667
 51
359.8701570464198
  0
ARC
  5
C86B
330
1F
100
AcDbEntity
  8
freecads.com
100
AcDbCircle
 10
10491.44051147678
 20
30245.76722356432
 30
0.0
 40
210.5239184759273
100
AcDbArc
 50
359.8700772285922
 51
1.94848194665937
  0
ARC
  5
C86C
330
1F
100
AcDbEntity
  8
freecads.com
100
AcDbCircle
 10
253.1795665241443
 20
29897.4655876567
 30
0.0
 40
10454.70769301436
100
AcDbArc
 50
1.948429671365883
 51
2.074022007445844
  0
ARC
  5
C86D
330
1F
100
AcDbEntity
  8
freecads.com
100
AcDbCircle
 10
12663.25377724598
 20
30346.88793822869
 30
0.0
 40
1963.50161287258
100
AcDbArc
 50
181.5118312819635
 51
182.0740163431073
  0
ARC
  5
C86E
330
1F
100
AcDbEntity
  8
freecads.com
100
AcDbCircle
 10
10785.51770601824
 20
30297.32977509695
 30
0.0
 40
85.11167339713805
100
AcDbArc
 50
176.027216816043
 51
181.5118966400782
  0
ARC
  5
C86F
330
1F
100
AcDbEntity
  8
freecads.com
100
AcDbCircle
 10
10717.81479295629
 20
30302.03171322522
 30
0.0
 40
17.24568295099114
100
AcDbArc
 50
161.3653426979085
 51
176.027236333188
  0
ARC
  5
C870
330
1F
100
AcDbEntity
  8
freecads.com
100
AcDbCircle
 10
10704.87820824123
 20
30306.39406578618
 30
0.0
 40
3.593381168660596
100
AcDbArc
 50
114.4954380593031
 51
161.3653070829482
  0
ARC
  5
C871
330
1F
100
AcDbEntity
  8
freecads.com
100
AcDbCircle
 10
10701.59049671003
 20
30313.6097993124
 30
0.0
 40
4.336048661650292
100
AcDbArc
 50
294.4955117567215
 51
311.77860497547
  0
ARC
  5
C872
330
1F
100
AcDbEntity
  8
freecads.com
100
AcDbCircle
 10
10701.28841643699
 20
30313.94790959123
 30
0.0
 40
4.789448101456954
100
AcDbArc
 50
311.7786219591514
 51
327.8197165588135
  0
ARC
  5
C873
330
1F
100
AcDbEntity
  8
freecads.com
100
AcDbCircle
 10
10699.92196766693
 20
30314.8077532563
 30
0.0
 40
6.40391809793927
100
AcDbArc
 50
327.8197051883946
 51
341.4341049760154
  0
ARC
  5
C874
330
1F
100
AcDbEntity
  8
freecads.com
100
AcDbCircle
 10
10693.55189037394
 20
30316.94728068508
 30
0.0
 40
13.12369951826227
100
AcDbArc
 50
341.4341880754219
 51
349.3939534930018
  0
ARC
  5
C875
330
1F
100
AcDbEntity
  8
freecads.com
100
AcDbCircle
 10
10720.32546661022
 20
30311.93384704475
 30
0.0
 40
14.11522302552243
100
AcDbArc
 50
162.5231576528739
 51
169.3940709111809
  0
ARC
  5
C876
330
1F
100
AcDbEntity
  8
freecads.com
100
AcDbCircle
 10
10728.57730437656
 20
30309.33571137563
 30
0.0
 40
22.76641574544381
100
AcDbArc
 50
157.7203938027752
 51
162.5231396068058
  0
ARC
  5
C877
330
1F
100
AcDbEntity
  8
freecads.com
100
AcDbCircle
 10
10727.59950873434
 20
30309.73631300908
 30
0.0
 40
21.70973888543758
100
AcDbArc
 50
152.8582791618074
 51
157.720357006716
  0
ARC
  5
C878
330
1F
100
AcDbEntity
  8
freecads.com
100
AcDbCircle
 10
10716.38280995271
 20
30315.48651235721
 30
0.0
 40
9.105012624993552
100
AcDbArc
 50
143.5517681570855
 51
152.8583593985624
  0
ARC
  5
C879
330
1F
100
AcDbEntity
  8
freecads.com
100
AcDbCircle
 10
10699.90248894565
 20
30327.6582898969
 30
0.0
 40
11.38286547331848
100
AcDbArc
 50
323.5517293163991
 51
347.0490135374394
  0
ARC
  5
C87A
330
1F
100
AcDbEntity
  8
freecads.com
100
AcDbCircle
 10
10687.45787257447
 20
30330.52019145419
 30
0.0
 40
24.15231953950986
100
AcDbArc
 50
347.04890624032
 51
0.4369728678339442
  0
ARC
  5
C87B
330
1F
100
AcDbEntity
  8
freecads.com
100
AcDbCircle
 10
10665.12984504467
 20
30330.34997254249
 30
0.0
 40
46.48099589630985
100
AcDbArc
 50
0.4368845297082006
 51
9.729747413517216
  0
ARC
  5
C87C
330
1F
100
AcDbEntity
  8
freecads.com
100
AcDbCircle
 10
10543.57300201083
 20
30309.50693413488
 30
0.0
 40
169.8118449909903
100
AcDbArc
 50
9.729742697029561
 51
13.2735479694899
  0
ARC
  5
C87D
330
1F
100
AcDbEntity
  8
freecads.com
100
AcDbCircle
 10
10280.00155222432
 20
30247.32967960241
 30
0.0
 40
440.6179012817558
100
AcDbArc
 50
13.27355734678409
 51
14.36125225852264
  0
ARC
  5
C87E
330
1F
100
AcDbEntity
  8
freecads.com
100
AcDbCircle
 10
10673.72675991836
 20
30348.13740561084
 30
0.0
 40
34.19234008181628
100
AcDbArc
 50
14.36117828606409
 51
21.42099301371507
  0
ARC
  5
C87F
330
1F
100
AcDbEntity
  8
freecads.com
100
AcDbCircle
 10
10693.74637584754
 20
30355.99149559369
 30
0.0
 40
12.68718369064055
100
AcDbArc
 50
21.42088623722241
 51
34.81717531685211
  0
ARC
  5
C880
330
1F
100
AcDbEntity
  8
freecads.com
100
AcDbCircle
 10
10691.83515210255
 20
30354.66231021527
 30
0.0
 40
15.01516779145299
100
AcDbArc
 50
34.817176652605
 51
46.62363217778046
  0
ARC
  5
C881
330
1F
100
AcDbEntity
  8
freecads.com
100
AcDbCircle
 10
10687.31519533896
 20
30349.8786706373
 30
0.0
 40
21.59644553641627
100
AcDbArc
 50
46.62357487971161
 51
51.86041424355632
  0
ARC
  5
C882
330
1F
100
AcDbEntity
  8
freecads.com
100
AcDbCircle
 10
10685.7361816012
 20
30347.86779508226
 30
0.0
 40
24.15318269164594
100
AcDbArc
 50
51.86033738877068
 51
56.67568271501941
  0
ARC
  5
C883
330
1F
100
AcDbEntity
  8
freecads.com
100
AcDbCircle
 10
10687.42383881592
 20
30350.43465809637
 30
0.0
 40
21.08121709818348
100
AcDbArc
 50
56.67564511256498
 51
61.61079897599778
  0
ARC
  5
C884
330
1F
100
AcDbEntity
  8
freecads.com
100
AcDbCircle
 10
10695.05340416076
 20
30364.55159750631
 30
0.0
 40
5.034465225764543
100
AcDbArc
 50
61.61082834388388
 51
75.91068684314379
  0
ARC
  5
C885
330
1F
100
AcDbEntity
  8
freecads.com
100
AcDbCircle
 10
10697.78036804894
 20
30375.41667103222
 30
0.0
 40
6.167595065574912
100
AcDbArc
 50
246.7802778723817
 51
255.9106834825433
  0
ARC
  5
C886
330
1F
100
AcDbEntity
  8
freecads.com
100
AcDbCircle
 10
10697.07292177633
 20
30373.76765085214
 30
0.0
 40
4.373229500007691
100
AcDbArc
 50
234.9660909080285
 51
246.7803179845773
  0
ARC
  5
C887
330
1F
100
AcDbEntity
  8
freecads.com
100
AcDbCircle
 10
10696.27047522509
 20
30372.62307674845
 30
0.0
 40
2.97538460645085
100
AcDbArc
 50
220.8883299877394
 51
234.966046953183
  0
ARC
  5
C888
330
1F
100
AcDbEntity
  8
freecads.com
100
AcDbCircle
 10
10694.55606280833
 20
30371.13861623754
 30
0.0
 40
0.7076031039286884
100
AcDbArc
 50
180.0000096854116
 51
220.8882693996407
  0
ARC
  5
C889
330
1F
100
AcDbEntity
  8
freecads.com
100
AcDbCircle
 10
10692.6925244672
 20
30371.1386171859
 30
0.0
 40
1.155935237202168
100
AcDbArc
 50
359.9999470639496
 51
31.25282028378258
  0
ARC
  5
C88A
330
1F
100
AcDbEntity
  8
freecads.com
100
AcDbCircle
 10
10679.14104785134
 20
30362.9144748422
 30
0.0
 40
17.00771859932672
100
AcDbArc
 50
31.25279657667095
 51
35.63951321377453
  0
ARC
  5
C88B
330
1F
100
AcDbEntity
  8
freecads.com
100
AcDbCircle
 10
10677.43230782802
 20
30361.689336682
 30
0.0
 40
19.11027798700189
100
AcDbArc
 50
35.63955504719642
 51
40.3848008460122
  0
ARC
  5
C88C
330
1F
100
AcDbEntity
  8
freecads.com
100
AcDbCircle
 10
10671.84919722555
 20
30356.94029332299
 30
0.0
 40
26.43998035648062
100
AcDbArc
 50
40.38479594769223
 51
44.10502789568312
  0
ARC
  5
C88D
330
1F
100
AcDbEntity
  8
freecads.com
100
AcDbCircle
 10
10715.612990486
 20
30399.35777878913
 30
0.0
 40
34.50682164177479
100
AcDbArc
 50
219.8314536920147
 51
224.1049942818138
  0
ARC
  5
C88E
330
1F
100
AcDbEntity
  8
freecads.com
100
AcDbCircle
 10
10691.73326225364
 20
30379.43971829614
 30
0.0
 40
3.410671490125779
100
AcDbArc
 50
196.4591139785042
 51
219.8314340669884
  0
ARC
  5
C88F
330
1F
100
AcDbEntity
  8
freecads.com
100
AcDbCircle
 10
10690.95200696136
 20
30379.20890962857
 30
0.0
 40
2.59603508488774
100
AcDbArc
 50
168.2486844253899
 51
196.4591860323816
  0
ARC
  5
C890
330
1F
100
AcDbEntity
  8
freecads.com
100
AcDbCircle
 10
10703.74994895092
 20
30376.5466282275
 30
0.0
 40
15.66795389686351
100
AcDbArc
 50
160.7813368195978
 51
168.2486877579536
  0
ARC
  5
C891
330
1F
100
AcDbEntity
  8
freecads.com
100
AcDbCircle
 10
10677.55780858645
 20
30385.67726648366
 30
0.0
 40
12.07004840750294
100
AcDbArc
 50
340.7813252705105
 51
356.1066063259109
  0
ARC
  5
C892
330
1F
100
AcDbEntity
  8
freecads.com
100
AcDbCircle
 10
10672.69094726098
 20
30386.00852156454
 30
0.0
 40
16.94816987887152
100
AcDbArc
 50
356.1065067433862
 51
7.989305152041002
  0
ARC
  5
C893
330
1F
100
AcDbEntity
  8
freecads.com
100
AcDbCircle
 10
10674.02557161194
 20
30386.19585718268
 30
0.0
 40
15.60046190175999
100
AcDbArc
 50
7.989230835693705
 51
20.29209599834358
  0
ARC
  5
C894
330
1F
100
AcDbEntity
  8
freecads.com
100
AcDbCircle
 10
10681.87165037246
 20
30389.09698340141
 30
0.0
 40
7.235207258102967
100
AcDbArc
 50
20.29206649685935
 51
42.144672987063
  0
ARC
  5
C895
330
1F
100
AcDbEntity
  8
freecads.com
100
AcDbCircle
 10
10683.62035984165
 20
30390.67953361389
 30
0.0
 40
4.876722578782976
100
AcDbArc
 50
42.14474630648388
 51
76.124794079507
  0
ARC
  5
C896
330
1F
100
AcDbEntity
  8
freecads.com
100
AcDbCircle
 10
10680.78914881027
 20
30379.21774001648
 30
0.0
 40
16.68301193546023
100
AcDbArc
 50
76.12490396078307
 51
89.72811332538563
  0
ARC
  5
C897
330
1F
100
AcDbEntity
  8
freecads.com
100
AcDbCircle
 10
10680.78936077094
 20
30379.25951053317
 30
0.0
 40
16.64124088324506
100
AcDbArc
 50
89.72816064824012
 51
103.3405050568871
  0
ARC
  5
C898
330
1F
100
AcDbEntity
  8
freecads.com
100
AcDbCircle
 10
10678.04939148212
 20
30390.81390801732
 30
0.0
 40
4.76641318238027
100
AcDbArc
 50
103.3405140616812
 51
137.8552723427762
  0
ARC
  5
C899
330
1F
100
AcDbEntity
  8
freecads.com
100
AcDbCircle
 10
10658.06318286332
 20
30309.20184356392
 30
0.0
 40
0.4905414479653663
100
AcDbArc
 50
308.6373791822675
 51
345.3543738634746
  0
ARC
  5
C89A
330
1F
100
AcDbEntity
  8
freecads.com
100
AcDbCircle
 10
10658.30880479554
 20
30308.89456847082
 30
0.0
 40
0.0971610768010288
100
AcDbArc
 50
194.6457217539427
 51
308.6378096537299
  0
ARC
  5
C89B
330
1F
100
AcDbEntity
  8
freecads.com
100
AcDbCircle
 10
10661.48865485985
 20
30309.72554421805
 30
0.0
 40
3.383795696585563
100
AcDbArc
 50
182.5358128183324
 51
194.645338536667
  0
ARC
  5
C89C
330
1F
100
AcDbEntity
  8
freecads.com
100
AcDbCircle
 10
10686.37786299206
 20
30310.82782016893
 30
0.0
 40
28.29740028765945
100
AcDbArc
 50
180.0000102271494
 51
182.5358179418224
  0
ARC
  5
C89D
330
1F
100
AcDbEntity
  8
freecads.com
100
AcDbCircle
 10
10686.37786299206
 20
30310.82781006692
 30
0.0
 40
28.29740028765945
100
AcDbArc
 50
177.4641820581775
 51
179.9999897728506
  0
ARC
  5
C89E
330
1F
100
AcDbEntity
  8
freecads.com
100
AcDbCircle
 10
10661.48865485985
 20
30311.93008601781
 30
0.0
 40
3.383795696585554
100
AcDbArc
 50
165.3546614633329
 51
177.4641871816675
  0
ARC
  5
C89F
330
1F
100
AcDbEntity
  8
freecads.com
100
AcDbCircle
 10
10658.30880479554
 20
30312.76106176503
 30
0.0
 40
0.0971610768012107
100
AcDbArc
 50
51.36219034627012
 51
165.3542782460573
  0
ARC
  5
C8A0
330
1F
100
AcDbEntity
  8
freecads.com
100
AcDbCircle
 10
10658.06318286332
 20
30312.45378667193
 30
0.0
 40
0.4905414479654015
100
AcDbArc
 50
14.64562613652547
 51
51.36262081773256
  0
ARC
  5
C8A1
330
1F
100
AcDbEntity
  8
freecads.com
100
AcDbCircle
 10
10653.57984174462
 20
30311.28217214658
 30
0.0
 40
5.124441337110496
100
AcDbArc
 50
5.581116524482179
 51
14.64539252157832
  0
ARC
  5
C8A2
330
1F
100
AcDbEntity
  8
freecads.com
100
AcDbCircle
 10
10648.93016006453
 20
30310.82780521554
 30
0.0
 40
9.796270639874132
100
AcDbArc
 50
0.0000579163272654
 51
5.581167607860217
  0
ARC
  5
C8A3
330
1F
100
AcDbEntity
  8
freecads.com
100
AcDbCircle
 10
10648.93016006453
 20
30310.82782502031
 30
0.0
 40
9.796270639874139
100
AcDbArc
 50
354.4188323921398
 51
359.9999420836728
  0
ARC
  5
C8A4
330
1F
100
AcDbEntity
  8
freecads.com
100
AcDbCircle
 10
10653.57984174462
 20
30310.37345808927
 30
0.0
 40
5.124441337110484
100
AcDbArc
 50
345.3546074784217
 51
354.4188834755178
  0
ARC
  5
C8A5
330
1F
100
AcDbEntity
  8
freecads.com
100
AcDbCircle
 10
10587.03936331681
 20
30267.36502206677
 30
0.0
 40
2.552676689991432
100
AcDbArc
 50
339.631027575868
 51
354.0434305873286
  0
ARC
  5
C8A6
330
1F
100
AcDbEntity
  8
freecads.com
100
AcDbCircle
 10
10589.36708061658
 20
30266.50078631437
 30
0.0
 40
0.0697003986485152
100
AcDbArc
 50
187.0934759156603
 51
339.6310563849762
  0
ARC
  5
C8A7
330
1F
100
AcDbEntity
  8
freecads.com
100
AcDbCircle
 10
10601.98599688084
 20
30268.07109939766
 30
0.0
 40
12.78594712729845
100
AcDbArc
 50
181.1172906101493
 51
187.0934897965067
  0
ARC
  5
C8A8
330
1F
100
AcDbEntity
  8
freecads.com
100
AcDbCircle
 10
10725.76999974669
 20
30270.48533239803
 30
0.0
 40
136.5934908654389
100
AcDbArc
 50
180.0660725286805
 51
181.1173281182883
  0
ARC
  5
C8A9
330
1F
100
AcDbEntity
  8
freecads.com
100
AcDbCircle
 10
10718.18536599137
 20
30270.47657938688
 30
0.0
 40
129.008852059437
100
AcDbArc
 50
178.9492691317953
 51
180.0660696263484
  0
ARC
  5
C8AA
330
1F
100
AcDbEntity
  8
freecads.com
100
AcDbCircle
 10
10606.53122132908
 20
30272.52440430962
 30
0.0
 40
17.33592961545013
100
AcDbArc
 50
174.0434438434149
 51
178.9492757875963
  0
ARC
  5
C8AB
330
1F
100
AcDbEntity
  8
freecads.com
100
AcDbCircle
 10
10589.37096106973
 20
30274.31486648281
 30
0.0
 40
0.0825158383887577
100
AcDbArc
 50
48.00769703200734
 51
174.0437177095394
  0
ARC
  5
C8AC
330
1F
100
AcDbEntity
  8
freecads.com
100
AcDbCircle
 10
10589.12813349102
 20
30274.04510942863
 30
0.0
 40
0.4454677653085042
100
AcDbArc
 50
7.093417723815375
 51
48.00742489882297
  0
ARC
  5
C8AD
330
1F
100
AcDbEntity
  8
freecads.com
100
AcDbCircle
 10
10570.92017181843
 20
30271.77927935055
 30
0.0
 40
18.79386971788387
100
AcDbArc
 50
2.482974569091478
 51
7.093516833527472
  0
ARC
  5
C8AE
330
1F
100
AcDbEntity
  8
freecads.com
100
AcDbCircle
 10
10545.13115544826
 20
30270.66103655543
 30
0.0
 40
44.60711887967174
100
AcDbArc
 50
0.0660319335509682
 51
2.482907499063804
  0
ARC
  5
C8AF
330
1F
100
AcDbEntity
  8
freecads.com
100
AcDbCircle
 10
10543.58924457301
 20
30270.6592195701
 30
0.0
 40
46.14903082498815
100
AcDbArc
 50
357.6657053560163
 51
0.0660815595940228
  0
ARC
  5
C8B0
330
1F
100
AcDbEntity
  8
freecads.com
100
AcDbCircle
 10
10563.08215631263
 20
30269.86463235137
 30
0.0
 40
26.63993097552602
100
AcDbArc
 50
354.0435049492572
 51
357.6656716917725
  0
ENDSEC
  0
SECTION
  2
OBJECTS
  0
DICTIONARY
  5
C
330
0
100
AcDbDictionary
281
     1
  3
ACAD_CIP_PREVIOUS_PRODUCT_INFO
350
1A5
  3
ACAD_COLOR
350
73
  3
ACAD_DETAILVIEWSTYLE
350
1AB
  3
ACAD_GROUP
350
D
  3
ACAD_LAYOUT
350
1A
  3
ACAD_MATERIAL
350
72
  3
ACAD_MLEADERSTYLE
350
D7
  3
ACAD_MLINESTYLE
350
17
  3
ACAD_PLOTSETTINGS
350
19
  3
ACAD_PLOTSTYLENAME
350
E
  3
ACAD_SCALELIST
350
B6
  3
ACAD_SECTIONVIEWSTYLE
350
1A8
  3
ACAD_TABLESTYLE
350
86
  3
ACAD_VISUALSTYLE
350
99
  3
ACDB_RECOMPOSE_DATA
350
C908
  3
AcDbVariableDictionary
350
66
  3
AEC_PROPERTY_SET_DEFS
350
268B
  0
DICTIONARY
  5
18E
330
2
100
AcDbDictionary
280
     1
281
     1
  3
ACAD_LAYERSTATES
360
18F
  0
DICTIONARY
  5
E6
330
10
100
AcDbDictionary
280
     1
281
     1
  0
DICTIONARY
  5
15D
330
1F
100
AcDbDictionary
280
     1
281
     1
  3
ACAD_SORTENTS
360
28E
  0
XRECORD
  5
1A5
102
{ACAD_REACTORS
330
C
102
}
330
C
100
AcDbXrecord
280
     1
300
ACD
300
2022
300

  0
DICTIONARY
  5
73
102
{ACAD_REACTORS
330
C
102
}
330
C
100
AcDbDictionary
281
     1
  0
DICTIONARY
  5
1AB
102
{ACAD_REACTORS
330
C
102
}
330
C
100
AcDbDictionary
281
     1
  3
Imperial24
350
1AC
  3
Metric50
350
224
  0
DICTIONARY
  5
D
102
{ACAD_REACTORS
330
C
102
}
330
C
100
AcDbDictionary
281
     1
  0
DICTIONARY
  5
1A
102
{ACAD_REACTORS
330
C
102
}
330
C
100
AcDbDictionary
281
     1
  3
Layout1
350
59
  3
Layout2
350
5E
  3
Model
350
22
  0
DICTIONARY
  5
72
102
{ACAD_REACTORS
330
C
102
}
330
C
100
AcDbDictionary
281
     1
  3
ByBlock
350
97
  3
ByLayer
350
96
  3
Global
350
98
  0
DICTIONARY
  5
D7
102
{ACAD_REACTORS
330
C
102
}
330
C
100
AcDbDictionary
281
     1
  3
Standard
350
D8
  0
DICTIONARY
  5
17
102
{ACAD_REACTORS
330
C
102
}
330
C
100
AcDbDictionary
281
     1
  3
Standard
350
18
  0
DICTIONARY
  5
19
102
{ACAD_REACTORS
330
C
102
}
330
C
100
AcDbDictionary
281
     1
  0
ACDBDICTIONARYWDFLT
  5
E
102
{ACAD_REACTORS
330
C
102
}
330
C
100
AcDbDictionary
281
     1
  3
Normal
350
F
100
AcDbDictionaryWithDefault
340
F
  0
DICTIONARY
  5
B6
102
{ACAD_REACTORS
330
C
102
}
330
C
100
AcDbDictionary
281
     1
  3
*A1
350
47D1
  3
*A2
350
8BD6
  3
A0
350
B7
  3
A1
350
124
  3
A2
350
125
  3
A3
350
126
  3
A4
350
127
  3
A5
350
128
  3
A6
350
129
  3
A7
350
12A
  3
A8
350
12B
  3
A9
350
12C
  3
B0
350
12D
  3
B1
350
12E
  3
B2
350
12F
  3
B3
350
130
  3
B4
350
131
  3
B5
350
132
  3
B6
350
133
  3
B7
350
134
  3
B8
350
135
  3
B9
350
136
  3
C0
350
137
  3
C1
350
138
  3
C2
350
139
  3
C3
350
13A
  3
C4
350
13B
  3
C5
350
13C
  3
C6
350
13D
  3
C7
350
13E
  3
C8
350
13F
  3
C9
350
140
  3
D0
350
141
  3
D1
350
142
  3
D2
350
143
  0
DICTIONARY
  5
1A8
102
{ACAD_REACTORS
330
C
102
}
330
C
100
AcDbDictionary
281
     1
  3
Imperial24
350
1AA
  3
Metric50
350
223
  0
DICTIONARY
  5
86
102
{ACAD_REACTORS
330
C
102
}
330
C
100
AcDbDictionary
281
     1
  3
Standard
350
87
  0
DICTIONARY
  5
99
102
{ACAD_REACTORS
330
C
102
}
330
C
100
AcDbDictionary
281
     1
  3
2dWireframe
350
9F
  3
3dWireframe
350
2684
  3
Basic
350
9E
  3
Brighten
350
A5
  3
ColorChange
350
A9
  3
Conceptual
350
A2
  3
Dim
350
A4
  3
EdgeColorOff
350
175
  3
Facepattern
350
A8
  3
Flat
350
9A
  3
FlatWithEdges
350
9B
  3
Gouraud
350
9C
  3
GouraudWithEdges
350
9D
  3
Hidden
350
A1
  3
JitterOff
350
173
  3
Linepattern
350
A7
  3
OverhangOff
350
174
  3
Realistic
350
A3
  3
Shaded
350
182
  3
Shaded with edges
350
181
  3
Shades of Gray
350
17E
  3
Sketchy
350
17F
  3
Thicken
350
A6
  3
Wireframe
350
A0
  3
X-Ray
350
180
  0
XRECORD
  5
C908
102
{ACAD_REACTORS
330
C
102
}
330
C
100
AcDbXrecord
280
     1
 90
        1
330
87
  0
DICTIONARY
  5
66
102
{ACAD_REACTORS
330
C
102
}
330
C
100
AcDbDictionary
281
     1
  3
CANNOSCALE
350
F0
  3
CMLEADERSTYLE
350
EF
  3
CTABLESTYLE
350
89
  3
CVIEWDETAILSTYLE
350
1B7
  3
CVIEWSECTIONSTYLE
350
1B8
  3
DIMASSOC
350
67
  3
HIDETEXT
350
6B
  3
LAYEREVAL
350
14D
  3
LAYERNOTIFY
350
14E
  0
DICTIONARY
  5
268B
102
{ACAD_REACTORS
330
C
102
}
330
C
100
AcDbDictionary
281
     1
  0
DICTIONARY
  5
18F
102
{ACAD_REACTORS
330
18E
102
}
330
18E
100
AcDbDictionary
281
     1
  0
SORTENTSTABLE
  5
28E
102
{ACAD_REACTORS
330
15D
102
}
330
15D
100
AcDbSortentsTable
330
1F
  0
ACDBDETAILVIEWSTYLE
  5
1AC
102
{ACAD_REACTORS
330
1AB
102
}
330
1AB
100
AcDbModelDocViewStyle
 70
     0
  3
Imperial24
290
     0
300
Imperial24
 90
        0
100
AcDbDetailViewStyle
 70
     0
 71
     0
 90
        3
 71
     1
340
11
 62
   256
 40
0.24
340
0
 62
   256
 40
0.24
300

 40
0.36
280
     3
 71
     2
340
16
 90
       25
 62
   256
 71
     3
340
11
 62
   256
 40
0.24
 90
        1
 40
0.75
 90
        1
300
%<\AcVar ViewType \f "%tc1">% %<\AcVar ViewDetailId>%\PSCALE %<\AcVar ViewScale \f "%sn">%
 71
     4
340
16
 90
       25
 62
   256
340
16
 90
       25
 62
   256
280
     0
  0
ACDBDETAILVIEWSTYLE
  5
224
102
{ACAD_REACTORS
330
1AB
102
}
330
1AB
100
AcDbModelDocViewStyle
 70
     0
  3
Metric50
290
     0
300
Metric50
 90
        0
100
AcDbDetailViewStyle
 70
     0
 71
     0
 90
        3
 71
     1
340
11
 62
   256
 40
5.0
340
0
 62
   256
 40
5.0
300

 40
0.0
280
     1
 71
     2
340
16
 90
       25
 62
   256
 71
     3
340
11
 62
   256
 40
5.0
 90
        0
 40
15.0
 90
        1
300
%<\AcVar ViewDetailId>% (%<\AcVar ViewScale \f "%sn">%)
 71
     4
340
16
 90
       25
 62
   256
340
16
 90
       25
 62
   256
280
     0
  0
LAYOUT
  5
59
102
{ACAD_REACTORS
330
1A
102
}
330
1A
100
AcDbPlotSettings
  1

  2
None
  4

  6

 40
0.0
 41
0.0
 42
0.0
 43
0.0
 44
0.0
 45
0.0
 46
0.0
 47
0.0
 48
0.0
 49
0.0
140
0.0
141
0.0
142
1.0
143
1.0
 70
   688
 72
     0
 73
     0
 74
     5
  7

 75
    16
147
1.0
 76
     0
 77
     2
 78
   300
148
0.0
149
0.0
100
AcDbLayout
  1
Layout1
 70
     1
 71
     1
 10
0.0
 20
0.0
 11
12.0
 21
9.0
 12
0.0
 22
0.0
 32
0.0
 14
0.0
 24
0.0
 34
0.0
 15
0.0
 25
0.0
 35
0.0
146
0.0
 13
0.0
 23
0.0
 33
0.0
 16
1.0
 26
0.0
 36
0.0
 17
0.0
 27
1.0
 37
0.0
 76
     0
330
58
  0
LAYOUT
  5
5E
102
{ACAD_REACTORS
330
1A
102
}
330
1A
100
AcDbPlotSettings
  1

  2
None
  4

  6

 40
0.0
 41
0.0
 42
0.0
 43
0.0
 44
0.0
 45
0.0
 46
0.0
 47
0.0
 48
0.0
 49
0.0
140
0.0
141
0.0
142
1.0
143
1.0
 70
   688
 72
     0
 73
     0
 74
     5
  7

 75
    16
147
1.0
 76
     0
 77
     2
 78
   300
148
0.0
149
0.0
100
AcDbLayout
  1
Layout2
 70
     1
 71
     2
 10
0.0
 20
0.0
 11
12.0
 21
9.0
 12
0.0
 22
0.0
 32
0.0
 14
0.0
 24
0.0
 34
0.0
 15
0.0
 25
0.0
 35
0.0
146
0.0
 13
0.0
 23
0.0
 33
0.0
 16
1.0
 26
0.0
 36
0.0
 17
0.0
 27
1.0
 37
0.0
 76
     0
330
5D
  0
LAYOUT
  5
22
102
{ACAD_XDICTIONARY
360
194
102
}
102
{ACAD_REACTORS
330
1A
102
}
330
1A
100
AcDbPlotSettings
  1

  2
none_device
  4
ANSI_A_(8.50_x_11.00_Inches)
  6

 40
6.349999904632568
 41
19.04999923706055
 42
6.350006103515625
 43
19.04998779296875
 44
215.8999938964844
 45
279.3999938964844
 46
0.0
 47
0.0
 48
0.0
 49
0.0
140
0.0
141
0.0
142
1.0
143
2.584895464708373
 70
 11952
 72
     0
 73
     1
 74
     0
  7

 75
     0
147
0.3868628397755418
 76
     0
 77
     2
 78
   300
148
0.0
149
0.0
100
AcDbLayout
  1
Model
 70
     1
 71
     0
 10
0.0
 20
0.0
 11
12.0
 21
9.0
 12
0.0
 22
0.0
 32
0.0
 14
0.0
 24
0.0
 34
0.0
 15
0.0
 25
0.0
 35
0.0
146
0.0
 13
0.0
 23
0.0
 33
0.0
 16
1.0
 26
0.0
 36
0.0
 17
0.0
 27
1.0
 37
0.0
 76
     0
330
1F
331
94
  0
MATERIAL
  5
97
102
{ACAD_XDICTIONARY
360
188
102
}
102
{ACAD_REACTORS
330
72
102
}
330
72
100
AcDbMaterial
  1
ByBlock
 94
       63
  0
MATERIAL
  5
96
102
{ACAD_XDICTIONARY
360
186
102
}
102
{ACAD_REACTORS
330
72
102
}
330
72
100
AcDbMaterial
  1
ByLayer
 94
       63
  0
MATERIAL
  5
98
102
{ACAD_XDICTIONARY
360
110
102
}
102
{ACAD_REACTORS
330
72
102
}
330
72
100
AcDbMaterial
  1
Global
 43
0.0208000000566244
 43
0.0
 43
0.0
 43
0.0
 43
0.0
 43
0.0208000000566244
 43
0.0
 43
0.0
 43
0.0
 43
0.0
 43
1.0
 43
0.0
 43
0.0
 43
0.0
 43
0.0
 43
1.0
 49
0.0208000000566244
 49
0.0
 49
0.0
 49
0.0
 49
0.0
 49
0.0208000000566244
 49
0.0
 49
0.0
 49
0.0
 49
0.0
 49
1.0
 49
0.0
 49
0.0
 49
0.0
 49
0.0
 49
1.0
142
0.0208000000566244
142
0.0
142
0.0
142
0.0
142
0.0
142
0.0208000000566244
142
0.0
142
0.0
142
0.0
142
0.0
142
1.0
142
0.0
142
0.0
142
0.0
142
0.0
142
1.0
144
0.0208000000566244
144
0.0
144
0.0
144
0.0
144
0.0
144
0.0208000000566244
144
0.0
144
0.0
144
0.0
144
0.0
144
1.0
144
0.0
144
0.0
144
0.0
144
0.0
144
1.0
 94
       63
1001
ACAD
1070
    -1
1070
     3
1070
     0
1000

1071
        0
1070
     0
  0
MLEADERSTYLE
  5
D8
102
{ACAD_REACTORS
330
D7
102
}
330
D7
100
AcDbMLeaderStyle
179
     2
170
     2
171
     1
172
     0
 90
        2
 40
0.0
 41
0.0
173
     1
 91
-1056964608
340
14
 92
       -2
290
     1
 42
0.09
291
     1
 43
0.36
  3
Standard
 44
0.18
300

342
11
174
     1
178
     1
175
     1
176
     0
 93
-1056964608
 45
0.18
292
     0
297
     0
 46
0.18
 94
-1056964608
 47
1.0
 49
1.0
140
1.0
293
     1
141
0.0
294
     1
177
     0
142
1.0
295
     0
296
     0
143
0.125
271
     0
272
     9
273
     9
298
     0
  0
MLINESTYLE
  5
18
102
{ACAD_REACTORS
330
17
102
}
330
17
100
AcDbMlineStyle
  2
STANDARD
 70
     0
  3

 62
   256
 51
90.0
 52
90.0
 71
     2
 49
0.5
 62
   256
  6
BYLAYER
 49
-0.5
 62
   256
  6
BYLAYER
  0
ACDBPLACEHOLDER
  5
F
102
{ACAD_REACTORS
330
E
102
}
330
E
  0
SCALE
  5
47D1
102
{ACAD_REACTORS
330
B6
102
}
330
B6
100
AcDbScale
 70
     0
300
1:100_1_XREF_XREF_XREF_XREF
140
1.0
141
0.1
290
     0
  0
SCALE
  5
8BD6
102
{ACAD_REACTORS
330
B6
102
}
330
B6
100
AcDbScale
 70
     0
300
1:100_1_XREF_XREF_XREF_XREF_XREF_XREF_XREF_XREF_XREF
140
1.0
141
0.1
290
     0
1001
ACAD
1000
AcRTDxfName
1000
SCALE
1000
AcRTDxfName
1000
SCALE
1000
AcRTDxfName
1000
SCALE
1000
AcRTDxfName
1000
SCALE
  0
SCALE
  5
B7
102
{ACAD_REACTORS
330
B6
102
}
330
B6
100
AcDbScale
 70
     0
300
1:1
140
1.0
141
1.0
290
     1
  0
SCALE
  5
124
102
{ACAD_REACTORS
330
B6
102
}
330
B6
100
AcDbScale
 70
     0
300
1:2
140
1.0
141
2.0
290
     0
  0
SCALE
  5
125
102
{ACAD_REACTORS
330
B6
102
}
330
B6
100
AcDbScale
 70
     0
300
1:4
140
1.0
141
4.0
290
     0
  0
SCALE
  5
126
102
{ACAD_REACTORS
330
B6
102
}
330
B6
100
AcDbScale
 70
     0
300
1:5
140
1.0
141
5.0
290
     0
  0
SCALE
  5
127
102
{ACAD_REACTORS
330
B6
102
}
330
B6
100
AcDbScale
 70
     0
300
1:8
140
1.0
141
8.0
290
     0
  0
SCALE
  5
128
102
{ACAD_REACTORS
330
B6
102
}
330
B6
100
AcDbScale
 70
     0
300
1:10
140
1.0
141
10.0
290
     0
  0
SCALE
  5
129
102
{ACAD_REACTORS
330
B6
102
}
330
B6
100
AcDbScale
 70
     0
300
1:16
140
1.0
141
16.0
290
     0
  0
SCALE
  5
12A
102
{ACAD_REACTORS
330
B6
102
}
330
B6
100
AcDbScale
 70
     0
300
1:20
140
1.0
141
20.0
290
     0
  0
SCALE
  5
12B
102
{ACAD_REACTORS
330
B6
102
}
330
B6
100
AcDbScale
 70
     0
300
1:30
140
1.0
141
30.0
290
     0
  0
SCALE
  5
12C
102
{ACAD_REACTORS
330
B6
102
}
330
B6
100
AcDbScale
 70
     0
300
1:40
140
1.0
141
40.0
290
     0
  0
SCALE
  5
12D
102
{ACAD_REACTORS
330
B6
102
}
330
B6
100
AcDbScale
 70
     0
300
1:50
140
1.0
141
50.0
290
     0
  0
SCALE
  5
12E
102
{ACAD_REACTORS
330
B6
102
}
330
B6
100
AcDbScale
 70
     0
300
1:100
140
1.0
141
100.0
290
     0
  0
SCALE
  5
12F
102
{ACAD_REACTORS
330
B6
102
}
330
B6
100
AcDbScale
 70
     0
300
2:1
140
2.0
141
1.0
290
     0
  0
SCALE
  5
130
102
{ACAD_REACTORS
330
B6
102
}
330
B6
100
AcDbScale
 70
     0
300
4:1
140
4.0
141
1.0
290
     0
  0
SCALE
  5
131
102
{ACAD_REACTORS
330
B6
102
}
330
B6
100
AcDbScale
 70
     0
300
8:1
140
8.0
141
1.0
290
     0
  0
SCALE
  5
132
102
{ACAD_REACTORS
330
B6
102
}
330
B6
100
AcDbScale
 70
     0
300
10:1
140
10.0
141
1.0
290
     0
  0
SCALE
  5
133
102
{ACAD_REACTORS
330
B6
102
}
330
B6
100
AcDbScale
 70
     0
300
100:1
140
100.0
141
1.0
290
     0
  0
SCALE
  5
134
102
{ACAD_REACTORS
330
B6
102
}
330
B6
100
AcDbScale
 70
     0
300
1/128" = 1'-0"
140
0.0078125
141
12.0
290
     0
  0
SCALE
  5
135
102
{ACAD_REACTORS
330
B6
102
}
330
B6
100
AcDbScale
 70
     0
300
1/64" = 1'-0"
140
0.015625
141
12.0
290
     0
  0
SCALE
  5
136
102
{ACAD_REACTORS
330
B6
102
}
330
B6
100
AcDbScale
 70
     0
300
1/32" = 1'-0"
140
0.03125
141
12.0
290
     0
  0
SCALE
  5
137
102
{ACAD_REACTORS
330
B6
102
}
330
B6
100
AcDbScale
 70
     0
300
1/16" = 1'-0"
140
0.0625
141
12.0
290
     0
  0
SCALE
  5
138
102
{ACAD_REACTORS
330
B6
102
}
330
B6
100
AcDbScale
 70
     0
300
3/32" = 1'-0"
140
0.09375
141
12.0
290
     0
  0
SCALE
  5
139
102
{ACAD_REACTORS
330
B6
102
}
330
B6
100
AcDbScale
 70
     0
300
1/8" = 1'-0"
140
0.125
141
12.0
290
     0
  0
SCALE
  5
13A
102
{ACAD_REACTORS
330
B6
102
}
330
B6
100
AcDbScale
 70
     0
300
3/16" = 1'-0"
140
0.1875
141
12.0
290
     0
  0
SCALE
  5
13B
102
{ACAD_REACTORS
330
B6
102
}
330
B6
100
AcDbScale
 70
     0
300
1/4" = 1'-0"
140
0.25
141
12.0
290
     0
  0
SCALE
  5
13C
102
{ACAD_REACTORS
330
B6
102
}
330
B6
100
AcDbScale
 70
     0
300
3/8" = 1'-0"
140
0.375
141
12.0
290
     0
  0
SCALE
  5
13D
102
{ACAD_REACTORS
330
B6
102
}
330
B6
100
AcDbScale
 70
     0
300
1/2" = 1'-0"
140
0.5
141
12.0
290
     0
  0
SCALE
  5
13E
102
{ACAD_REACTORS
330
B6
102
}
330
B6
100
AcDbScale
 70
     0
300
3/4" = 1'-0"
140
0.75
141
12.0
290
     0
  0
SCALE
  5
13F
102
{ACAD_REACTORS
330
B6
102
}
330
B6
100
AcDbScale
 70
     0
300
1" = 1'-0"
140
1.0
141
12.0
290
     0
  0
SCALE
  5
140
102
{ACAD_REACTORS
330
B6
102
}
330
B6
100
AcDbScale
 70
     0
300
1-1/2" = 1'-0"
140
1.5
141
12.0
290
     0
  0
SCALE
  5
141
102
{ACAD_REACTORS
330
B6
102
}
330
B6
100
AcDbScale
 70
     0
300
3" = 1'-0"
140
3.0
141
12.0
290
     0
  0
SCALE
  5
142
102
{ACAD_REACTORS
330
B6
102
}
330
B6
100
AcDbScale
 70
     0
300
6" = 1'-0"
140
6.0
141
12.0
290
     0
  0
SCALE
  5
143
102
{ACAD_REACTORS
330
B6
102
}
330
B6
100
AcDbScale
 70
     0
300
1'-0" = 1'-0"
140
12.0
141
12.0
290
     0
  0
ACDBSECTIONVIEWSTYLE
  5
1AA
102
{ACAD_REACTORS
330
1A8
102
}
330
1A8
100
AcDbModelDocViewStyle
 70
     0
  3
Imperial24
290
     0
300
Imperial24
 90
        0
100
AcDbSectionViewStyle
 70
     0
 71
     0
 90
       78
 71
     1
340
11
 62
   256
 40
0.24
340
0
340
0
 62
   256
 40
0.24
300
I, O, Q, S, X, Z
 40
0.48
 90
        3
 40
0.18
 90
        1
 71
     2
340
16
 90
       25
 62
   256
340
16
 90
       50
 62
   256
 40
0.24
 40
0.0
 40
0.24
 71
     3
340
11
 62
   256
 40
0.24
 90
        1
 40
0.75
 90
        1
300
%<\AcVar ViewType \f "%tc1">% %<\AcVar ViewSectionStartId>%-%<\AcVar ViewSectionEndId>%\PSCALE %<\AcVar ViewScale \f "%sn">%
 71
     4
 62
   256
 62
   257
300
ANSI31
 40
1.0
 90
        0
290
     0
290
     0
 90
        6
 40
0.0
 40
1.570796326794896
 40
0.2617993877991494
 40
1.308996938995747
 40
-0.2617993877991494
 40
1.832595714594046
  0
ACDBSECTIONVIEWSTYLE
  5
223
102
{ACAD_REACTORS
330
1A8
102
}
330
1A8
100
AcDbModelDocViewStyle
 70
     0
  3
Metric50
290
     0
300
Metric50
 90
        0
100
AcDbSectionViewStyle
 70
     0
 71
     0
 90
      102
 71
     1
340
11
 62
   256
 40
5.0
340
0
340
0
 62
   256
 40
5.0
300
I, O, Q, S, X, Z
 40
10.0
 90
        0
 40
2.5
 90
        0
 71
     2
340
16
 90
       25
 62
   256
340
16
 90
       50
 62
   256
 40
5.0
 40
2.5
 40
5.0
 71
     3
340
11
 62
   256
 40
5.0
 90
        0
 40
15.0
 90
        1
300
%<\AcVar ViewSectionStartId>%-%<\AcVar ViewSectionEndId>% (%<\AcVar ViewScale \f "%sn">%)
 71
     4
 62
   256
 62
   257
300
ANSI31
 40
1.0
 90
        0
290
     0
290
     0
 90
        6
 40
0.0
 40
1.570796326794896
 40
0.2617993877991494
 40
1.308996938995747
 40
-0.2617993877991494
 40
1.832595714594046
  0
TABLESTYLE
  5
87
102
{ACAD_XDICTIONARY
360
104
102
}
102
{ACAD_REACTORS
330
86
102
}
330
86
100
AcDbTableStyle
280
     0
  3
Standard
 70
     0
 71
     0
 40
0.06
 41
0.06
280
     0
281
     0
  7
Standard
140
0.18
170
     2
 62
     0
 63
     7
283
     0
 90
      512
 91
        0
  1

274
    -2
284
     1
 64
     0
275
    -2
285
     1
 65
     0
276
    -2
286
     1
 66
     0
277
    -2
287
     1
 67
     0
278
    -2
288
     1
 68
     0
279
    -2
289
     1
 69
     0
  7
Standard
140
0.25
170
     5
 62
     0
 63
     7
283
     0
 90
      512
 91
        0
  1

274
    -2
284
     1
 64
     0
275
    -2
285
     1
 65
     0
276
    -2
286
     1
 66
     0
277
    -2
287
     1
 67
     0
278
    -2
288
     1
 68
     0
279
    -2
289
     1
 69
     0
  7
Standard
140
0.18
170
     5
 62
     0
 63
     7
283
     0
 90
      512
 91
        0
  1

274
    -2
284
     1
 64
     0
275
    -2
285
     1
 65
     0
276
    -2
286
     1
 66
     0
277
    -2
287
     1
 67
     0
278
    -2
288
     1
 68
     0
279
    -2
289
     1
 69
     0
  0
VISUALSTYLE
  5
9F
102
{ACAD_REACTORS
330
99
102
}
330
99
100
AcDbVisualStyle
  2
2dWireframe
 70
     4
177
     3
291
     0
 70
    58
 90
        0
176
     1
 90
        2
176
     1
 90
        1
176
     1
 90
        0
176
     1
 40
0.6
176
     1
 40
30.0
176
     1
 62
     7
420
 16777215
176
     1
 90
        1
176
     1
 90
        4
176
     1
 62
     7
176
     1
 62
   257
176
     1
 90
        1
176
     1
 90
        1
176
     1
 40
1.0
176
     1
 90
        0
176
     1
 62
   257
176
     1
 40
1.0
176
     1
 90
        1
176
     1
 90
        6
176
     1
 90
        2
176
     1
 62
     7
176
     1
 90
        5
176
     1
 90
        0
176
     1
 90
        0
176
     1
290
     0
176
     1
 90
        1
176
     1
 40
0.0
176
     1
 90
        0
176
     1
290
     1
176
     1
290
     1
176
     1
290
     0
176
     1
290
     0
176
     1
290
     0
176
     1
290
     0
176
     1
290
     0
176
     1
290
     0
176
     1
290
     0
176
     1
 90
       50
176
     1
 40
0.0
176
     1
 40
1.0
176
     1
 90
        0
176
     1
 62
    18
420
        0
176
     1
 90
       50
176
     1
 90
        3
176
     1
 62
     5
420
      255
176
     1
290
     0
176
     1
 90
       50
176
     1
 90
       50
176
     1
 90
       50
176
     1
290
     0
176
     1
 90
       50
176
     1
 62
   256
176
     0
 40
1.0
176
     0
 90
        2
176
     1
  1
strokes_ogs.tif
176
     1
290
     0
176
     1
 40
1.0
176
     1
 40
1.0
176
     1
  0
VISUALSTYLE
  5
2684
102
{ACAD_REACTORS
330
99
102
}
330
99
100
AcDbVisualStyle
  2
3dWireframe
 70
     5
177
     3
291
     0
 70
    58
 90
        0
176
     1
 90
        2
176
     1
 90
        0
176
     1
 90
        0
176
     1
 40
0.6
176
     1
 40
30.0
176
     1
 62
     7
176
     1
 90
        1
176
     1
 90
        4
176
     1
 62
     7
176
     1
 62
   257
176
     1
 90
        1
176
     1
 90
        1
176
     1
 40
1.0
176
     1
 90
        0
176
     1
 62
   257
176
     1
 40
1.0
176
     1
 90
        1
176
     1
 90
        6
176
     1
 90
        2
176
     1
 62
     7
176
     1
 90
        5
176
     1
 90
        0
176
     1
 90
        0
176
     1
290
     0
176
     1
 90
        1
176
     1
 40
0.0
176
     1
 90
        0
176
     1
290
     0
176
     1
290
     1
176
     1
290
     1
176
     1
290
     0
176
     1
290
     0
176
     1
290
     0
176
     1
290
     0
176
     1
290
     0
176
     1
290
     0
176
     1
 90
       50
176
     1
 40
0.0
176
     1
 40
1.0
176
     1
 90
        0
176
     1
 62
    18
420
        0
176
     1
 90
       50
176
     1
 90
        3
176
     1
 62
     5
420
      255
176
     1
290
     0
176
     1
 90
       50
176
     1
 90
       50
176
     1
 90
       50
176
     1
290
     0
176
     1
 90
       50
176
     1
 62
   256
176
     0
 40
1.0
176
     0
 90
        2
176
     1
  1
strokes_ogs.tif
176
     1
290
     0
176
     1
 40
1.0
176
     1
 40
1.0
176
     1
1001
ACAD
1000
AcRTDxfName
1000
VISUALSTYLE
  0
VISUALSTYLE
  5
9E
102
{ACAD_REACTORS
330
99
102
}
330
99
100
AcDbVisualStyle
  2
Basic
 70
     7
177
     3
291
     1
 70
    58
 90
        1
176
     1
 90
        0
176
     1
 90
        1
176
     1
 90
        0
176
     1
 40
0.6
176
     1
 40
30.0
176
     1
 62
     7
420
 16777215
176
     1
 90
        0
176
     1
 90
        4
176
     1
 62
     7
176
     1
 62
   257
176
     1
 90
        1
176
     1
 90
        1
176
     1
 40
1.0
176
     1
 90
        8
176
     1
 62
     7
176
     1
 40
1.0
176
     1
 90
        1
176
     1
 90
        6
176
     1
 90
        2
176
     1
 62
     7
176
     1
 90
        5
176
     1
 90
        0
176
     1
 90
        0
176
     1
290
     0
176
     1
 90
        1
176
     1
 40
0.0
176
     1
 90
        0
176
     1
290
     0
176
     1
290
     1
176
     1
290
     1
176
     1
290
     0
176
     1
290
     0
176
     1
290
     0
176
     1
290
     0
176
     1
290
     0
176
     1
290
     0
176
     1
 90
       50
176
     1
 40
0.0
176
     1
 40
1.0
176
     1
 90
        0
176
     1
 62
    18
420
        0
176
     1
 90
       50
176
     1
 90
        3
176
     1
 62
     5
420
      255
176
     1
290
     0
176
     1
 90
       50
176
     1
 90
       50
176
     1
 90
       50
176
     1
290
     0
176
     1
 90
       50
176
     1
 62
   256
176
     0
 40
1.0
176
     0
 90
        2
176
     1
  1
strokes_ogs.tif
176
     1
290
     0
176
     1
 40
1.0
176
     1
 40
1.0
176
     1
  0
VISUALSTYLE
  5
A5
102
{ACAD_REACTORS
330
99
102
}
330
99
100
AcDbVisualStyle
  2
Brighten
 70
    12
177
     3
291
     1
 70
    58
 90
        2
176
     1
 90
        2
176
     1
 90
        1
176
     1
 90
        0
176
     1
 40
0.6
176
     1
 40
30.0
176
     1
 62
     7
420
 16777215
176
     1
 90
        1
176
     1
 90
        4
176
     1
 62
     7
176
     1
 62
   257
176
     1
 90
        1
176
     1
 90
        1
176
     1
 40
1.0
176
     1
 90
        8
176
     1
 62
     7
176
     1
 40
1.0
176
     1
 90
        1
176
     1
 90
        6
176
     1
 90
        2
176
     1
 62
     7
176
     1
 90
        5
176
     1
 90
        0
176
     1
 90
        0
176
     1
290
     0
176
     1
 90
        1
176
     1
 40
50.0
176
     1
 90
        0
176
     1
290
     0
176
     1
290
     1
176
     1
290
     1
176
     1
290
     0
176
     1
290
     0
176
     1
290
     0
176
     1
290
     0
176
     1
290
     0
176
     1
290
     0
176
     1
 90
       50
176
     1
 40
0.0
176
     1
 40
1.0
176
     1
 90
        0
176
     1
 62
    18
420
        0
176
     1
 90
       50
176
     1
 90
        3
176
     1
 62
     5
420
      255
176
     1
290
     0
176
     1
 90
       50
176
     1
 90
       50
176
     1
 90
       50
176
     1
290
     0
176
     1
 90
       50
176
     1
 62
   256
176
     0
 40
1.0
176
     0
 90
        2
176
     1
  1
strokes_ogs.tif
176
     1
290
     0
176
     1
 40
1.0
176
     1
 40
1.0
176
     1
  0
VISUALSTYLE
  5
A9
102
{ACAD_REACTORS
330
99
102
}
330
99
100
AcDbVisualStyle
  2
ColorChange
 70
    16
177
     3
291
     1
 70
    58
 90
        2
176
     1
 90
        2
176
     1
 90
        3
176
     1
 90
        0
176
     1
 40
0.6
176
     1
 40
30.0
176
     1
 62
     8
420
  8421504
176
     1
 90
        1
176
     1
 90
        4
176
     1
 62
     7
176
     1
 62
   257
176
     1
 90
        1
176
     1
 90
        1
176
     1
 40
1.0
176
     1
 90
        8
176
     1
 62
     8
420
  8421504
176
     1
 40
1.0
176
     1
 90
        1
176
     1
 90
        6
176
     1
 90
        2
176
     1
 62
     7
176
     1
 90
        5
176
     1
 90
        0
176
     1
 90
        0
176
     1
290
     0
176
     1
 90
        1
176
     1
 40
0.0
176
     1
 90
        0
176
     1
290
     0
176
     1
290
     1
176
     1
290
     1
176
     1
290
     0
176
     1
290
     0
176
     1
290
     0
176
     1
290
     0
176
     1
290
     0
176
     1
290
     0
176
     1
 90
       50
176
     1
 40
0.0
176
     1
 40
1.0
176
     1
 90
        0
176
     1
 62
    18
420
        0
176
     1
 90
       50
176
     1
 90
        3
176
     1
 62
     5
420
      255
176
     1
290
     0
176
     1
 90
       50
176
     1
 90
       50
176
     1
 90
       50
176
     1
290
     0
176
     1
 90
       50
176
     1
 62
   256
176
     0
 40
1.0
176
     0
 90
        2
176
     1
  1
strokes_ogs.tif
176
     1
290
     0
176
     1
 40
1.0
176
     1
 40
1.0
176
     1
  0
VISUALSTYLE
  5
A2
102
{ACAD_REACTORS
330
99
102
}
330
99
100
AcDbVisualStyle
  2
Conceptual
 70
     9
177
     3
291
     0
 70
    58
 90
        3
176
     1
 90
        2
176
     1
 90
        1
176
     1
 90
        0
176
     1
 40
0.6
176
     1
 40
30.0
176
     1
 62
     7
420
 16777215
176
     1
 90
        2
176
     1
 90
        2
176
     1
 62
     7
176
     1
 62
   257
176
     1
 90
        1
176
     1
 90
        1
176
     1
 40
40.0
176
     1
 90
        8
176
     1
 62
     7
176
     1
 40
1.0
176
     1
 90
        1
176
     1
 90
        6
176
     1
 90
        2
176
     1
 62
     7
176
     1
 90
        3
176
     1
 90
        0
176
     1
 90
        0
176
     1
290
     0
176
     1
 90
        1
176
     1
 40
0.0
176
     1
 90
        0
176
     1
290
     0
176
     1
290
     1
176
     1
290
     1
176
     1
290
     0
176
     1
290
     0
176
     1
290
     0
176
     1
290
     0
176
     1
290
     0
176
     1
290
     0
176
     1
 90
       50
176
     1
 40
0.0
176
     1
 40
1.0
176
     1
 90
        0
176
     1
 62
    18
420
        0
176
     1
 90
       50
176
     1
 90
        3
176
     1
 62
     5
420
      255
176
     1
290
     0
176
     1
 90
       50
176
     1
 90
       50
176
     1
 90
       50
176
     1
290
     0
176
     1
 90
       50
176
     1
 62
   256
176
     0
 40
1.0
176
     0
 90
        2
176
     1
  1
strokes_ogs.tif
176
     1
290
     0
176
     1
 40
1.0
176
     1
 40
1.0
176
     1
  0
VISUALSTYLE
  5
A4
102
{ACAD_REACTORS
330
99
102
}
330
99
100
AcDbVisualStyle
  2
Dim
 70
    11
177
     3
291
     1
 70
    58
 90
        2
176
     1
 90
        2
176
     1
 90
        1
176
     1
 90
        0
176
     1
 40
0.6
176
     1
 40
30.0
176
     1
 62
     7
420
 16777215
176
     1
 90
        1
176
     1
 90
        4
176
     1
 62
     7
176
     1
 62
   257
176
     1
 90
        1
176
     1
 90
        1
176
     1
 40
1.0
176
     1
 90
        8
176
     1
 62
     7
176
     1
 40
1.0
176
     1
 90
        1
176
     1
 90
        6
176
     1
 90
        2
176
     1
 62
     7
176
     1
 90
        5
176
     1
 90
        0
176
     1
 90
        0
176
     1
290
     0
176
     1
 90
        1
176
     1
 40
-50.0
176
     1
 90
        0
176
     1
290
     0
176
     1
290
     1
176
     1
290
     1
176
     1
290
     0
176
     1
290
     0
176
     1
290
     0
176
     1
290
     0
176
     1
290
     0
176
     1
290
     0
176
     1
 90
       50
176
     1
 40
0.0
176
     1
 40
1.0
176
     1
 90
        0
176
     1
 62
    18
420
        0
176
     1
 90
       50
176
     1
 90
        3
176
     1
 62
     5
420
      255
176
     1
290
     0
176
     1
 90
       50
176
     1
 90
       50
176
     1
 90
       50
176
     1
290
     0
176
     1
 90
       50
176
     1
 62
   256
176
     0
 40
1.0
176
     0
 90
        2
176
     1
  1
strokes_ogs.tif
176
     1
290
     0
176
     1
 40
1.0
176
     1
 40
1.0
176
     1
  0
VISUALSTYLE
  5
175
102
{ACAD_REACTORS
330
99
102
}
330
99
100
AcDbVisualStyle
  2
EdgeColorOff
 70
    22
177
     3
291
     1
 70
    58
 90
        2
176
     0
 90
        2
176
     0
 90
        0
176
     0
 90
        0
176
     0
 40
0.6
176
     0
 40
30.0
176
     0
 62
     7
420
 16777215
176
     0
 90
        1
176
     0
 90
        4
176
     0
 62
     7
176
     0
 62
   257
176
     0
 90
        1
176
     0
 90
        1
176
     0
 40
1.0
176
     0
 90
        8
176
     2
 62
     7
176
     0
 40
1.0
176
     0
 90
        1
176
     0
 90
        6
176
     0
 90
        2
176
     0
 62
     7
176
     0
 90
        5
176
     0
 90
        0
176
     0
 90
        0
176
     0
290
     0
176
     0
 90
        1
176
     0
 40
0.0
176
     0
 90
        0
176
     0
290
     0
176
     1
290
     1
176
     1
290
     1
176
     1
290
     0
176
     1
290
     0
176
     1
290
     0
176
     1
290
     0
176
     1
290
     0
176
     1
290
     0
176
     1
 90
       50
176
     1
 40
0.0
176
     1
 40
1.0
176
     1
 90
        0
176
     1
 62
    18
420
        0
176
     1
 90
       50
176
     1
 90
        3
176
     1
 62
     5
420
      255
176
     1
290
     0
176
     1
 90
       50
176
     1
 90
       50
176
     1
 90
       50
176
     1
290
     0
176
     1
 90
       50
176
     1
 62
   256
176
     0
 40
1.0
176
     0
 90
        2
176
     1
  1
strokes_ogs.tif
176
     1
290
     0
176
     1
 40
1.0
176
     1
 40
1.0
176
     1
  0
VISUALSTYLE
  5
A8
102
{ACAD_REACTORS
330
99
102
}
330
99
100
AcDbVisualStyle
  2
Facepattern
 70
    15
177
     3
291
     1
 70
    58
 90
        2
176
     1
 90
        2
176
     1
 90
        1
176
     1
 90
        0
176
     1
 40
0.6
176
     1
 40
30.0
176
     1
 62
     7
420
 16777215
176
     1
 90
        1
176
     1
 90
        4
176
     1
 62
     7
176
     1
 62
   257
176
     1
 90
        1
176
     1
 90
        1
176
     1
 40
1.0
176
     1
 90
        8
176
     1
 62
     7
176
     1
 40
1.0
176
     1
 90
        1
176
     1
 90
        6
176
     1
 90
        2
176
     1
 62
     7
176
     1
 90
        5
176
     1
 90
        0
176
     1
 90
        0
176
     1
290
     0
176
     1
 90
        1
176
     1
 40
0.0
176
     1
 90
        0
176
     1
290
     0
176
     1
290
     1
176
     1
290
     1
176
     1
290
     0
176
     1
290
     0
176
     1
290
     0
176
     1
290
     0
176
     1
290
     0
176
     1
290
     0
176
     1
 90
       50
176
     1
 40
0.0
176
     1
 40
1.0
176
     1
 90
        0
176
     1
 62
    18
420
        0
176
     1
 90
       50
176
     1
 90
        3
176
     1
 62
     5
420
      255
176
     1
290
     0
176
     1
 90
       50
176
     1
 90
       50
176
     1
 90
       50
176
     1
290
     0
176
     1
 90
       50
176
     1
 62
   256
176
     0
 40
1.0
176
     0
 90
        2
176
     1
  1
strokes_ogs.tif
176
     1
290
     0
176
     1
 40
1.0
176
     1
 40
1.0
176
     1
  0
VISUALSTYLE
  5
9A
102
{ACAD_REACTORS
330
99
102
}
330
99
100
AcDbVisualStyle
  2
Flat
 70
     0
177
     3
291
     1
 70
    58
 90
        2
176
     1
 90
        1
176
     1
 90
        1
176
     1
 90
        2
176
     1
 40
0.6
176
     1
 40
30.0
176
     1
 62
     7
420
 16777215
176
     1
 90
        0
176
     1
 90
        0
176
     1
 62
     7
176
     1
 62
   257
176
     1
 90
        1
176
     1
 90
        1
176
     1
 40
1.0
176
     1
 90
        8
176
     1
 62
     7
176
     1
 40
1.0
176
     1
 90
        1
176
     1
 90
        6
176
     1
 90
        2
176
     1
 62
     7
176
     1
 90
        5
176
     1
 90
        0
176
     1
 90
        0
176
     1
290
     0
176
     1
 90
       13
176
     1
 40
0.0
176
     1
 90
        0
176
     1
290
     0
176
     1
290
     1
176
     1
290
     1
176
     1
290
     0
176
     1
290
     0
176
     1
290
     0
176
     1
290
     0
176
     1
290
     0
176
     1
290
     0
176
     1
 90
       50
176
     1
 40
0.0
176
     1
 40
1.0
176
     1
 90
        0
176
     1
 62
    18
420
        0
176
     1
 90
       50
176
     1
 90
        3
176
     1
 62
     5
420
      255
176
     1
290
     0
176
     1
 90
       50
176
     1
 90
       50
176
     1
 90
       50
176
     1
290
     0
176
     1
 90
       50
176
     1
 62
   256
176
     0
 40
1.0
176
     0
 90
        2
176
     1
  1
strokes_ogs.tif
176
     1
290
     0
176
     1
 40
1.0
176
     1
 40
1.0
176
     1
  0
VISUALSTYLE
  5
9B
102
{ACAD_REACTORS
330
99
102
}
330
99
100
AcDbVisualStyle
  2
FlatWithEdges
 70
     1
177
     3
291
     1
 70
    58
 90
        2
176
     1
 90
        1
176
     1
 90
        1
176
     1
 90
        2
176
     1
 40
0.6
176
     1
 40
30.0
176
     1
 62
     7
420
 16777215
176
     1
 90
        1
176
     1
 90
        0
176
     1
 62
     7
176
     1
 62
   257
176
     1
 90
        1
176
     1
 90
        1
176
     1
 40
1.0
176
     1
 90
        0
176
     1
 62
   257
176
     1
 40
1.0
176
     1
 90
        1
176
     1
 90
        6
176
     1
 90
        2
176
     1
 62
     7
176
     1
 90
        5
176
     1
 90
        0
176
     1
 90
        0
176
     1
290
     0
176
     1
 90
       13
176
     1
 40
0.0
176
     1
 90
        0
176
     1
290
     0
176
     1
290
     1
176
     1
290
     1
176
     1
290
     0
176
     1
290
     0
176
     1
290
     0
176
     1
290
     0
176
     1
290
     0
176
     1
290
     0
176
     1
 90
       50
176
     1
 40
0.0
176
     1
 40
1.0
176
     1
 90
        0
176
     1
 62
    18
420
        0
176
     1
 90
       50
176
     1
 90
        3
176
     1
 62
     5
420
      255
176
     1
290
     0
176
     1
 90
       50
176
     1
 90
       50
176
     1
 90
       50
176
     1
290
     0
176
     1
 90
       50
176
     1
 62
   256
176
     0
 40
1.0
176
     0
 90
        2
176
     1
  1
strokes_ogs.tif
176
     1
290
     0
176
     1
 40
1.0
176
     1
 40
1.0
176
     1
  0
VISUALSTYLE
  5
9C
102
{ACAD_REACTORS
330
99
102
}
330
99
100
AcDbVisualStyle
  2
Gouraud
 70
     2
177
     3
291
     1
 70
    58
 90
        2
176
     1
 90
        2
176
     1
 90
        1
176
     1
 90
        2
176
     1
 40
0.6
176
     1
 40
30.0
176
     1
 62
     7
420
 16777215
176
     1
 90
        0
176
     1
 90
        0
176
     1
 62
     7
176
     1
 62
   257
176
     1
 90
        1
176
     1
 90
        1
176
     1
 40
1.0
176
     1
 90
        0
176
     1
 62
     7
176
     1
 40
1.0
176
     1
 90
        1
176
     1
 90
        6
176
     1
 90
        2
176
     1
 62
     7
176
     1
 90
        5
176
     1
 90
        0
176
     1
 90
        0
176
     1
290
     0
176
     1
 90
       13
176
     1
 40
0.0
176
     1
 90
        0
176
     1
290
     0
176
     1
290
     1
176
     1
290
     1
176
     1
290
     0
176
     1
290
     0
176
     1
290
     0
176
     1
290
     0
176
     1
290
     0
176
     1
290
     0
176
     1
 90
       50
176
     1
 40
0.0
176
     1
 40
1.0
176
     1
 90
        0
176
     1
 62
    18
420
        0
176
     1
 90
       50
176
     1
 90
        3
176
     1
 62
     5
420
      255
176
     1
290
     0
176
     1
 90
       50
176
     1
 90
       50
176
     1
 90
       50
176
     1
290
     0
176
     1
 90
       50
176
     1
 62
   256
176
     0
 40
1.0
176
     0
 90
        2
176
     1
  1
strokes_ogs.tif
176
     1
290
     0
176
     1
 40
1.0
176
     1
 40
1.0
176
     1
  0
VISUALSTYLE
  5
9D
102
{ACAD_REACTORS
330
99
102
}
330
99
100
AcDbVisualStyle
  2
GouraudWithEdges
 70
     3
177
     3
291
     1
 70
    58
 90
        2
176
     1
 90
        2
176
     1
 90
        1
176
     1
 90
        2
176
     1
 40
0.6
176
     1
 40
30.0
176
     1
 62
     7
420
 16777215
176
     1
 90
        1
176
     1
 90
        0
176
     1
 62
     7
176
     1
 62
   257
176
     1
 90
        1
176
     1
 90
        1
176
     1
 40
1.0
176
     1
 90
        0
176
     1
 62
   257
176
     1
 40
1.0
176
     1
 90
        1
176
     1
 90
        6
176
     1
 90
        2
176
     1
 62
     7
176
     1
 90
        5
176
     1
 90
        0
176
     1
 90
        0
176
     1
290
     0
176
     1
 90
       13
176
     1
 40
0.0
176
     1
 90
        0
176
     1
290
     0
176
     1
290
     1
176
     1
290
     1
176
     1
290
     0
176
     1
290
     0
176
     1
290
     0
176
     1
290
     0
176
     1
290
     0
176
     1
290
     0
176
     1
 90
       50
176
     1
 40
0.0
176
     1
 40
1.0
176
     1
 90
        0
176
     1
 62
    18
420
        0
176
     1
 90
       50
176
     1
 90
        3
176
     1
 62
     5
420
      255
176
     1
290
     0
176
     1
 90
       50
176
     1
 90
       50
176
     1
 90
       50
176
     1
290
     0
176
     1
 90
       50
176
     1
 62
   256
176
     0
 40
1.0
176
     0
 90
        2
176
     1
  1
strokes_ogs.tif
176
     1
290
     0
176
     1
 40
1.0
176
     1
 40
1.0
176
     1
  0
VISUALSTYLE
  5
A1
102
{ACAD_REACTORS
330
99
102
}
330
99
100
AcDbVisualStyle
  2
Hidden
 70
     6
177
     3
291
     0
 70
    58
 90
        1
176
     1
 90
        2
176
     1
 90
        2
176
     1
 90
        0
176
     1
 40
0.6
176
     1
 40
30.0
176
     1
 62
     7
420
 16777215
176
     1
 90
        2
176
     1
 90
        2
176
     1
 62
     7
176
     1
 62
   257
176
     1
 90
        2
176
     1
 90
        1
176
     1
 40
40.0
176
     1
 90
        0
176
     1
 62
   257
176
     1
 40
1.0
176
     1
 90
        1
176
     1
 90
        6
176
     1
 90
        2
176
     1
 62
     7
176
     1
 90
        3
176
     1
 90
        0
176
     1
 90
        0
176
     1
290
     0
176
     1
 90
        1
176
     1
 40
0.0
176
     1
 90
        0
176
     1
290
     0
176
     1
290
     1
176
     1
290
     1
176
     1
290
     0
176
     1
290
     0
176
     1
290
     0
176
     1
290
     0
176
     1
290
     0
176
     1
290
     0
176
     1
 90
       50
176
     1
 40
0.0
176
     1
 40
1.0
176
     1
 90
        0
176
     1
 62
    18
420
        0
176
     1
 90
       50
176
     1
 90
        3
176
     1
 62
     5
420
      255
176
     1
290
     0
176
     1
 90
       50
176
     1
 90
       50
176
     1
 90
       50
176
     1
290
     0
176
     1
 90
       50
176
     1
 62
   256
176
     0
 40
1.0
176
     0
 90
        2
176
     1
  1
strokes_ogs.tif
176
     1
290
     0
176
     1
 40
1.0
176
     1
 40
1.0
176
     1
  0
VISUALSTYLE
  5
173
102
{ACAD_REACTORS
330
99
102
}
330
99
100
AcDbVisualStyle
  2
JitterOff
 70
    20
177
     3
291
     1
 70
    58
 90
        2
176
     0
 90
        2
176
     0
 90
        0
176
     0
 90
        0
176
     0
 40
0.6
176
     0
 40
30.0
176
     0
 62
     7
420
 16777215
176
     0
 90
        1
176
     0
 90
        4
176
     0
 62
     7
176
     0
 62
   257
176
     0
 90
        1
176
     0
 90
        1
176
     0
 40
1.0
176
     0
 90
       10
176
     2
 62
     7
176
     0
 40
1.0
176
     0
 90
        1
176
     0
 90
        6
176
     0
 90
        2
176
     0
 62
     7
176
     0
 90
        5
176
     0
 90
        0
176
     0
 90
        0
176
     0
290
     0
176
     0
 90
        1
176
     0
 40
0.0
176
     0
 90
        0
176
     0
290
     0
176
     1
290
     1
176
     1
290
     1
176
     1
290
     0
176
     1
290
     0
176
     1
290
     0
176
     1
290
     0
176
     1
290
     0
176
     1
290
     0
176
     1
 90
       50
176
     1
 40
0.0
176
     1
 40
1.0
176
     1
 90
        0
176
     1
 62
    18
420
        0
176
     1
 90
       50
176
     1
 90
        3
176
     1
 62
     5
420
      255
176
     1
290
     0
176
     1
 90
       50
176
     1
 90
       50
176
     1
 90
       50
176
     1
290
     0
176
     1
 90
       50
176
     1
 62
   256
176
     0
 40
1.0
176
     0
 90
        2
176
     1
  1
strokes_ogs.tif
176
     1
290
     0
176
     1
 40
1.0
176
     1
 40
1.0
176
     1
  0
VISUALSTYLE
  5
A7
102
{ACAD_REACTORS
330
99
102
}
330
99
100
AcDbVisualStyle
  2
Linepattern
 70
    14
177
     3
291
     1
 70
    58
 90
        2
176
     1
 90
        2
176
     1
 90
        1
176
     1
 90
        0
176
     1
 40
0.6
176
     1
 40
30.0
176
     1
 62
     7
420
 16777215
176
     1
 90
        1
176
     1
 90
        4
176
     1
 62
     7
176
     1
 62
   257
176
     1
 90
        7
176
     1
 90
        7
176
     1
 40
1.0
176
     1
 90
        8
176
     1
 62
     7
176
     1
 40
1.0
176
     1
 90
        1
176
     1
 90
        6
176
     1
 90
        2
176
     1
 62
     7
176
     1
 90
        5
176
     1
 90
        0
176
     1
 90
        0
176
     1
290
     0
176
     1
 90
        1
176
     1
 40
0.0
176
     1
 90
        0
176
     1
290
     0
176
     1
290
     1
176
     1
290
     1
176
     1
290
     0
176
     1
290
     0
176
     1
290
     0
176
     1
290
     0
176
     1
290
     0
176
     1
290
     0
176
     1
 90
       50
176
     1
 40
0.0
176
     1
 40
1.0
176
     1
 90
        0
176
     1
 62
    18
420
        0
176
     1
 90
       50
176
     1
 90
        3
176
     1
 62
     5
420
      255
176
     1
290
     0
176
     1
 90
       50
176
     1
 90
       50
176
     1
 90
       50
176
     1
290
     0
176
     1
 90
       50
176
     1
 62
   256
176
     0
 40
1.0
176
     0
 90
        2
176
     1
  1
strokes_ogs.tif
176
     1
290
     0
176
     1
 40
1.0
176
     1
 40
1.0
176
     1
  0
VISUALSTYLE
  5
174
102
{ACAD_REACTORS
330
99
102
}
330
99
100
AcDbVisualStyle
  2
OverhangOff
 70
    21
177
     3
291
     1
 70
    58
 90
        2
176
     0
 90
        2
176
     0
 90
        0
176
     0
 90
        0
176
     0
 40
0.6
176
     0
 40
30.0
176
     0
 62
     7
420
 16777215
176
     0
 90
        1
176
     0
 90
        4
176
     0
 62
     7
176
     0
 62
   257
176
     0
 90
        1
176
     0
 90
        1
176
     0
 40
1.0
176
     0
 90
        9
176
     2
 62
     7
176
     0
 40
1.0
176
     0
 90
        1
176
     0
 90
        6
176
     0
 90
        2
176
     0
 62
     7
176
     0
 90
        5
176
     0
 90
        0
176
     0
 90
        0
176
     0
290
     0
176
     0
 90
        1
176
     0
 40
0.0
176
     0
 90
        0
176
     0
290
     0
176
     1
290
     1
176
     1
290
     1
176
     1
290
     0
176
     1
290
     0
176
     1
290
     0
176
     1
290
     0
176
     1
290
     0
176
     1
290
     0
176
     1
 90
       50
176
     1
 40
0.0
176
     1
 40
1.0
176
     1
 90
        0
176
     1
 62
    18
420
        0
176
     1
 90
       50
176
     1
 90
        3
176
     1
 62
     5
420
      255
176
     1
290
     0
176
     1
 90
       50
176
     1
 90
       50
176
     1
 90
       50
176
     1
290
     0
176
     1
 90
       50
176
     1
 62
   256
176
     0
 40
1.0
176
     0
 90
        2
176
     1
  1
strokes_ogs.tif
176
     1
290
     0
176
     1
 40
1.0
176
     1
 40
1.0
176
     1
  0
VISUALSTYLE
  5
A3
102
{ACAD_REACTORS
330
99
102
}
330
99
100
AcDbVisualStyle
  2
Realistic
 70
     8
177
     3
291
     0
 70
    58
 90
        2
176
     1
 90
        2
176
     1
 90
        0
176
     1
 90
        2
176
     1
 40
0.6
176
     1
 40
30.0
176
     1
 62
     7
420
 16777215
176
     1
 90
        0
176
     1
 90
        0
176
     1
 62
     7
176
     1
 62
   257
176
     1
 90
        1
176
     1
 90
        1
176
     1
 40
1.0
176
     1
 90
        8
176
     1
 62
   257
176
     1
 40
1.0
176
     1
 90
        1
176
     1
 90
        6
176
     1
 90
        2
176
     1
 62
     7
176
     1
 90
        3
176
     1
 90
        0
176
     1
 90
        0
176
     1
290
     0
176
     1
 90
       13
176
     1
 40
0.0
176
     1
 90
        0
176
     1
290
     0
176
     1
290
     1
176
     1
290
     1
176
     1
290
     0
176
     1
290
     0
176
     1
290
     0
176
     1
290
     0
176
     1
290
     0
176
     1
290
     0
176
     1
 90
       50
176
     1
 40
0.0
176
     1
 40
1.0
176
     1
 90
        0
176
     1
 62
    18
420
        0
176
     1
 90
       50
176
     1
 90
        3
176
     1
 62
     5
420
      255
176
     1
290
     0
176
     1
 90
       50
176
     1
 90
       50
176
     1
 90
       50
176
     1
290
     0
176
     1
 90
       50
176
     1
 62
   256
176
     0
 40
1.0
176
     0
 90
        2
176
     1
  1
strokes_ogs.tif
176
     1
290
     0
176
     1
 40
1.0
176
     1
 40
1.0
176
     1
  0
VISUALSTYLE
  5
182
102
{ACAD_REACTORS
330
99
102
}
330
99
100
AcDbVisualStyle
  2
Shaded
 70
    27
177
     3
291
     0
 70
    58
 90
        2
176
     1
 90
        2
176
     1
 90
        1
176
     1
 90
        2
176
     1
 40
0.6
176
     1
 40
30.0
176
     1
 62
     7
420
 16777215
176
     1
 90
        0
176
     1
 90
        4
176
     1
 62
     7
176
     1
 62
   257
176
     1
 90
        1
176
     1
 90
        1
176
     1
 40
1.0
176
     1
 90
        8
176
     1
 62
   257
176
     1
 40
1.0
176
     1
 90
        1
176
     1
 90
        6
176
     1
 90
        2
176
     1
 62
     8
420
  7895160
176
     1
 90
        3
176
     1
 90
        0
176
     1
 90
        0
176
     1
290
     0
176
     1
 90
        5
176
     1
 40
0.0
176
     1
 90
        0
176
     1
290
     0
176
     1
290
     1
176
     1
290
     1
176
     1
290
     0
176
     1
290
     0
176
     1
290
     0
176
     1
290
     0
176
     1
290
     0
176
     1
290
     0
176
     1
 90
       50
176
     1
 40
0.0
176
     1
 40
1.0
176
     1
 90
        0
176
     1
 62
    18
420
        0
176
     1
 90
       50
176
     1
 90
        3
176
     1
 62
     5
420
      255
176
     1
290
     0
176
     1
 90
       50
176
     1
 90
       50
176
     1
 90
       50
176
     1
290
     0
176
     1
 90
       50
176
     1
 62
   256
176
     0
 40
1.0
176
     0
 90
        2
176
     1
  1
strokes_ogs.tif
176
     1
290
     0
176
     1
 40
1.0
176
     1
 40
1.0
176
     1
  0
VISUALSTYLE
  5
181
102
{ACAD_REACTORS
330
99
102
}
330
99
100
AcDbVisualStyle
  2
Shaded with edges
 70
    26
177
     3
291
     0
 70
    58
 90
        2
176
     1
 90
        2
176
     1
 90
        1
176
     1
 90
        2
176
     1
 40
0.6
176
     1
 40
30.0
176
     1
 62
     7
420
 16777215
176
     1
 90
        1
176
     1
 90
        2
176
     1
 62
     7
176
     1
 62
   257
176
     1
 90
        2
176
     1
 90
        1
176
     1
 40
1.0
176
     1
 90
        8
176
     1
 62
   257
176
     1
 40
1.0
176
     1
 90
        1
176
     1
 90
        6
176
     1
 90
        2
176
     1
 62
     7
176
     1
 90
        3
176
     1
 90
        0
176
     1
 90
        0
176
     1
290
     0
176
     1
 90
        5
176
     1
 40
0.0
176
     1
 90
        0
176
     1
290
     0
176
     1
290
     1
176
     1
290
     1
176
     1
290
     0
176
     1
290
     0
176
     1
290
     0
176
     1
290
     0
176
     1
290
     0
176
     1
290
     0
176
     1
 90
       50
176
     1
 40
0.0
176
     1
 40
1.0
176
     1
 90
        0
176
     1
 62
    18
420
        0
176
     1
 90
       50
176
     1
 90
        3
176
     1
 62
     5
420
      255
176
     1
290
     0
176
     1
 90
       50
176
     1
 90
       50
176
     1
 90
       50
176
     1
290
     0
176
     1
 90
       50
176
     1
 62
   256
176
     0
 40
1.0
176
     0
 90
        2
176
     1
  1
strokes_ogs.tif
176
     1
290
     0
176
     1
 40
1.0
176
     1
 40
1.0
176
     1
  0
VISUALSTYLE
  5
17E
102
{ACAD_REACTORS
330
99
102
}
330
99
100
AcDbVisualStyle
  2
Shades of Gray
 70
    23
177
     3
291
     0
 70
    58
 90
        2
176
     1
 90
        2
176
     1
 90
        3
176
     1
 90
        0
176
     1
 40
0.6
176
     1
 40
30.0
176
     1
 62
     7
420
 16777215
176
     1
 90
        2
176
     1
 90
        2
176
     1
 62
     7
176
     1
 62
     7
176
     1
 90
        1
176
     1
 90
        1
176
     1
 40
40.0
176
     1
 90
        8
176
     1
 62
     7
176
     1
 40
1.0
176
     1
 90
        1
176
     1
 90
        6
176
     1
 90
        2
176
     1
 62
     7
176
     1
 90
        3
176
     1
 90
        0
176
     1
 90
        0
176
     1
290
     0
176
     1
 90
        1
176
     1
 40
0.0
176
     1
 90
        0
176
     1
290
     0
176
     1
290
     1
176
     1
290
     1
176
     1
290
     0
176
     1
290
     0
176
     1
290
     0
176
     1
290
     0
176
     1
290
     0
176
     1
290
     0
176
     1
 90
       50
176
     1
 40
0.0
176
     1
 40
1.0
176
     1
 90
        0
176
     1
 62
    18
420
        0
176
     1
 90
       50
176
     1
 90
        3
176
     1
 62
     5
420
      255
176
     1
290
     0
176
     1
 90
       50
176
     1
 90
       50
176
     1
 90
       50
176
     1
290
     0
176
     1
 90
       50
176
     1
 62
   256
176
     0
 40
1.0
176
     0
 90
        2
176
     1
  1
strokes_ogs.tif
176
     1
290
     0
176
     1
 40
1.0
176
     1
 40
1.0
176
     1
  0
VISUALSTYLE
  5
17F
102
{ACAD_REACTORS
330
99
102
}
330
99
100
AcDbVisualStyle
  2
Sketchy
 70
    24
177
     3
291
     0
 70
    58
 90
        1
176
     1
 90
        2
176
     1
 90
        2
176
     1
 90
        0
176
     1
 40
0.6
176
     1
 40
30.0
176
     1
 62
     7
420
 16777215
176
     1
 90
        2
176
     1
 90
        2
176
     1
 62
     7
176
     1
 62
     7
176
     1
 90
        1
176
     1
 90
        1
176
     1
 40
40.0
176
     1
 90
       11
176
     1
 62
     7
176
     1
 40
1.0
176
     1
 90
        1
176
     1
 90
        6
176
     1
 90
        2
176
     1
 62
     7
176
     1
 90
        6
176
     1
 90
        0
176
     1
 90
        0
176
     1
290
     0
176
     1
 90
        1
176
     1
 40
0.0
176
     1
 90
        0
176
     1
290
     0
176
     1
290
     1
176
     1
290
     1
176
     1
290
     0
176
     1
290
     0
176
     1
290
     0
176
     1
290
     0
176
     1
290
     0
176
     1
290
     0
176
     1
 90
       50
176
     1
 40
0.0
176
     1
 40
1.0
176
     1
 90
        0
176
     1
 62
    18
420
        0
176
     1
 90
       50
176
     1
 90
        3
176
     1
 62
     5
420
      255
176
     1
290
     0
176
     1
 90
       50
176
     1
 90
       50
176
     1
 90
       50
176
     1
290
     0
176
     1
 90
       50
176
     1
 62
   256
176
     0
 40
1.0
176
     0
 90
        2
176
     1
  1
strokes_ogs.tif
176
     1
290
     0
176
     1
 40
1.0
176
     1
 40
1.0
176
     1
  0
VISUALSTYLE
  5
A6
102
{ACAD_REACTORS
330
99
102
}
330
99
100
AcDbVisualStyle
  2
Thicken
 70
    13
177
     3
291
     1
 70
    58
 90
        2
176
     1
 90
        2
176
     1
 90
        1
176
     1
 90
        0
176
     1
 40
0.6
176
     1
 40
30.0
176
     1
 62
     7
420
 16777215
176
     1
 90
        1
176
     1
 90
        4
176
     1
 62
     7
176
     1
 62
   257
176
     1
 90
        1
176
     1
 90
        1
176
     1
 40
1.0
176
     1
 90
       12
176
     1
 62
     7
176
     1
 40
1.0
176
     1
 90
        1
176
     1
 90
        6
176
     1
 90
        2
176
     1
 62
     7
176
     1
 90
        5
176
     1
 90
        0
176
     1
 90
        0
176
     1
290
     0
176
     1
 90
        1
176
     1
 40
0.0
176
     1
 90
        0
176
     1
290
     0
176
     1
290
     1
176
     1
290
     1
176
     1
290
     0
176
     1
290
     0
176
     1
290
     0
176
     1
290
     0
176
     1
290
     0
176
     1
290
     0
176
     1
 90
       50
176
     1
 40
0.0
176
     1
 40
1.0
176
     1
 90
        0
176
     1
 62
    18
420
        0
176
     1
 90
       50
176
     1
 90
        3
176
     1
 62
     5
420
      255
176
     1
290
     0
176
     1
 90
       50
176
     1
 90
       50
176
     1
 90
       50
176
     1
290
     0
176
     1
 90
       50
176
     1
 62
   256
176
     0
 40
1.0
176
     0
 90
        2
176
     1
  1
strokes_ogs.tif
176
     1
290
     0
176
     1
 40
1.0
176
     1
 40
1.0
176
     1
  0
VISUALSTYLE
  5
A0
102
{ACAD_REACTORS
330
99
102
}
330
99
100
AcDbVisualStyle
  2
Wireframe
 70
     5
177
     3
291
     0
 70
    58
 90
        0
176
     1
 90
        2
176
     1
 90
        0
176
     1
 90
        0
176
     1
 40
0.6
176
     1
 40
30.0
176
     1
 62
     7
420
 16777215
176
     1
 90
        1
176
     1
 90
        4
176
     1
 62
     7
176
     1
 62
   257
176
     1
 90
        1
176
     1
 90
        1
176
     1
 40
1.0
176
     1
 90
        0
176
     1
 62
   257
176
     1
 40
1.0
176
     1
 90
        1
176
     1
 90
        6
176
     1
 90
        2
176
     1
 62
     7
176
     1
 90
        3
176
     1
 90
        0
176
     1
 90
        0
176
     1
290
     0
176
     1
 90
        1
176
     1
 40
0.0
176
     1
 90
        0
176
     1
290
     0
176
     1
290
     1
176
     1
290
     1
176
     1
290
     0
176
     1
290
     0
176
     1
290
     0
176
     1
290
     0
176
     1
290
     0
176
     1
290
     0
176
     1
 90
       50
176
     1
 40
0.0
176
     1
 40
1.0
176
     1
 90
        0
176
     1
 62
    18
420
        0
176
     1
 90
       50
176
     1
 90
        3
176
     1
 62
     5
420
      255
176
     1
290
     0
176
     1
 90
       50
176
     1
 90
       50
176
     1
 90
       50
176
     1
290
     0
176
     1
 90
       50
176
     1
 62
   256
176
     0
 40
1.0
176
     0
 90
        2
176
     1
  1
strokes_ogs.tif
176
     1
290
     0
176
     1
 40
1.0
176
     1
 40
1.0
176
     1
  0
VISUALSTYLE
  5
180
102
{ACAD_REACTORS
330
99
102
}
330
99
100
AcDbVisualStyle
  2
X-Ray
 70
    25
177
     3
291
     0
 70
    58
 90
        2
176
     1
 90
        2
176
     1
 90
        1
176
     1
 90
        1
176
     1
 40
0.5
176
     1
 40
30.0
176
     1
 62
     7
420
 16777215
176
     1
 90
        1
176
     1
 90
        0
176
     1
 62
     7
176
     1
 62
   257
176
     1
 90
        1
176
     1
 90
        1
176
     1
 40
1.0
176
     1
 90
        8
176
     1
 62
     7
176
     1
 40
1.0
176
     1
 90
        1
176
     1
 90
        6
176
     1
 90
        2
176
     1
 62
     7
176
     1
 90
        3
176
     1
 90
        0
176
     1
 90
        0
176
     1
290
     0
176
     1
 90
       13
176
     1
 40
0.0
176
     1
 90
        0
176
     1
290
     0
176
     1
290
     1
176
     1
290
     1
176
     1
290
     0
176
     1
290
     0
176
     1
290
     0
176
     1
290
     0
176
     1
290
     0
176
     1
290
     0
176
     1
 90
       50
176
     1
 40
0.0
176
     1
 40
1.0
176
     1
 90
        0
176
     1
 62
    18
420
        0
176
     1
 90
       50
176
     1
 90
        3
176
     1
 62
     5
420
      255
176
     1
290
     0
176
     1
 90
       50
176
     1
 90
       50
176
     1
 90
       50
176
     1
290
     0
176
     1
 90
       50
176
     1
 62
   256
176
     0
 40
1.0
176
     0
 90
        2
176
     1
  1
strokes_ogs.tif
176
     1
290
     0
176
     1
 40
1.0
176
     1
 40
1.0
176
     1
  0
DICTIONARYVAR
  5
F0
102
{ACAD_REACTORS
330
66
102
}
330
66
100
DictionaryVariables
280
     0
  1
1:1
  0
DICTIONARYVAR
  5
EF
102
{ACAD_REACTORS
330
66
102
}
330
66
100
DictionaryVariables
280
     0
  1
STANDARD
  0
DICTIONARYVAR
  5
89
102
{ACAD_REACTORS
330
66
102
}
330
66
100
DictionaryVariables
280
     0
  1
STANDARD
  0
DICTIONARYVAR
  5
1B7
102
{ACAD_REACTORS
330
66
102
}
330
66
100
DictionaryVariables
280
     0
  1
Imperial24
  0
DICTIONARYVAR
  5
1B8
102
{ACAD_REACTORS
330
66
102
}
330
66
100
DictionaryVariables
280
     0
  1
Imperial24
  0
DICTIONARYVAR
  5
67
102
{ACAD_REACTORS
330
66
102
}
330
66
100
DictionaryVariables
280
     0
  1
2
  0
DICTIONARYVAR
  5
6B
102
{ACAD_REACTORS
330
66
102
}
330
66
100
DictionaryVariables
280
     0
  1
1
  0
DICTIONARYVAR
  5
14D
102
{ACAD_REACTORS
330
66
102
}
330
66
100
DictionaryVariables
280
     0
  1
0
  0
DICTIONARYVAR
  5
14E
102
{ACAD_REACTORS
330
66
102
}
330
66
100
DictionaryVariables
280
     0
  1
0
  0
DICTIONARY
  5
194
330
22
100
AcDbDictionary
280
     1
281
     1
  0
DICTIONARY
  5
188
330
97
100
AcDbDictionary
280
     1
281
     1
  3
FBXASSET
360
189
  0
DICTIONARY
  5
186
330
96
100
AcDbDictionary
280
     1
281
     1
  3
FBXASSET
360
187
  0
DICTIONARY
  5
110
330
98
100
AcDbDictionary
280
     1
281
     1
  3
BUMPTILE
360
112
  3
DIFFUSETILE
360
111
  3
FBXASSET
360
18A
  3
OPACITYTILE
360
113
  3
REFLECTIONTILE
360
114
  0
DICTIONARY
  5
104
330
87
100
AcDbDictionary
280
     1
281
     1
  3
ACAD_ROUNDTRIP_2008_TABLESTYLE_CELLSTYLEMAP
360
C907
  0
XRECORD
  5
189
102
{ACAD_REACTORS
330
188
102
}
330
188
100
AcDbXrecord
280
     1
 70
     1
 90
429727718
  1
508B35C9-AEE7-456F-BE74-D52651303AC6
310
504B03040A0000080000B670623B3DEE336E79000000790000001B0000006175746F6465736B2D64657369676E2D7061636B6167652E786D6C3C3F786D6C2076657273696F6E3D22312E302220656E636F64696E673D227574662D3822203F3E3C666F726D6174733E3C666F726D61743E687474703A2F2F736368656D612E
310
6175746F6465736B2E636F6D2F64657369676E2D7061636B6167652F323030393C2F666F726D61743E3C2F666F726D6174733E504B0304140006080800B670623BD486FD9CA0000000F4000000130000005B436F6E74656E745F54797065735D2E786D6C7D8EC10E82300C865F65E91D8A1E8C310C0EEA1BF002731658846E
310
D98AC1B77784ABF1D8FE5FBFBF75BBCE937A534CCEB38643598122B6FEE978D0B0485F9C41B54DDD7D022595594E1A469170414C76A4D9A4D207E29CF43ECE46F218070CC6BECC4078ACAA135ACF422C856C0E68EA1BF5669944DDD7BCDE7B1F8E415D77AECB980613C2E4AC91FC167A2B244592486606FC29C8FD7F045B9A
310
EF7053A7E60B504B0304140006080800B670623B28ED286BEB0000007C01000008000000636F72652E786D6C8D90416EC3201045AF82665B6183218D6D61A254764FD00B204C5C94182C03558F5F9C3852BBEB6A467FFE9B197D71FA9E6FE8CBACC17AD7012D0820E3B41FAD9B3A48F1826B40272956EFE32F1B20A766D3C1
310
268314D3EAD3B24BDABB685CCCAAF3A3D94515828980F42D371D04FD696655A814B3235C8B45E9AB9A4C419F5D8653B2237A1CB163DE672FD6AC209BF3C08E0D1B30EB19C3FC9D72FCC6EB231EFA33EDE96BDD341517E5064B11EDFCBCAF57A3A2194156843498524CAA0FCA5B7268F9E185D42D21A2DCEC7FA0B48CFF8492
310
759155FBBB0F2C80A4F991FB408A72CB22977B50B96EB9C91F504B0304140006080800B670623B55019EA25F0000007C00000007000000636E782E786D6C4DCB3B0E80201045D1AD90E915ED2CF8AC45050C11660C8261F98AB1B07AC9C97D42D718D865D3E909258CFD00CCE24AC6E326A164D74DC0B4128928FF32603847
310
2BA13128B1252AC747C6BAB984FC68F0B87FE8960A5C09FE86CFB69FBA01504B0304140006080800B670623B7BC41AC871010000D40300000C0000006662782F636F72652E786D6CC553ED6E8320147D15C2DF4501B56B6D90A64BBB27D80B50A5CE54C120983EFEAE1F4DD7A56BBA5FF3879273EEE59E7310BE393735EA95
310
ED2AA333CC428A91D2B9292A5D66D8BB63B0C26823B835C67D2BC348CB46657880B1E0A535BE9DA1DC68A7B403549B42CDA0EC3AE530CA6B5864B8CB3F552343E91D5474A7B095F949962A6421D0502778E72C0840D390E18DC5F170E664C205F7BE2A66B62A605A75AC94C522DDEEE3651AEF837817C741F2CE92E02D592D
310
83FD6ECB76EC7595A651C2C9D02CB8AB9A8BBADC2AE954814544691A3016D0E883256BBA58278B17BA5A53CAC9507ED3E4DBE2C9265F691747B3DCA9ADC382819091F8E1162272A8933DE82182932144F88C09DF060D8140C84E1EEA8B8F1340BDCA9DB1093085F157AA97B557309586747CD0EF0B4EA64E983A6E0EAEEFCE
310
889E9EF17847386AA94B30211D2C0FDE0D3AF9A4610EAD5536E8DD1969631B593F67E381C33F5157F17725E5A636F6BF1491F980C8FC7B90E13E8A2F504B0304140006080800B670623B70102A487D0000009D0000000B0000006662782F636E782E786D6C4DCCD10A83201886E15B91FFDC95A5C30335ACCDFB886521330D
310
A76397BF1A1DECE883878F57749FD5A3B74D2F17830472A901D9F088930B8B849267CC01754AA418F3DF0D5018572BE160506249B16C274D761E8BCFBB7A179E27F65CB39A0F14D396184C9921B81F34C3ACA1B4B99ABB6E6F062A25AA5F69DF23ACBE504B0304140006080800B670623B3610CA3329010000120200003100
310
00006662782F42384135303843342D343331462D343546312D424341352D3532343432364645413344462F636F72652E786D6C8D515B6EC32010BC0AE22B55850D0E446E848992B43E412FE000495162B07854397EA176A4F62F3F2C9A9D991D58BEBB8F37F0AD7D30CE76905418026DA553C65E3A98E219B510EC04F7CEC5
310
3F3408EC30EA0E16180A7EF12E4D0B249D8DDAC68C5AA7F4020E21E80881BCE54B0783FCD2E3500D296646B856D320AFC34557A4CAEDCC133C449F0380794839A138B47B86DB2345744D7A44594FD0E1B867883594369BFE63BF7EEF793D0B054FC9A8456E548E63CE46FB674D8A58F068C6477CE9F510B582A2C1F80D1182
310
70F349E816B32D65AFB8DD62CCEB42FF274A937A52948C8DEB66893BCB021484D7734370E5D2E9F608A3EF93F3119479ABA0E50B14B8C298119A43CCC4FCFCECB8A18B6388CEE7EF5D5D4F994BD86CBBA182D76543B9FCAE2FD7B24DF103504B0304140006080800B670623B1B8617914E0100003303000030000000666278
310
2F42384135303843342D343331462D343546312D424341352D3532343432364645413344462F636E782E786D6CD593C16EC32010447F0571AD6CE3D489D20813A9877E410FBD62D82434182CC055F3F75D1292E692438FBD206B7698593D61BEFD1E2DF982108D773D6D6B460938E5B571FB9ECE6957AD29D90A1EBC4F7736
310
4A9C1CA1A759A682EF839FA72269D8C9D92654AD71C72206887E0E0A22CAF926B15E498B01E0AA19451807D01A34B919F16B070157417138917400F2F6FA41FCF0092A45DEE414C19BDC21783E4BD39D891265658C3D8DEA00A3ACE59CBC8678ACB54CB26EEB6BD7839D7E9348BE70AD9C8321B9BCA7F9A4A26C542347DEE0
310
50F09802D22BA6749A800A394DD62899107273365E3C82CFC6A55557BC06C10774B7ABE7AEC3B0F34CF06446280E154026D0542C187BA9DAB6628BF7B6DBB0E5A65B3EB1F58631DE64BBE083F7B65CC218087E22CABB042E51D1F2268F1FE12B3EA24D40D63E9CFE00120194D60B9D5BC67FE6D39CDF37E20AF817881F504B
310
0304140006080800B670623BBFEF2E3B690500003C100000340000006662782F42384135303843342D343331462D343546312D424341352D3532343432364645413344462F6F626A656374732E786D6CAD575D739B3814FD2B0CFB0C98D84E931D4227B6938EA793B6534F3BFB90198F0099B001899144EAECAFDF231018B0
310
D37A3FFC609090EEE7B94757C1FB7D915B2F54C88CB31BDB7727B64559CC938CA53776A576CE956DBD0F03C1B9EA2DB32D460A7A63EB693B0C52C1ABD24C257447AA5C8D66EF177F5832A68CDA569C13296F6C193FD182B8A4523CA1F2D94D88226EBADBBBBEDB2C1C8A4D05299F46424B222853B014F30C52ACC6287F389C
310
D85E1878FA7B18E87FB36AFAF62AAFF667A83F635211161F291B8999FAB3D5DDC5FCDA99CF6653677679E13B8BFBC5CAF1DF4D27CBCBE5F2FAF6EE1A8AA51290642C117467871F101B91C581D77CEA2C36869F3229E68CD1B8F61F1ED6361B89092D294B90C78C4A68EB793D190E7D1D9BDEE7A91E1B95FDE9F3BCEAEFE809
310
6A6D6F9F7D4B79F4275C90E7A04248AA51D5C4C738DAE06F72885AC4796EBE65D22A88A22223B995679120E2D50EB1542F098381188D4EA111AE3DB043FF20AF6F2B4AE3D7D83D65E5AECA730D4D3BAC91BD05FEA992B565D95F549CD6069B90AB2A63EACA38A45E4B6A87D781574F86817E4C2FCCC72690D62E2729520E37
310
9BAF234797BAF6D62B3BFC781FED37BA1E4F2B2F052FA9501A3E80569BB8F6A9A364D4FA67654E6F803383981F82F21591FF84F23D9882BC896C3FDBCF8C162508933B2E0AE4C69DD43F6BD2BE38DDDBF10BF86CB4FA784D37F3AF16075E67EC9030DECA1FC0A55373F5DFF3378C591FA9BDF485C10B0A8C8BA909E5262639
310
A8E72163488806A595734C81CB77D1DE0ED7604A303B76913CEC0272F412782FF88EFF4636D8AA56DF7B322474C4B767303F625997056C7B032C473C592B36CEBD15F3F9FF5233B7ABCDC74D257624A60F8658567497B14CE1EC3C80B76FD02011038F9EE9EB0F2E12387A9C844D3F09855125116D1D731DF8B43D2CF4E0A0
310
79A020C6BE946BCE0B7EA1E1219331CD73C228AF5A2DDD31A4B1DA918CE91350854D40A71723140BFA92E94E62B0626016CEFA5864A50E5977E8753CEDBEE1CBB7F52780D20E17AF0BA0F5F9B02A3AD07DCC732EB6D1EBB661421BE0C39E21BABF0FE16D22EA6929407C8DE596724C88B749B6DB5512BC7B228ADFD7CB7EA6
310
3A22397E690BA8D5D8D4E40CEC8CDA23C2C0B7D5898640101CEC9C6D331CE328CB93CAFBBAC70A642DF70DF95155945B52F08AA973C23469FD69ADEF84F7BB18F983A8F8C90E37F5D35980B2139A1C523540813E824EF83448CF7C72B598CE97D7CEEDDDDD3B6736BFBC771677EF66CE6A7E7139F7A793E9EDF2B2B3A8B624
310
0CDA13AA5F8388264EC4A0129909F3B7F5A16CEDF08128E97D680ACA4B9BE7B7B58BB638F0B00700EF36AE8B32A705658A68F83EE897FC2B41573190D1CCAF0B92D233A47CFEB019D9809933F67DD1A5467F8CF69AD9A5AE859342D45355448C64F968A371DC2D596ADC6E43D93D1B466F877A64E2893E54F23C4B40388995
310
525E5005DA3983ED45412510D3EFCA13737B3863F74BD30F2A12E5B4B5E489A025CE25500DB855B11ACE5BBFA185D35DD48D8DC3CE7DC69F2944DB42AA6F6CF09BCA622ADD08C7A36E7C6AE18000BAB08E040135C2D21C9D75B3A91B77BB746C403F38018DFE6EC939DD92F16B40BC05294B9CDA035AAD6D330AE27FE4786B
310
8E45145EA34A75BE1C263A676A35A8ACC6297337400BF16C54EF515F3F77CB77EB3583889C754FFA29081AA98E2222ADEF05DA3E63D2EDEA8B8756C05A7FB6CABC4A91CBF325398202CC952E70A008A830324BA200D5E5EF8F5F04C75DB4B0EE3340E071C98B823333B83577596BF3849B69F2085AA0FAFA212F26BEFF5877
310
FDE622B28D88A42E49E43326DA82D31E8CB006401E1DA726059ECEC168F97A6599036306A135688F9AD2E61A6EA178F4CD51974A9F2CCB9F36FE5EBD14601068D9C3BF01504B0304140006080000B670623B000000000000000000000000350000006662782F42384135303843342D343331462D343546312D424341352D35
310
32343432364645413344462F76657274696365732E62696E504B0304140006080800B670623BF270F1330600000004000000360000006662782F42384135303843342D343331462D343546312D424341352D3532343432364645413344462F747269616E676C65732E62696E636660600000504B0304140006080000B67062
310
3B000000000000000000000000370000006662782F42384135303843342D343331462D343546312D424341352D3532343432364645413344462F617474726962757465732E62696E504B0304140006080800B670623B08DA0BD19000000041010000360000006662782F42384135303843342D343331462D343546312D4243
310
41352D3532343432364645413344462F6469726563746F72792E786D6C858F410AC3201045AF22B36F53E9A60B35CBEEBAE80D244E44489C6234F4F835464A48035D0DF398FF9F8AF63D0E6CC63039F212F8F9020C7D47C6792B21C5FE7403D62A1188E2E60C98D7234A5830286103A55745067B9D86B8A3CF9C7F90C11DE6
310
07FB144396D7B6A82D282E9A152AD114D5EF2CB866EEE831B8EEA07A7BB5A8D7D61A2BAAEB7FD5F70921FF497D00504B0304140006080800B670623B3B4606F3FE000000A00100003B0000006662782F42384135303843342D343331462D343546312D424341352D3532343432364645413344462F7265736F75726365732F
310
636F72652E786D6C8D504B6E833010BD0A9A6D65B08134808CA354A427E8052C332156828DFCA97AFC9A40A576D7CDCCE87D344F8F9FBEE647F689CE6B6B7A6039850C8DB2A336530F315C4903D94970676DF82583CCC8197B5861107C72362E3BA4AC096842428D1D7107A5F71820538F74F4E0D50D6799CB1892C2DFF345
310
AABB9C306779A2934E701F5C0A906D4FD609C2A1B7D129F4BCD858C163D4E3AED163FAA9AF1A1D88F67CA98E6D35906AA82A52BFB39ABCD5CD915C86331BD86BD3B665CD8BD52C78D0F34F46E550061C419494B6843142CB0F5677F4D0D58717DA7494F26295FF31C565FCA7296A13AA728FBBD93C0896823C09C18BB5AFB4
310
9E65A6BD762BBE01504B010214000A0000080000B670623B3DEE336E79000000790000001B00000000000000000000000000000000006175746F6465736B2D64657369676E2D7061636B6167652E786D6C504B01021400140006080800B670623BD486FD9CA0000000F40000001300000000000000000000000000B2000000
310
5B436F6E74656E745F54797065735D2E786D6C504B01021400140006080800B670623B28ED286BEB0000007C010000080000000000000000000000000083010000636F72652E786D6C504B01021400140006080800B670623B55019EA25F0000007C000000070000000000000000000000000094020000636E782E786D6C50
310
4B01021400140006080800B670623B7BC41AC871010000D40300000C00000000000000000000000000180300006662782F636F72652E786D6C504B01021400140006080800B670623B70102A487D0000009D0000000B00000000000000000000000000B30400006662782F636E782E786D6C504B01021400140006080800B6
310
70623B3610CA3329010000120200003100000000000000000000000000590500006662782F42384135303843342D343331462D343546312D424341352D3532343432364645413344462F636F72652E786D6C504B01021400140006080800B670623B1B8617914E010000330300003000000000000000000000000000D10600
310
006662782F42384135303843342D343331462D343546312D424341352D3532343432364645413344462F636E782E786D6C504B01021400140006080800B670623BBFEF2E3B690500003C10000034000000000000000000000000006D0800006662782F42384135303843342D343331462D343546312D424341352D35323434
310
32364645413344462F6F626A656374732E786D6C504B01021400140006080000B670623B0000000000000000000000003500000000000000000000000000280E00006662782F42384135303843342D343331462D343546312D424341352D3532343432364645413344462F76657274696365732E62696E504B010214001400
310
06080800B670623BF270F133060000000400000036000000000000000000000000007B0E00006662782F42384135303843342D343331462D343546312D424341352D3532343432364645413344462F747269616E676C65732E62696E504B01021400140006080000B670623B00000000000000000000000037000000000000
310
00000000000000D50E00006662782F42384135303843342D343331462D343546312D424341352D3532343432364645413344462F617474726962757465732E62696E504B01021400140006080800B670623B08DA0BD1900000004101000036000000000000000000000000002A0F00006662782F42384135303843342D3433
310
31462D343546312D424341352D3532343432364645413344462F6469726563746F72792E786D6C504B01021400140006080800B670623B3B4606F3FE000000A00100003B000000000000000000000000000E1000006662782F42384135303843342D343331462D343546312D424341352D3532343432364645413344462F72
310
65736F75726365732F636F72652E786D6C504B0506000000000E000E0080040000651100000000
  0
XRECORD
  5
187
102
{ACAD_REACTORS
330
186
102
}
330
186
100
AcDbXrecord
280
     1
 70
     1
 90
429727718
  1
887D55A9-D0DD-414E-B741-A7DCD4DA2B4C
310
504B03040A0000080000B670623B3DEE336E79000000790000001B0000006175746F6465736B2D64657369676E2D7061636B6167652E786D6C3C3F786D6C2076657273696F6E3D22312E302220656E636F64696E673D227574662D3822203F3E3C666F726D6174733E3C666F726D61743E687474703A2F2F736368656D612E
310
6175746F6465736B2E636F6D2F64657369676E2D7061636B6167652F323030393C2F666F726D61743E3C2F666F726D6174733E504B0304140006080800B670623BD486FD9CA0000000F4000000130000005B436F6E74656E745F54797065735D2E786D6C7D8EC10E82300C865F65E91D8A1E8C310C0EEA1BF002731658846E
310
D98AC1B77784ABF1D8FE5FBFBF75BBCE937A534CCEB38643598122B6FEE978D0B0485F9C41B54DDD7D022595594E1A469170414C76A4D9A4D207E29CF43ECE46F218070CC6BECC4078ACAA135ACF422C856C0E68EA1BF5669944DDD7BCDE7B1F8E415D77AECB980613C2E4AC91FC167A2B244592486606FC29C8FD7F045B9A
310
EF7053A7E60B504B0304140006080800B670623BBC1638F5EC0000007C01000008000000636F72652E786D6C8D90416EC3201045AF82665B61836BE2D8C24471DB9CA01740401C94182C03558F5F9C3852BBEB6A467FFE9B197D7EF89E6EE8CB2CC17AD7032D0820E394D7D68D3DA478C67B4007C117EFE32F1B202727D3C3
310
2A83E0E3E2D3BC49CABB685CCCAAF3DA6CA20CC14440EA969B1E82BA98491632C5EC08D76296EA2A4753D06797E194AC468F2356E77DF66CCD02825543D50CACC62D39ED70FDC68EB8FD68F6F8787A6784342D1DDA1D2F5758F068A7E77DB518198D065111D2624A31A93E69DD11D6D5EC85EC3B4278B9DAFF4069D6FF8492
310
75F1B5DADE7D600104CD8FDC0782976B16B9DC83CA75CD4DFC00504B0304140006080800B670623B55019EA25F0000007C00000007000000636E782E786D6C4DCB3B0E80201045D1AD90E915ED2CF8AC45050C11660C8261F98AB1B07AC9C97D42D718D865D3E909258CFD00CCE24AC6E326A164D74DC0B4128928FF326038
310
472BA13128B1252AC747C6BAB984FC68F0B87FE8960A5C09FE86CFB69FBA01504B0304140006080800B670623B3586FFB671010000D40300000C0000006662782F636F72652E786D6CC553ED6E8320147D15C2DF4541A76D6D90A6DDD627D80B50A4CE54C120983EFEAE1F4DD7A55BBA5FF3879273EEE59E7310B6393735EA
310
95ED2AA3731C851423A5A5292A5DE6D8BB63B0C268C39935C67D29C3488B46E578803167A535BE9D2169B453DA01AA4DA16650749D7218C91A1639EEE4876A4428BC838AEE14B6429E44A9C228041AEA38EB9C0501681A32BC313F1ECE8C4C3867DE57C5CC56054CAB8E95B298A7F12E5EEED224C8E87E11242FE936C8DE96
310
AB60BB7F4D295D66D12E5B30323473E6AAE6A24E5A259C2A308F29CD82280A68FC1E256B9AAE93F489AED694323294DF34F9B678B0C957DA3DC7B3DCA9ADC33C022123F1CD2D44E450277AD04338234388F01913BE0D1A0281909D38D4171F27807A259DB1093085F157AA17B557309586747CD0CF0B46A64E983A6E0EAEEF
310
CE881F9EF1FB8E70D44297604238581EBC1B74B249C31C5AAB6CD0BB33D2C636A27ECCC62F0EFF445DC5DF95244D6DEC7F2922F30191F9F720C37DE49F504B0304140006080800B670623B4220A0FF7D0000009D0000000B0000006662782F636E782E786D6C4DCCD10A83201886E15B91FFDCE542CB0335D0EC3E6259C84A
310
C3E9D8E5AF46073BFAE0E1E315DD675BD1DBA5978F41C2FD4600B9F088930F8B849267CC01754AA418F3DF0D50183727E164506249B1EC174D6E1ECB9A0F5D7D785E68DB8151CD286E5A5363CA6B8A39E90D36D40E96B086F55A43A544F52B1D7B86D517504B0304140006080800B670623B2FA3FEDE290100001202000031
310
0000006662782F45374635344235342D363743322D343832342D383044432D4334454645303536354442422F636F72652E786D6C8D515B6EC32010BC0AE22B55850D2E386E848994D7097A0117488A1283C5A3CAF10BB523B57FF961D1ECCCECC0F2ED7DBC816FED8371B687A4C210682B9D32F6D2C314CFA883602BB8772E
310
FEA141608751F7B0C050F08B77695A20E96CD43666D43AA5177008414708E42D5F7A18E4971E876A483133C2B59A06791D2EBA22556E679EE021FA1C00CC43CA09C5717D6274C7286AD7FB06D1AEA1A8C3873DDAD3E3E98859CB0EBB1DAF67A1E02919B5C88DCA71CCD968FFAC49110B1ECDF8882FBD1EA256503418BF2342
310
106E3E08DD60B6A1EC15771B8C795DE8FF4469524F8A92B1F1AD59E2CEB20005E1F5DC105CB9F4797B84D1F7C9F908CABC55D0F2050A5C61CC1AD2F27A26E6E767C7962E8E213A9FBF7775FDCC5CC266DB960A5E970DE5F2BBBE5CCB36C50F504B0304140006080800B670623B1B8617914E01000033030000300000006662
310
782F45374635344235342D363743322D343832342D383044432D4334454645303536354442422F636E782E786D6CD593C16EC32010447F0571AD6CE3D489D20813A9877E410FBD62D82434182CC055F3F75D1292E692438FBD206B7698593D61BEFD1E2DF982108D773D6D6B460938E5B571FB9ECE6957AD29D90A1EBC4F77
310
364A9C1CA1A759A682EF839FA72269D8C9D92654AD71C72206887E0E0A22CAF926B15E498B01E0AA19451807D01A34B919F16B070157417138917400F2F6FA41FCF0092A45DEE414C19BDC21783E4BD39D891265658C3D8DEA00A3ACE59CBC8678ACB54CB26EEB6BD7839D7E9348BE70AD9C8321B9BCA7F9A4A26C542347DE
310
E050F09802D22BA6749A800A394DD62899107273365E3C82CFC6A55557BC06C10774B7ABE7AEC3B0F34CF06446280E154026D0542C187BA9DAB6628BF7B6DBB0E5A65B3EB1F58631DE64BBE083F7B65CC218087E22CABB042E51D1F2268F1FE12B3EA24D40D63E9CFE00120194D60B9D5BC67FE6D39CDF37E20AF817881F50
310
4B0304140006080800B670623B29652116630500003C100000340000006662782F45374635344235342D363743322D343832342D383044432D4334454645303536354442422F6F626A656374732E786D6CAD575D739B3814FD2B0CFB0C989834C90EA1639B24E3E9A6EDD4D3CE3E64C623834CD8006224913AFDF57B040203
310
B65BEF871F0C12D2FD3CF7E8CA7FBFCB33E3957291B2E2D674ED8969D02262715A24B76625B7D6B569BC0F7CCE98EC2D338D82E4F4D654D366E0279C55A59E8AE99654991CCDDECFFF3444440B6A1A514684B83545F44C7362934AB2988A173B2692D8C97667BB76B3702836E1A47C1E092D09A78584A5982F20C5688C7287
310
C389E904BEA3BE07BEFAD7ABA6A75739B53F43FD69212429A20365233153D70BEF2E2E6FAC4BCF9B5ADEBB0BD79ADFCF43CBBD9A4E16EF168B9BD9DD0D140BC921495BC2E9D60C1E101B9E46BED37CEA2CD6861F3329624541A3DA7F7858DBAC25C6B4A4458C3CA654405BCFEBC970E8AAD8F43E4FD558ABEC4F9FE7557F47
310
4F506B7BFBEC5BCA367FC105710E2AB8A00A554D7CB4A30DFE26FBA86D18CBF4B75418399194A72433B274C3097F33032C554B027F2046A1932B842B0FCCC0DDCBEBDB8AD2F835768F59B9ADB24C41D30C6A64AF817F2A456D59FA83F2E3DA60137255A585BCD60EC9B7929AC18DEFD49381AF1ED30BFDB109A4B1CD488294
310
C3CDE6EBC8D185AABD6568061FEE37BB95AAC7E3CA4BCE4ACAA5820FA0D526AE7DAA2869B5EE5999531BE0CC20E6FBA07C41E43FA27CF7A6206F3CDD793B4F6B919C1462CB788EDCD893FA674CDA17AB7B3B7C019F8D561FAEE966FED562DFE98C1D12C6A9FC015C2A35D7FF3D7FC398F591DA4B5FE0BFA2C0189FEA50AE22
310
92817A1ED3020951A03432862970F976B33383259812CC8E5D240BBA801CBCF8CE2BBEE3BF910DB6AAD5F79E05123AE2DB33981FB1ACCB02B69D00CB014FD68AB573A7627EF9BFD4CC2C5C7D58557C4B22FAA88925A4DBB44825CECE3D78FB060D1231F0E885BE7D673C86A3874958F593906B5502D1563157814FDAC3420D
310
F69A070A22EC4B98E23CFF171A1E5311D12C23056555ABA53B8614563B92D17D02AAB009E8F46284624E5F53D5490C560CCCC2591FF1B45421EB0EBD8EA7ED13BE7C5D7E0428CD60FEF60779EB13E6664FF711CB185F6FDED60D139A001FF60CD1FD6D086F1D51474901E26B2CB794A343BC8ED3EDB612E0DD2351FCB65CF4
310
33D511C9E14B5B40ADC6A6263DB0336A8F700DDF56271A024E70B0B3629DE21847591E55DED73D56206AB927E46FAABC5C939C55853C274C93D69FD6FA4E78BF8B11DF898C9ECD60553FAD39283BA6F18984AA23E8884F83F45C5F5F859797B31B2B9C84A1E5B9DE9D35BFF25C6B76152E422F9C5DCC3D847F5801ED09D5AF
310
41441327A25FF15487F9EB725FB666F048A4701E9A827292E6F97569A32DF61DEC01C0BB8DCBBCCC684E0B49147C1FD54BF685A0AB18C868E6973949E819523E3DAC463660E68C7D9F55A9D1EFA3BD7A76A16AE1A810F95CE59B82A4D968A376DC2E8B44BBDD86B27B368CDE0ED548C7137DA860591A83706223A12CA712B4
310
7306DBF39C0A20A6DF95C7FAF670C6EED7A61F946493D1D6926782963813403548A78AE470DEF80D2D9CEAA26E4D1C76F60BFE74219A06527D6B82DF641A51616F703CAAC6A7160E08A00BEB4810A0274592A1B36E3675E36E978A0DE80727A0D6DF2D39A75BD27E0D8837276589537B40ABB56D5A41F48F1C6FCD3188C4EB
310
A6929D2FFB89CE995A4D00AE813BDD032DC48B56BD437DFDDC2DD7AED70C2272D63DE9A72068A45A92F0A4BE17A8A06B9366E16707AD80B1FC649459952097E74BB23805982B55E0401150A165964402AA8BDF9F3E7386BB686EDCA780C0D382E5392BF460A6EFB2C6EA1937D3F809B440D5F5435C4C5CF7A9EEFAF54564BD
310
2182DA24162F98680B4E7930C21A0079709CEAEB99A372305ABE0C0D7D6078105A83F6A0296DAEE1068A47DD1C55A9F4C9B2FC69E3EFD44B81028E963DF81B504B0304140006080000B670623B000000000000000000000000350000006662782F45374635344235342D363743322D343832342D383044432D433445464530
310
3536354442422F76657274696365732E62696E504B0304140006080800B670623BF270F1330600000004000000360000006662782F45374635344235342D363743322D343832342D383044432D4334454645303536354442422F747269616E676C65732E62696E636660600000504B0304140006080000B670623B00000000
310
0000000000000000370000006662782F45374635344235342D363743322D343832342D383044432D4334454645303536354442422F617474726962757465732E62696E504B0304140006080800B670623B08DA0BD19000000041010000360000006662782F45374635344235342D363743322D343832342D383044432D4334
310
454645303536354442422F6469726563746F72792E786D6C858F410AC3201045AF22B36F53E9A60B35CBEEBAE80D244E44489C6234F4F835464A48035D0DF398FF9F8AF63D0E6CC63039F212F8F9020C7D47C6792B21C5FE7403D62A1188E2E60C98D7234A5830286103A55745067B9D86B8A3CF9C7F90C11DE607FB144396
310
D7B6A82D282E9A152AD114D5EF2CB866EEE831B8EEA07A7BB5A8D7D61A2BAAEB7FD5F70921FF497D00504B0304140006080800B670623B6378F24DFF000000A00100003B0000006662782F45374635344235342D363743322D343832342D383044432D4334454645303536354442422F7265736F75726365732F636F72652E
310
786D6C8D504B6E833010BD0A9A6D65B0094E42641C85B639412F6099496225D8C89FAAC7AF09546A77DDCC8CDE47F3F4C4F16B7C149FE88371B603565228D06A37187BED20C50BD9437194C23B177FC9A0B06AC40E6618A4B87A97A615D2CE46B431A3D60DB8822A048C50E8473E3A08FA86A32A558A5911EEE5A4F45D5DB1
310
6465A6B34E8A107D0E502C4FE609D26370C96B0CA25A58295232C3AA3143FE692E063D485EF7F5AEE71BD2D2F39634AFFC44DAF7DD9E9CCE6F9CD25DCBFA762BAAD92C4534E34F46ED51451C40D694B6843142EB0FD61C283F34FC85EE0F948A6A96FF31A569F8A729191B37F51A77B105902C0779125254735F793DCBCC7B
310
EE567E03504B010214000A0000080000B670623B3DEE336E79000000790000001B00000000000000000000000000000000006175746F6465736B2D64657369676E2D7061636B6167652E786D6C504B01021400140006080800B670623BD486FD9CA0000000F40000001300000000000000000000000000B20000005B436F6E
310
74656E745F54797065735D2E786D6C504B01021400140006080800B670623BBC1638F5EC0000007C010000080000000000000000000000000083010000636F72652E786D6C504B01021400140006080800B670623B55019EA25F0000007C000000070000000000000000000000000095020000636E782E786D6C504B010214
310
00140006080800B670623B3586FFB671010000D40300000C00000000000000000000000000190300006662782F636F72652E786D6C504B01021400140006080800B670623B4220A0FF7D0000009D0000000B00000000000000000000000000B40400006662782F636E782E786D6C504B01021400140006080800B670623B2F
310
A3FEDE290100001202000031000000000000000000000000005A0500006662782F45374635344235342D363743322D343832342D383044432D4334454645303536354442422F636F72652E786D6C504B01021400140006080800B670623B1B8617914E010000330300003000000000000000000000000000D2060000666278
310
2F45374635344235342D363743322D343832342D383044432D4334454645303536354442422F636E782E786D6C504B01021400140006080800B670623B29652116630500003C10000034000000000000000000000000006E0800006662782F45374635344235342D363743322D343832342D383044432D4334454645303536
310
354442422F6F626A656374732E786D6C504B01021400140006080000B670623B0000000000000000000000003500000000000000000000000000230E00006662782F45374635344235342D363743322D343832342D383044432D4334454645303536354442422F76657274696365732E62696E504B01021400140006080800
310
B670623BF270F13306000000040000003600000000000000000000000000760E00006662782F45374635344235342D363743322D343832342D383044432D4334454645303536354442422F747269616E676C65732E62696E504B01021400140006080000B670623B0000000000000000000000003700000000000000000000
310
000000D00E00006662782F45374635344235342D363743322D343832342D383044432D4334454645303536354442422F617474726962757465732E62696E504B01021400140006080800B670623B08DA0BD190000000410100003600000000000000000000000000250F00006662782F45374635344235342D363743322D34
310
3832342D383044432D4334454645303536354442422F6469726563746F72792E786D6C504B01021400140006080800B670623B6378F24DFF000000A00100003B00000000000000000000000000091000006662782F45374635344235342D363743322D343832342D383044432D4334454645303536354442422F7265736F75
310
726365732F636F72652E786D6C504B0506000000000E000E0080040000611100000000
  0
XRECORD
  5
112
102
{ACAD_REACTORS
330
110
102
}
330
110
100
AcDbXrecord
280
     1
270
     1
271
     1
  0
XRECORD
  5
111
102
{ACAD_REACTORS
330
110
102
}
330
110
100
AcDbXrecord
280
     1
270
     1
271
     1
  0
XRECORD
  5
18A
102
{ACAD_REACTORS
330
110
102
}
330
110
100
AcDbXrecord
280
     1
 70
     0
 90
1778669749
  1
9BF507EE-FAF7-4A99-A33D-4EE51894BC40
310
504B03040A0000080000B670623B3DEE336E79000000790000001B0000006175746F6465736B2D64657369676E2D7061636B6167652E786D6C3C3F786D6C2076657273696F6E3D22312E302220656E636F64696E673D227574662D3822203F3E3C666F726D6174733E3C666F726D61743E687474703A2F2F736368656D612E
310
6175746F6465736B2E636F6D2F64657369676E2D7061636B6167652F323030393C2F666F726D61743E3C2F666F726D6174733E504B0304140006080800B670623BD486FD9CA0000000F4000000130000005B436F6E74656E745F54797065735D2E786D6C7D8EC10E82300C865F65E91D8A1E8C310C0EEA1BF002731658846E
310
D98AC1B77784ABF1D8FE5FBFBF75BBCE937A534CCEB38643598122B6FEE978D0B0485F9C41B54DDD7D022595594E1A469170414C76A4D9A4D207E29CF43ECE46F218070CC6BECC4078ACAA135ACF422C856C0E68EA1BF5669944DDD7BCDE7B1F8E415D77AECB980613C2E4AC91FC167A2B244592486606FC29C8FD7F045B9A
310
EF7053A7E60B504B0304140006080800B670623BCA089DFFEC0000007C01000008000000636F72652E786D6C8D90416E83301045AF62CDB632D8402020E32882F604BD80653BC44AB011B6AB1EBF262152BBEB6A467FFE9B197D76FA9EEFE84BAFDE38DB03CD08206DA553C64E3DC470C1474027CE56E7C22F1B202B66DDC3
310
260367D3EAE2B24BD2D9A06D48AA754AEFA2F05E0740F29E9A1EBCBCEA59642286E4F0B76C11F226269DD15797E0188D42CF2346A57DE662F40ABCAEC77628C6120F654571D50C04B7F5B9C1E3997CD4F550BE3745C3F20DE62C98F9755FAE5A04AD801784B498524C8A4F5A75E4D055873772EC0861F966FF03C545FD138A
310
C686B2D8DF7D621E384D8F3C069CE55B16A93C824A75CB8DFF00504B0304140006080800B670623B55019EA25F0000007C00000007000000636E782E786D6C4DCB3B0E80201045D1AD90E915ED2CF8AC45050C11660C8261F98AB1B07AC9C97D42D718D865D3E909258CFD00CCE24AC6E326A164D74DC0B4128928FF326038
310
472BA13128B1252AC747C6BAB984FC68F0B87FE8960A5C09FE86CFB69FBA01504B0304140006080800B670623B68FC0B7272010000D40300000C0000006662782F636F72652E786D6CC5535B6E833010BC8AE5DF0A6C1E8124328E22D29EA01770C0A128602363A31CBFCB234A53A555FA553EC09AD9F5CE8C31DB5DDA060D
310
D2F4B556190E7C8A9154852E6B5565D8D993B7C668C799D1DA7E29C3488956667884316795D1AE5BA0422B2B950554E9522EA0E87B69312A1A5864B82F3E642B7CE12C54F467BF13C55954D20F7CA0A18EB3DE1A1080E621E31BF3D3F1C2C88C73E65C5D2E6C5DC2B4FA544B8379921C36797888BC3C8A032F4E73EA6D927D
310
EA1DF6F42D49F2E8350D5346C666CE6CDD5ED515460A2B4BCC434A375E1078347C0FE22D5D6DE3D50B5D6F2965642CBF6B725DF96493AB958DC245EEDCD6631E809089F8E61622B2A81703E8219C913144F84C09DF070D8140C8561C9BAB8F3340832CAC363130A576376A108D933095FA747AD0CF0B46E64E983A6D0EAE1F
310
CE089F9EF1FB8E70D44255604258581E9D1D75B259C3125A278D37D80B52DAB4A279CEC62F0EFF44DDC43F9454E8469BFF5244960322CBEF41C6FBC83F01504B0304140006080800B670623B0F71DDB67E0000009D0000000B0000006662782F636E782E786D6C4DCCD10A83201886E15B91FFDCA54DB73F502386BB8F5816
310
32D3703976F9ABD1C18E3E78F87855FB990379BBFCF2296AE02706C4C5471A7C9C349475A408A4352AA7B4FEDD80C47E761A7606A3A69CCA72D0E0C6BE8475D3E0E3F3409428EA6B27A84079A782899AA2EC1A7AE3ECCC2FD858CB2D544655BFD2B67BD87C01504B0304140006080800B670623BE134B4FB28010000120200
310
00310000006662782F38353834323741342D343835462D343034322D383541392D4331303331363839454531452F636F72652E786D6C8D515B6EC32010BC0AE22B55850D0EA424C24451959EA0172086A42831583CAA1CBF503B52FB971F16CDCECC0EACD8DFC71BF836215AEF7A481A0C817183D7D65D7A98D3197108F652
310
04EFD31F1A044E8DA6871586525C82CFD3020DDE25E352419DD76601558C264130DCCAA58771F832A36A544E8511AFCDA486ABBA988634A55D7852C4144A00300FA927949C71DABD1D28A29C7D208A6987383B6CD13BC16BB2E1DBE3911C453B0BA5C8D9EA456E758963CFD684674DAA588A64C747FC2118958C86B2C3788B
310
0841B8FB247487D98EB257CC77188BB6D2FF89F2A49F1465EBD2BA5BE2CEB2082511EDDC9042FB7CBA3DC298FBE4430275DE2A9AE1054ADC60CC08E3A29D89E5F9C5714317C7987C28DFBBBA9E0A97B0D97643A568EB864AF95D5FA9759BF207504B0304140006080800B670623B1B8617914E010000330300003000000066
310
62782F38353834323741342D343835462D343034322D383541392D4331303331363839454531452F636E782E786D6CD593C16EC32010447F0571AD6CE3D489D20813A9877E410FBD62D82434182CC055F3F75D1292E692438FBD206B7698593D61BEFD1E2DF982108D773D6D6B460938E5B571FB9ECE6957AD29D90A1EBC4F
310
77364A9C1CA1A759A682EF839FA72269D8C9D92654AD71C72206887E0E0A22CAF926B15E498B01E0AA19451807D01A34B919F16B070157417138917400F2F6FA41FCF0092A45DEE414C19BDC21783E4BD39D891265658C3D8DEA00A3ACE59CBC8678ACB54CB26EEB6BD7839D7E9348BE70AD9C8321B9BCA7F9A4A26C542347
310
DEE050F09802D22BA6749A800A394DD62899107273365E3C82CFC6A55557BC06C10774B7ABE7AEC3B0F34CF06446280E154026D0542C187BA9DAB6628BF7B6DBB0E5A65B3EB1F58631DE64BBE083F7B65CC218087E22CABB042E51D1F2268F1FE12B3EA24D40D63E9CFE00120194D60B9D5BC67FE6D39CDF37E20AF817881F
310
504B0304140006080800B670623B5933D422630500003B100000340000006662782F38353834323741342D343835462D343034322D383541392D4331303331363839454531452F6F626A656374732E786D6CAD575B6FA33814FE2B887D0642934E9B156594264D158D3A534DD4D13E548A0C38942D60649B4EBABF7E3F8321
310
40924EF6928780CDF1B97EE762EFF32E4B8D37CA45C2F21BD3B547A641F39045491EDF98A5DC5AD7A6F1D9F73863B243661A39C9E88DA9B64DDF8B392B0BBD15D12D295339D85DDEFE618890E6D434C2940871638AF08566C426A5641115AF764424B1E3EDCE76ED9AB0CF36E6A47819302D08A7B984A6D8CFC1C5A89572FB
310
CB91E9F89EA3BEFB9EFAD754E3D3544E654F5F7E920B49F2F040D880CDD89D2CEE2E2EA7D6E56432B6269F2E5CEB7679BBB0DCABF168FE693E9FCEEEA6102C240727AD09A75BD3BF876F78127A4EFDA9D5582B7E4CA590E5390D2BFB6161A5B3E618D182E611E2985001691DAB47FDA5AB7CD3F93C566B2DB2BB7D9E55DD13
310
1D468DEECDB3AB290BFE8409E21C54704115AA6AFF68436BFC8DF65E0B184BF5B74418199194272435D224E084BF9B3E481589EFF5D828747285706581E9BB7B7E5D5D911ABFC6EE312DB7659A2A689A7E85EC0DF04FA5A8344BFEA2FCB834E8845895492EAFB541F2BDA0A63FF59C6AD3F7D4637CA13FD68E34B629891172
310
98597F1D183A57B9B75A98FE9765B05BAB7C3C2EBCE0ACA05C2AF8005A4DE09AA7F29216EB9E15397500C6F47CBE77CA7778FE2BD277AF0AE2C693DD6437D1522427B9D8329E2136F6A8FA19A3E6C56ADF0E5F50CF06D48734EDCEBF22F69C56D97EC138153F804B85E6FABFC7AFEFB32E523BE1F3BD372418E363EDCA7548
310
52949E8724474014288D94610BB57C1BEC4C7F854A89CA8E5324F55B871CBC78CE1BBEE3BFE68D6A5589EF3C730474506FCFA8FCF0659516D0ED04580EEA6425581B77CAE797FF4BCECC16EB2FEB926F49481F746159D06D922712BD730FDEAE42BD40F42C7AA5EF3F198F60E86110D6DD20645A9480B795CF95E3E3A659A8
310
C55E724F408873315335CFFB8584874484344D494E59D94869DB90C26A5B64F49C802CAC1D3ABE18A098D3B7444D123D8A9E5AE8F5214F0AE5B2B6E9B575DA3E61CBD3EA2B4009FA940524DD1305FB6A1FB294F14DF0BEA90BA109ECE1481FDC3FFAE8D60E75141700BE82725371B4873751B2DD960265F788137FACE6DD40
310
B575E4F0A5C99F46629D92131467A41EE11ABD8D4CCC039CA0AFB37C93A08B232B8F0AEFCA1E0A1015DF13FC83322B362463652ECF71D3A8B1A7D1BE65DE1D62C44F22C317D35F574FEB16153BA2D13E543D10A80E74C4A65E78A6B7CBCBD1D5DD9DB59C2DAFACC96C3AB566E3F1C29ADCDD5DBAD7D3C9ED7C822ED74F80A6
310
41755310DE4443F44A9E68373FADF6596BFA0F440AE7BECE2727AE9F4F2B1B53B1E7E00CF0DD1E5C65454A339A4BA2D0FBA05ED2EF0443458F47BDBFCA484CCFE0F2ED7E3DD0013B679C7B5499467F0ECEEADDB9CA85A34CE44B99053949D2C1416DB85DE4B136BB7165FBAC0B7AB3542BED4F8CA182A549847A1319316519
310
95A83A67147B9E5101C47487F2485F1ECE38FD568F839204296D3479219888530154036E6528FBFBC66F98E0D4107563A2D7D9AFF8D389681A08F58D89F22693900A3B407754734FC51C10C010D6D640809EE4718AC1BA3ED4AEDB53CA37283F68805A7E4B72CEB0A4EDEAD5DD8C14059A76AFAA56BA6901E13F32BC51C720
310
12AF41295B5BF61BAD3195181FB506E6B40F4C10AF5AF40EF9F5B159AE5DD1F43C72D635E94310D45C2D49785C5D0B94D3B54AB3C5A38349C0587D338AB48C11CBF339599C02CCA54A70A008A8D03C0B2201D5F9EFCF8F9CE12A9A19CB0410789EB32C63B95ECCF455D658BFE0621A3DA32C5075FB101723D77DAE867E7D0F
310
D90444509B44E2151B4DC2290B065803200FBAA9BE9D392A0603F2D5C2D00D6302A615680F66D2FA166E2079D4C551A54AB758161FCEFD4E450A14704CECFEDF504B0304140006080000B670623B000000000000000000000000350000006662782F38353834323741342D343835462D343034322D383541392D4331303331
310
363839454531452F76657274696365732E62696E504B0304140006080800B670623BF270F1330600000004000000360000006662782F38353834323741342D343835462D343034322D383541392D4331303331363839454531452F747269616E676C65732E62696E636660600000504B0304140006080000B670623B000000
310
000000000000000000370000006662782F38353834323741342D343835462D343034322D383541392D4331303331363839454531452F617474726962757465732E62696E504B0304140006080800B670623B08DA0BD19000000041010000360000006662782F38353834323741342D343835462D343034322D383541392D43
310
31303331363839454531452F6469726563746F72792E786D6C858F410AC3201045AF22B36F53E9A60B35CBEEBAE80D244E44489C6234F4F835464A48035D0DF398FF9F8AF63D0E6CC63039F212F8F9020C7D47C6792B21C5FE7403D62A1188E2E60C98D7234A5830286103A55745067B9D86B8A3CF9C7F90C11DE607FB1443
310
96D7B6A82D282E9A152AD114D5EF2CB866EEE831B8EEA07A7BB5A8D7D61A2BAAEB7FD5F70921FF497D00504B0304140006080800B670623BD9A3B367FE000000A00100003B0000006662782F38353834323741342D343835462D343034322D383541392D4331303331363839454531452F7265736F75726365732F636F7265
310
2E786D6C8D504B6E833010BD0A9A6D65B01D0201194711694FD00B586642AD043BF2A7EAF16B122AB5BB6E6646EFA3797AE2F8B5DC8A4FF4C1383B002B291468B59B8C9D0748F1420E501CA5F0CEC55F3228AC5A708015062966EFD27D83B4B3116DCCA875136EA00A012314FA968F0182FEC045952AC5AC08D7F2AEF455CD
310
58B232D3592745883E07289E4FD609D26370C96B0CA27AB252A464A64D63A6FCD35C0C7A904D73EE467EE664DCD58CD4ED4849D79C5A723ED1B7A61977AF2D6F45B59AA58866F9C9A83DAA8813484E6947182394BFB3BAA7FBBEDEBFD0434FA9A856F91F53BA4FFF342563E38E6F719FB60092E5200F428A6AED2BAF479979
310
AFDDCA6F504B010214000A0000080000B670623B3DEE336E79000000790000001B00000000000000000000000000000000006175746F6465736B2D64657369676E2D7061636B6167652E786D6C504B01021400140006080800B670623BD486FD9CA0000000F40000001300000000000000000000000000B20000005B436F6E
310
74656E745F54797065735D2E786D6C504B01021400140006080800B670623BCA089DFFEC0000007C010000080000000000000000000000000083010000636F72652E786D6C504B01021400140006080800B670623B55019EA25F0000007C000000070000000000000000000000000095020000636E782E786D6C504B010214
310
00140006080800B670623B68FC0B7272010000D40300000C00000000000000000000000000190300006662782F636F72652E786D6C504B01021400140006080800B670623B0F71DDB67E0000009D0000000B00000000000000000000000000B50400006662782F636E782E786D6C504B01021400140006080800B670623BE1
310
34B4FB280100001202000031000000000000000000000000005C0500006662782F38353834323741342D343835462D343034322D383541392D4331303331363839454531452F636F72652E786D6C504B01021400140006080800B670623B1B8617914E010000330300003000000000000000000000000000D3060000666278
310
2F38353834323741342D343835462D343034322D383541392D4331303331363839454531452F636E782E786D6C504B01021400140006080800B670623B5933D422630500003B10000034000000000000000000000000006F0800006662782F38353834323741342D343835462D343034322D383541392D4331303331363839
310
454531452F6F626A656374732E786D6C504B01021400140006080000B670623B0000000000000000000000003500000000000000000000000000240E00006662782F38353834323741342D343835462D343034322D383541392D4331303331363839454531452F76657274696365732E62696E504B01021400140006080800
310
B670623BF270F13306000000040000003600000000000000000000000000770E00006662782F38353834323741342D343835462D343034322D383541392D4331303331363839454531452F747269616E676C65732E62696E504B01021400140006080000B670623B0000000000000000000000003700000000000000000000
310
000000D10E00006662782F38353834323741342D343835462D343034322D383541392D4331303331363839454531452F617474726962757465732E62696E504B01021400140006080800B670623B08DA0BD190000000410100003600000000000000000000000000260F00006662782F38353834323741342D343835462D34
310
3034322D383541392D4331303331363839454531452F6469726563746F72792E786D6C504B01021400140006080800B670623BD9A3B367FE000000A00100003B000000000000000000000000000A1000006662782F38353834323741342D343835462D343034322D383541392D4331303331363839454531452F7265736F75
310
726365732F636F72652E786D6C504B0506000000000E000E0080040000611100000000
  0
XRECORD
  5
113
102
{ACAD_REACTORS
330
110
102
}
330
110
100
AcDbXrecord
280
     1
270
     1
271
     1
  0
XRECORD
  5
114
102
{ACAD_REACTORS
330
110
102
}
330
110
100
AcDbXrecord
280
     1
270
     1
271
     1
  0
CELLSTYLEMAP
  5
C907
102
{ACAD_REACTORS
330
104
102
}
330
104
100
AcDbCellStyleMap
 90
        3
300
CELLSTYLE
  1
TABLEFORMAT_BEGIN
 90
        5
170
     1
 91
        0
 92
    32768
 62
   257
 93
        1
300
CONTENTFORMAT
  1
CONTENTFORMAT_BEGIN
 90
        0
 91
        0
 92
      512
 93
        0
300

 40
0.0
140
1.0
 94
        5
 62
     0
340
11
144
0.25
309
CONTENTFORMAT_END
171
     1
301
MARGIN
  1
CELLMARGIN_BEGIN
 40
0.06
 40
0.06
 40
0.06
 40
0.06
 40
0.18
 40
0.18
309
CELLMARGIN_END
 94
        6
 95
        1
302
GRIDFORMAT
  1
GRIDFORMAT_BEGIN
 90
        0
 91
        1
 62
     0
 92
       -2
340
0
 93
        0
 40
0.045
309
GRIDFORMAT_END
 95
        2
302
GRIDFORMAT
  1
GRIDFORMAT_BEGIN
 90
        0
 91
        1
 62
     0
 92
       -2
340
0
 93
        0
 40
0.045
309
GRIDFORMAT_END
 95
        4
302
GRIDFORMAT
  1
GRIDFORMAT_BEGIN
 90
        0
 91
        1
 62
     0
 92
       -2
340
0
 93
        0
 40
0.045
309
GRIDFORMAT_END
 95
        8
302
GRIDFORMAT
  1
GRIDFORMAT_BEGIN
 90
        0
 91
        1
 62
     0
 92
       -2
340
0
 93
        0
 40
0.045
309
GRIDFORMAT_END
 95
       16
302
GRIDFORMAT
  1
GRIDFORMAT_BEGIN
 90
        0
 91
        1
 62
     0
 92
       -2
340
0
 93
        0
 40
0.045
309
GRIDFORMAT_END
 95
       32
302
GRIDFORMAT
  1
GRIDFORMAT_BEGIN
 90
        0
 91
        1
 62
     0
 92
       -2
340
0
 93
        0
 40
0.045
309
GRIDFORMAT_END
309
TABLEFORMAT_END
  1
CELLSTYLE_BEGIN
 90
        1
 91
        1
300
_TITLE
309
CELLSTYLE_END
300
CELLSTYLE
  1
TABLEFORMAT_BEGIN
 90
        5
170
     1
 91
        0
 92
        0
 62
   257
 93
        1
300
CONTENTFORMAT
  1
CONTENTFORMAT_BEGIN
 90
        0
 91
        0
 92
      512
 93
        0
300

 40
0.0
140
1.0
 94
        5
 62
     0
340
11
144
0.18
309
CONTENTFORMAT_END
171
     1
301
MARGIN
  1
CELLMARGIN_BEGIN
 40
0.06
 40
0.06
 40
0.06
 40
0.06
 40
0.18
 40
0.18
309
CELLMARGIN_END
 94
        6
 95
        1
302
GRIDFORMAT
  1
GRIDFORMAT_BEGIN
 90
        0
 91
        1
 62
     0
 92
       -2
340
0
 93
        0
 40
0.045
309
GRIDFORMAT_END
 95
        2
302
GRIDFORMAT
  1
GRIDFORMAT_BEGIN
 90
        0
 91
        1
 62
     0
 92
       -2
340
0
 93
        0
 40
0.045
309
GRIDFORMAT_END
 95
        4
302
GRIDFORMAT
  1
GRIDFORMAT_BEGIN
 90
        0
 91
        1
 62
     0
 92
       -2
340
0
 93
        0
 40
0.045
309
GRIDFORMAT_END
 95
        8
302
GRIDFORMAT
  1
GRIDFORMAT_BEGIN
 90
        0
 91
        1
 62
     0
 92
       -2
340
0
 93
        0
 40
0.045
309
GRIDFORMAT_END
 95
       16
302
GRIDFORMAT
  1
GRIDFORMAT_BEGIN
 90
        0
 91
        1
 62
     0
 92
       -2
340
0
 93
        0
 40
0.045
309
GRIDFORMAT_END
 95
       32
302
GRIDFORMAT
  1
GRIDFORMAT_BEGIN
 90
        0
 91
        1
 62
     0
 92
       -2
340
0
 93
        0
 40
0.045
309
GRIDFORMAT_END
309
TABLEFORMAT_END
  1
CELLSTYLE_BEGIN
 90
        2
 91
        1
300
_HEADER
309
CELLSTYLE_END
300
CELLSTYLE
  1
TABLEFORMAT_BEGIN
 90
        5
170
     1
 91
        0
 92
        0
 62
   257
 93
        1
300
CONTENTFORMAT
  1
CONTENTFORMAT_BEGIN
 90
        0
 91
        0
 92
      512
 93
        0
300

 40
0.0
140
1.0
 94
        2
 62
     0
340
11
144
0.18
309
CONTENTFORMAT_END
171
     1
301
MARGIN
  1
CELLMARGIN_BEGIN
 40
0.06
 40
0.06
 40
0.06
 40
0.06
 40
0.18
 40
0.18
309
CELLMARGIN_END
 94
        6
 95
        1
302
GRIDFORMAT
  1
GRIDFORMAT_BEGIN
 90
        0
 91
        1
 62
     0
 92
       -2
340
0
 93
        0
 40
0.045
309
GRIDFORMAT_END
 95
        2
302
GRIDFORMAT
  1
GRIDFORMAT_BEGIN
 90
        0
 91
        1
 62
     0
 92
       -2
340
0
 93
        0
 40
0.045
309
GRIDFORMAT_END
 95
        4
302
GRIDFORMAT
  1
GRIDFORMAT_BEGIN
 90
        0
 91
        1
 62
     0
 92
       -2
340
0
 93
        0
 40
0.045
309
GRIDFORMAT_END
 95
        8
302
GRIDFORMAT
  1
GRIDFORMAT_BEGIN
 90
        0
 91
        1
 62
     0
 92
       -2
340
0
 93
        0
 40
0.045
309
GRIDFORMAT_END
 95
       16
302
GRIDFORMAT
  1
GRIDFORMAT_BEGIN
 90
        0
 91
        1
 62
     0
 92
       -2
340
0
 93
        0
 40
0.045
309
GRIDFORMAT_END
 95
       32
302
GRIDFORMAT
  1
GRIDFORMAT_BEGIN
 90
        0
 91
        1
 62
     0
 92
       -2
340
0
 93
        0
 40
0.045
309
GRIDFORMAT_END
309
TABLEFORMAT_END
  1
CELLSTYLE_BEGIN
 90
        3
 91
        2
300
_DATA
309
CELLSTYLE_END
  0
ENDSEC
  0
SECTION
  2
ACDSDATA
 70
     2
 71
     8
  0
ACDSSCHEMA
 90
        0
  1
AcDb_Thumbnail_Schema
  2
AcDbDs::ID
280
    10
 91
        8
  2
Thumbnail_Data
280
    15
 91
        0
101
ACDSRECORD
 95
        0
 90
        1
  2
AcDbDs::TreatedAsObjectData
280
     1
291
     1
101
ACDSRECORD
 95
        0
 90
        2
  2
AcDbDs::Legacy
280
     1
291
     1
101
ACDSRECORD
  1
AcDbDs::ID
 90
        3
  2
AcDs:Indexable
280
     1
291
     1
101
ACDSRECORD
  1
AcDbDs::ID
 90
        4
  2
AcDbDs::HandleAttribute
280
     7
282
     1
  0
ACDSSCHEMA
 90
        1
  1
AcDbDs::TreatedAsObjectDataSchema
  2
AcDbDs::TreatedAsObjectData
280
     1
 91
        0
  0
ACDSSCHEMA
 90
        2
  1
AcDbDs::LegacySchema
  2
AcDbDs::Legacy
280
     1
 91
        0
  0
ACDSSCHEMA
 90
        3
  1
AcDbDs::IndexedPropertySchema
  2
AcDs:Indexable
280
     1
 91
        0
  0
ACDSSCHEMA
 90
        4
  1
AcDbDs::HandleAttributeSchema
  2
AcDbDs::HandleAttribute
280
     7
 91
        1
284
     1
  0
ACDSRECORD
 90
        0
  2
AcDbDs::ID
280
    10
320
22
  2
Thumbnail_Data
280
    15
 94
     1822
310
89504E470D0A1A0A0000000D49484452000001000000006D080300000079B14F6400000300504C5445212830FFFFFF2128300000000000000000000000000000000000000000000000000000330000660000990000CC0000FF0033000033330033660033990033CC0033FF0066000066330066660066990066CC0066FF0099
310
000099330099660099990099CC0099FF00CC0000CC3300CC6600CC9900CCCC00CCFF00FF0000FF3300FF6600FF9900FFCC00FFFF3300003300333300663300993300CC3300FF3333003333333333663333993333CC3333FF3366003366333366663366993366CC3366FF3399003399333399663399993399CC3399FF33CC00
310
33CC3333CC6633CC9933CCCC33CCFF33FF0033FF3333FF6633FF9933FFCC33FFFF6600006600336600666600996600CC6600FF6633006633336633666633996633CC6633FF6666006666336666666666996666CC6666FF6699006699336699666699996699CC6699FF66CC0066CC3366CC6666CC9966CCCC66CCFF66FF0066
310
FF3366FF6666FF9966FFCC66FFFF9900009900339900669900999900CC9900FF9933009933339933669933999933CC9933FF9966009966339966669966999966CC9966FF9999009999339999669999999999CC9999FF99CC0099CC3399CC6699CC9999CCCC99CCFF99FF0099FF3399FF6699FF9999FFCC99FFFFCC0000CC00
310
33CC0066CC0099CC00CCCC00FFCC3300CC3333CC3366CC3399CC33CCCC33FFCC6600CC6633CC6666CC6699CC66CCCC66FFCC9900CC9933CC9966CC9999CC99CCCC99FFCCCC00CCCC33CCCC66CCCC99CCCCCCCCCCFFCCFF00CCFF33CCFF66CCFF99CCFFCCCCFFFFFF0000FF0033FF0066FF0099FF00CCFF00FFFF3300FF3333
310
FF3366FF3399FF33CCFF33FFFF6600FF6633FF6666FF6699FF66CCFF66FFFF9900FF9933FF9966FF9999FF99CCFF99FFFFCC00FFCC33FFCC66FFCC99FFCCCCFFCCFFFFFF00FFFF33FFFF66FFFF99FFFFCCFFFFFF0000000D0D0D1A1A1A2828283535354343435050505D5D5D6B6B6B787878868686939393A1A1A1AEAEAEBB
310
BBBBC9C9C9D6D6D6E4E4E4F1F1F1FFFFFF0000000000000000000000000000000000000000000000000000000000002E4550F1000003D94944415478DAED9DC9761C310845F5FFFF7BF759A4DBAD0149A0EA3840552DE293B8ED535CC113A021A53CCFF30478783DF705D07CB9ADFD0F80DB12A0DC9CC0C7031E000F8034D1
310
7C47153CCF657200E0D8821F6CA143E0F5F2273650328800E7F91C974524783A47350D90000066FB6984F4D6F96CE0AAF80280142E50BFB6D184FEE33109301951DBF8079E0B68FFC2050F88E9039C5B80CA2BF20240E7158134D0F4FEB34F126DFC397C7F4A0E00DC1BC0F94C46C901E058C52819085CD0F1C400E6FAAE4B
310
9AD302A0528C9597C407B08A0C3400A220C0369331FC19DD078C3359BD144E4940001B80A6759A018055C69BDEE9ED00D035CE6E08A0891C4A7C0098BE971100F3E26809A0A406506400741FC90060A6651281B66856B4FDA278C0680A0A00250500644B103DC3DC35228804C8EDA051E438C2EBDF051009FC8D8D6BE61043
310
01267ACF38EFA70330B55F0250123B80E401EDBF1F2DF41020FE678D8D01C0770B6D4F02389B07198AFFC800C48D2B2C5A7B34BDBF330EB80AF522CEEA2CCA3E860811479408E32FBD6A9D01C9DEF10300B9F8A16F91B87580492DB7D238AA7410B9FE679245AA4BA55F6F79208EF1BCF3413DEAC83E3435D40F004433370E
310
F029061A3F1F3D806DEFD451CB63C86B5500EA72595411FF3B644600AFE8DD86007D0B443214DFE3DF687D7DC093E51267530FD366471A00CE0888C2C06A6F6C9503ACB682330D01CF00E8CC5F01688340DC1009A100CC92E2E934B8463933D62D0094DB811034B04C7A64B100C86F2BA7C26CEC027B85F0FF3D40A7D99AFD
310
9F7D8DE5F7E4D0F6CD6479DF02E8536DA767A8377A2F0FB8020083077805A0894D94A58C3429921180E2B70DB18F5311F82E8085DD38BD4841A30186E3124CDB0C5E01140D00A9D7A12DAEC90740B36F268E07F07B007CDE236007800940A9FA4578BC514837B6EA298CE90F507C5EA964F2000E00E01D806A74F934B9CD00
310
4A060FA8B60BA9242092072853541B00E268802E0FA8BA1B1835505A3C8A08E0ED2DE649201380FD2CB001807B008AE57CA30606D0008B0B281D2014005B2EA83D0826B7862200E05F01C02F00A50A1822201A003E09D135004143E0BDCCB94E73B400864D67EE01BC6A1CCAB02C6C04D06CAC901B023E0154ABBDEC0EBCB3
310
0B00C6588A056067DF4E03878D23513CA056C23300BCF68D753150AF91F905C07EDFCE5603F85193E608BDE000EE00A038E4A7F080F6DED15E0ABC364575559EAE146C8F8E7747EE70AC01A03DE788E1FEA0EE6CA1670DD05D7469B958F88D9476C7F985BB799D648C9874A5CA2ED0CEA5AE0994B30B45E977E1963B0110D3
310
E55B03203000F80680C0D74B7FE9DDEFFBFF0D3DCFD79F3FE4DA76EFCA32B17B0000000049454E44AE426082
  0
ENDSEC
  0
EOF
