  0
SECTION
  2
HEADER
  9
$ACADVER
  1
AC1032
  9
$ACADMAINTVER
 90
      197
  9
$DWGCODEPAGE
  3
ANSI_1252
  9
$LASTSAVEDBY
  1
gregb
  9
$REQUIREDVERSIONS
160
                 0
  9
$INSBASE
 10
0.0
 20
0.0
 30
0.0
  9
$EXTMIN
 10
10934.69340985905
 20
29990.39220909138
 30
0.0
  9
$EXTMAX
 10
11101.39813007865
 20
30153.49902998342
 30
0.0
  9
$LIMMIN
 10
0.0
 20
0.0
  9
$LIMMAX
 10
12.0
 20
9.0
  9
$ORTHOMODE
 70
     1
  9
$REGENMODE
 70
     1
  9
$FILLMODE
 70
     1
  9
$QTEXTMODE
 70
     0
  9
$MIRRTEXT
 70
     0
  9
$LTSCALE
 40
1.0
  9
$ATTMODE
 70
     1
  9
$TEXTSIZE
 40
0.2
  9
$TRACEWID
 40
0.05
  9
$TEXTSTYLE
  7
Standard
  9
$CLAYER
  8
freecads.com
  9
$CELTYPE
  6
ByLayer
  9
$CECOLOR
 62
   256
  9
$CELTSCALE
 40
1.0
  9
$DISPSILH
 70
     1
  9
$DIMSCALE
 40
1.0
  9
$DIMASZ
 40
0.18
  9
$DIMEXO
 40
0.0625
  9
$DIMDLI
 40
0.38
  9
$DIMRND
 40
0.0
  9
$DIMDLE
 40
0.0
  9
$DIMEXE
 40
0.18
  9
$DIMTP
 40
0.0
  9
$DIMTM
 40
0.0
  9
$DIMTXT
 40
0.18
  9
$DIMCEN
 40
0.09
  9
$DIMTSZ
 40
0.0
  9
$DIMTOL
 70
     0
  9
$DIMLIM
 70
     0
  9
$DIMTIH
 70
     1
  9
$DIMTOH
 70
     1
  9
$DIMSE1
 70
     0
  9
$DIMSE2
 70
     0
  9
$DIMTAD
 70
     0
  9
$DIMZIN
 70
     0
  9
$DIMBLK
  1

  9
$DIMASO
 70
     1
  9
$DIMSHO
 70
     1
  9
$DIMPOST
  1

  9
$DIMAPOST
  1

  9
$DIMALT
 70
     0
  9
$DIMALTD
 70
     2
  9
$DIMALTF
 40
25.4
  9
$DIMLFAC
 40
1.0
  9
$DIMTOFL
 70
     0
  9
$DIMTVP
 40
0.0
  9
$DIMTIX
 70
     0
  9
$DIMSOXD
 70
     0
  9
$DIMSAH
 70
     0
  9
$DIMBLK1
  1

  9
$DIMBLK2
  1

  9
$DIMSTYLE
  2
Standard
  9
$DIMCLRD
 70
     0
  9
$DIMCLRE
 70
     0
  9
$DIMCLRT
 70
     0
  9
$DIMTFAC
 40
1.0
  9
$DIMGAP
 40
0.09
  9
$DIMJUST
 70
     0
  9
$DIMSD1
 70
     0
  9
$DIMSD2
 70
     0
  9
$DIMTOLJ
 70
     1
  9
$DIMTZIN
 70
     0
  9
$DIMALTZ
 70
     0
  9
$DIMALTTZ
 70
     0
  9
$DIMUPT
 70
     0
  9
$DIMDEC
 70
     4
  9
$DIMTDEC
 70
     4
  9
$DIMALTU
 70
     2
  9
$DIMALTTD
 70
     2
  9
$DIMTXSTY
  7
Standard
  9
$DIMAUNIT
 70
     0
  9
$DIMADEC
 70
     0
  9
$DIMALTRND
 40
0.0
  9
$DIMAZIN
 70
     0
  9
$DIMDSEP
 70
    46
  9
$DIMATFIT
 70
     3
  9
$DIMFRAC
 70
     0
  9
$DIMLDRBLK
  1

  9
$DIMLUNIT
 70
     2
  9
$DIMLWD
 70
    -2
  9
$DIMLWE
 70
    -2
  9
$DIMTMOVE
 70
     0
  9
$DIMFXL
 40
1.0
  9
$DIMFXLON
 70
     0
  9
$DIMJOGANG
 40
0.7853981633974483
  9
$DIMTFILL
 70
     0
  9
$DIMTFILLCLR
 70
     0
  9
$DIMARCSYM
 70
     0
  9
$DIMLTYPE
  6

  9
$DIMLTEX1
  6

  9
$DIMLTEX2
  6

  9
$DIMTXTDIRECTION
 70
     0
  9
$LUNITS
 70
     2
  9
$LUPREC
 70
     4
  9
$SKETCHINC
 40
0.1
  9
$FILLETRAD
 40
0.0
  9
$AUNITS
 70
     0
  9
$AUPREC
 70
     0
  9
$MENU
  1
.
  9
$ELEVATION
 40
0.0
  9
$PELEVATION
 40
0.0
  9
$THICKNESS
 40
0.0
  9
$LIMCHECK
 70
     0
  9
$CHAMFERA
 40
0.0
  9
$CHAMFERB
 40
0.0
  9
$CHAMFERC
 40
0.0
  9
$CHAMFERD
 40
0.0
  9
$SKPOLY
 70
     0
  9
$TDCREATE
 40
2458157.371250000
  9
$TDUCREATE
 40
2458157.287916667
  9
$TDUPDATE
 40
2461016.545798611
  9
$TDUUPDATE
 40
2461016.462465278
  9
$TDINDWG
 40
0.1089814815
  9
$TDUSRTIMER
 40
0.1089814815
  9
$USRTIMER
 70
     1
  9
$ANGBASE
 50
0.0
  9
$ANGDIR
 70
     0
  9
$PDMODE
 70
     0
  9
$PDSIZE
 40
0.0
  9
$PLINEWID
 40
0.0
  9
$SPLFRAME
 70
     0
  9
$SPLINETYPE
 70
     6
  9
$SPLINESEGS
 70
     8
  9
$HANDSEED
  5
DFAD
  9
$SURFTAB1
 70
     6
  9
$SURFTAB2
 70
     6
  9
$SURFTYPE
 70
     6
  9
$SURFU
 70
     6
  9
$SURFV
 70
     6
  9
$UCSBASE
  2

  9
$UCSNAME
  2

  9
$UCSORG
 10
0.0
 20
0.0
 30
0.0
  9
$UCSXDIR
 10
1.0
 20
0.0
 30
0.0
  9
$UCSYDIR
 10
0.0
 20
1.0
 30
0.0
  9
$UCSORTHOREF
  2

  9
$UCSORTHOVIEW
 70
     0
  9
$UCSORGTOP
 10
0.0
 20
0.0
 30
0.0
  9
$UCSORGBOTTOM
 10
0.0
 20
0.0
 30
0.0
  9
$UCSORGLEFT
 10
0.0
 20
0.0
 30
0.0
  9
$UCSORGRIGHT
 10
0.0
 20
0.0
 30
0.0
  9
$UCSORGFRONT
 10
0.0
 20
0.0
 30
0.0
  9
$UCSORGBACK
 10
0.0
 20
0.0
 30
0.0
  9
$PUCSBASE
  2

  9
$PUCSNAME
  2

  9
$PUCSORG
 10
0.0
 20
0.0
 30
0.0
  9
$PUCSXDIR
 10
1.0
 20
0.0
 30
0.0
  9
$PUCSYDIR
 10
0.0
 20
1.0
 30
0.0
  9
$PUCSORTHOREF
  2

  9
$PUCSORTHOVIEW
 70
     0
  9
$PUCSORGTOP
 10
0.0
 20
0.0
 30
0.0
  9
$PUCSORGBOTTOM
 10
0.0
 20
0.0
 30
0.0
  9
$PUCSORGLEFT
 10
0.0
 20
0.0
 30
0.0
  9
$PUCSORGRIGHT
 10
0.0
 20
0.0
 30
0.0
  9
$PUCSORGFRONT
 10
0.0
 20
0.0
 30
0.0
  9
$PUCSORGBACK
 10
0.0
 20
0.0
 30
0.0
  9
$USERI1
 70
     0
  9
$USERI2
 70
     0
  9
$USERI3
 70
     0
  9
$USERI4
 70
     0
  9
$USERI5
 70
     0
  9
$USERR1
 40
0.0
  9
$USERR2
 40
0.0
  9
$USERR3
 40
0.0
  9
$USERR4
 40
0.0
  9
$USERR5
 40
0.0
  9
$WORLDVIEW
 70
     1
  9
$SHADEDGE
 70
     3
  9
$SHADEDIF
 70
    70
  9
$TILEMODE
 70
     1
  9
$MAXACTVP
 70
    64
  9
$PINSBASE
 10
0.0
 20
0.0
 30
0.0
  9
$PLIMCHECK
 70
     0
  9
$PEXTMIN
 10
0.0
 20
0.0
 30
0.0
  9
$PEXTMAX
 10
0.0
 20
0.0
 30
0.0
  9
$PLIMMIN
 10
0.0
 20
0.0
  9
$PLIMMAX
 10
12.0
 20
9.0
  9
$UNITMODE
 70
     0
  9
$VISRETAIN
 70
     1
  9
$PLINEGEN
 70
     0
  9
$PSLTSCALE
 70
     1
  9
$TREEDEPTH
 70
  3020
  9
$CMLSTYLE
  2
Standard
  9
$CMLJUST
 70
     0
  9
$CMLSCALE
 40
1.0
  9
$PROXYGRAPHICS
 70
     1
  9
$MEASUREMENT
 70
     0
  9
$CELWEIGHT
370
    -1
  9
$ENDCAPS
280
     0
  9
$JOINSTYLE
280
     0
  9
$LWDISPLAY
290
     0
  9
$INSUNITS
 70
     1
  9
$HYPERLINKBASE
  1

  9
$STYLESHEET
  1
monochrome.ctb
  9
$XEDIT
290
     1
  9
$CEPSNTYPE
380
     0
  9
$PSTYLEMODE
290
     1
  9
$FINGERPRINTGUID
  2
{358EB121-6EE0-9143-8A3E-6E8E8869FDA6}
  9
$VERSIONGUID
  2
{E36CD71F-DC15-CE42-A2EC-906B0F33585C}
  9
$EXTNAMES
290
     1
  9
$PSVPSCALE
 40
0.0
  9
$OLESTARTUP
290
     0
  9
$SORTENTS
280
   127
  9
$INDEXCTL
280
     0
  9
$HIDETEXT
280
     1
  9
$XCLIPFRAME
280
     2
  9
$HALOGAP
280
     0
  9
$OBSCOLOR
 70
   257
  9
$OBSLTYPE
280
     0
  9
$INTERSECTIONDISPLAY
280
     0
  9
$INTERSECTIONCOLOR
 70
   257
  9
$DIMASSOC
280
     2
  9
$PROJECTNAME
  1

  9
$CAMERADISPLAY
290
     0
  9
$LENSLENGTH
 40
50.0
  9
$CAMERAHEIGHT
 40
0.0
  9
$STEPSPERSEC
 40
2.0
  9
$STEPSIZE
 40
6.0
  9
$3DDWFPREC
 40
2.0
  9
$PSOLWIDTH
 40
0.25
  9
$PSOLHEIGHT
 40
4.0
  9
$LOFTANG1
 40
1.570796326794896
  9
$LOFTANG2
 40
1.570796326794896
  9
$LOFTMAG1
 40
0.0
  9
$LOFTMAG2
 40
0.0
  9
$LOFTPARAM
 70
     7
  9
$LOFTNORMALS
280
     1
  9
$LATITUDE
 40
37.795
  9
$LONGITUDE
 40
-122.394
  9
$NORTHDIRECTION
 40
0.0
  9
$TIMEZONE
 70
 -8000
  9
$LIGHTGLYPHDISPLAY
280
     1
  9
$TILEMODELIGHTSYNCH
280
     1
  9
$CMATERIAL
347
96
  9
$SOLIDHIST
280
     0
  9
$SHOWHIST
280
     1
  9
$DWFFRAME
280
     2
  9
$DGNFRAME
280
     0
  9
$REALWORLDSCALE
290
     1
  9
$INTERFERECOLOR
 62
     1
  9
$INTERFEREOBJVS
345
A3
  9
$INTERFEREVPVS
346
A0
  9
$CSHADOW
280
     0
  9
$SHADOWPLANELOCATION
 40
0.0
  0
ENDSEC
  0
SECTION
  2
CLASSES
  0
CLASS
  1
ACDBDICTIONARYWDFLT
  2
AcDbDictionaryWithDefault
  3
ObjectDBX Classes
 90
        0
 91
        1
280
     0
281
     0
  0
CLASS
  1
DICTIONARYVAR
  2
AcDbDictionaryVar
  3
ObjectDBX Classes
 90
        0
 91
        9
280
     0
281
     0
  0
CLASS
  1
TABLESTYLE
  2
AcDbTableStyle
  3
ObjectDBX Classes
 90
     4095
 91
        1
280
     0
281
     0
  0
CLASS
  1
MATERIAL
  2
AcDbMaterial
  3
ObjectDBX Classes
 90
     1153
 91
        3
280
     0
281
     0
  0
CLASS
  1
VISUALSTYLE
  2
AcDbVisualStyle
  3
ObjectDBX Classes
 90
     4095
 91
       25
280
     0
281
     0
  0
CLASS
  1
SCALE
  2
AcDbScale
  3
ObjectDBX Classes
 90
     1153
 91
       35
280
     0
281
     0
  0
CLASS
  1
MLEADERSTYLE
  2
AcDbMLeaderStyle
  3
ACDB_MLEADERSTYLE_CLASS
 90
     4095
 91
        1
280
     0
281
     0
  0
CLASS
  1
CELLSTYLEMAP
  2
AcDbCellStyleMap
  3
ObjectDBX Classes
 90
     1152
 91
        1
280
     0
281
     0
  0
CLASS
  1
EXACXREFPANELOBJECT
  2
ExAcXREFPanelObject
  3
EXAC_ESW
 90
     1025
 91
        0
280
     0
281
     0
  0
CLASS
  1
NPOCOLLECTION
  2
AcDbImpNonPersistentObjectsCollection
  3
ObjectDBX Classes
 90
     1153
 91
        0
280
     0
281
     0
  0
CLASS
  1
LAYER_INDEX
  2
AcDbLayerIndex
  3
ObjectDBX Classes
 90
        0
 91
        0
280
     0
281
     0
  0
CLASS
  1
SPATIAL_INDEX
  2
AcDbSpatialIndex
  3
ObjectDBX Classes
 90
        0
 91
        0
280
     0
281
     0
  0
CLASS
  1
IDBUFFER
  2
AcDbIdBuffer
  3
ObjectDBX Classes
 90
        0
 91
        0
280
     0
281
     0
  0
CLASS
  1
ACDBSECTIONVIEWSTYLE
  2
AcDbSectionViewStyle
  3
ObjectDBX Classes
 90
     1025
 91
        2
280
     0
281
     0
  0
CLASS
  1
ACDBDETAILVIEWSTYLE
  2
AcDbDetailViewStyle
  3
ObjectDBX Classes
 90
     1025
 91
        2
280
     0
281
     0
  0
CLASS
  1
SORTENTSTABLE
  2
AcDbSortentsTable
  3
ObjectDBX Classes
 90
        0
 91
        1
280
     0
281
     0
  0
CLASS
  1
SPATIAL_FILTER
  2
AcDbSpatialFilter
  3
ObjectDBX Classes
 90
        0
 91
        0
280
     0
281
     0
  0
CLASS
  1
SOLID_BACKGROUND
  2
AcDbSolidBackground
  3
SCENEOE
 90
     4095
 91
        0
280
     0
281
     0
  0
ENDSEC
  0
SECTION
  2
TABLES
  0
TABLE
  2
VPORT
  5
8
330
0
100
AcDbSymbolTable
 70
     1
  0
VPORT
  5
94
330
8
100
AcDbSymbolTableRecord
100
AcDbViewportTableRecord
  2
*Active
 70
     0
 10
0.0
 20
0.0
 11
1.0
 21
1.0
 12
11018.33074492279
 22
30084.50622215387
 13
0.0
 23
0.0
 14
0.5
 24
0.5
 15
0.5
 25
0.5
 16
0.0
 26
0.0
 36
1.0
 17
0.0
 27
0.0
 37
0.0
 40
185.6511293073278
 41
2.066284779050736
 42
50.0
 43
0.0
 44
0.0
 50
0.0
 51
0.0
 71
     0
 72
  1000
 73
     1
 74
     3
 75
     0
 76
     0
 77
     0
 78
     0
281
     0
 65
     1
110
0.0
120
0.0
130
0.0
111
1.0
121
0.0
131
0.0
112
0.0
122
1.0
132
0.0
 79
     0
146
0.0
348
9F
 60
     3
 61
     5
292
     1
282
     1
141
0.0
142
0.0
 63
   250
421
  3355443
1001
ACAD_NAV_VCDISPLAY
1070
     3
  0
ENDTAB
  0
TABLE
  2
LTYPE
  5
5
330
0
100
AcDbSymbolTable
 70
     1
  0
LTYPE
  5
14
330
5
100
AcDbSymbolTableRecord
100
AcDbLinetypeTableRecord
  2
ByBlock
 70
     0
  3

 72
    65
 73
     0
 40
0.0
  0
LTYPE
  5
15
330
5
100
AcDbSymbolTableRecord
100
AcDbLinetypeTableRecord
  2
ByLayer
 70
     0
  3

 72
    65
 73
     0
 40
0.0
  0
LTYPE
  5
16
330
5
100
AcDbSymbolTableRecord
100
AcDbLinetypeTableRecord
  2
Continuous
 70
     0
  3
Solid line
 72
    65
 73
     0
 40
0.0
  0
ENDTAB
  0
TABLE
  2
LAYER
  5
2
102
{ACAD_XDICTIONARY
360
18E
102
}
330
0
100
AcDbSymbolTable
 70
     2
  0
LAYER
  5
10
102
{ACAD_XDICTIONARY
360
E6
102
}
330
2
100
AcDbSymbolTableRecord
100
AcDbLayerTableRecord
  2
0
 70
     0
 62
     7
  6
Continuous
370
    -3
390
F
347
98
348
0
  0
LAYER
  5
204
330
2
100
AcDbSymbolTableRecord
100
AcDbLayerTableRecord
  2
freecads.com
 70
     0
 62
     7
  6
Continuous
370
    -3
390
F
347
98
348
0
1001
AcAecLayerStandard
1000

1000

1001
AcCmTransparency
1071
        0
  0
ENDTAB
  0
TABLE
  2
STYLE
  5
3
330
0
100
AcDbSymbolTable
 70
     1
  0
STYLE
  5
11
330
3
100
AcDbSymbolTableRecord
100
AcDbTextStyleTableRecord
  2
Standard
 70
     0
 40
0.0
 41
1.0
 50
0.0
 71
     0
 42
0.2
  3
arial.ttf
  4

1001
ACAD
1000
Arial
1071
       34
  0
ENDTAB
  0
TABLE
  2
VIEW
  5
6
330
0
100
AcDbSymbolTable
 70
     0
  0
ENDTAB
  0
TABLE
  2
UCS
  5
7
330
0
100
AcDbSymbolTable
 70
     0
  0
ENDTAB
  0
TABLE
  2
APPID
  5
9
330
0
100
AcDbSymbolTable
 70
    23
  0
APPID
  5
12
330
9
100
AcDbSymbolTableRecord
100
AcDbRegAppTableRecord
  2
ACAD
 70
     0
  0
APPID
  5
DD
330
9
100
AcDbSymbolTableRecord
100
AcDbRegAppTableRecord
  2
AcadAnnoPO
 70
     0
  0
APPID
  5
DE
330
9
100
AcDbSymbolTableRecord
100
AcDbRegAppTableRecord
  2
AcadAnnotative
 70
     0
  0
APPID
  5
DF
330
9
100
AcDbSymbolTableRecord
100
AcDbRegAppTableRecord
  2
ACAD_DSTYLE_DIMJAG
 70
     0
  0
APPID
  5
E0
330
9
100
AcDbSymbolTableRecord
100
AcDbRegAppTableRecord
  2
ACAD_DSTYLE_DIMTALN
 70
     0
  0
APPID
  5
107
330
9
100
AcDbSymbolTableRecord
100
AcDbRegAppTableRecord
  2
ACAD_MLEADERVER
 70
     0
  0
APPID
  5
1A6
330
9
100
AcDbSymbolTableRecord
100
AcDbRegAppTableRecord
  2
ACAD_NAV_VCDISPLAY
 70
     0
  0
APPID
  5
205
330
9
100
AcDbSymbolTableRecord
100
AcDbRegAppTableRecord
  2
AcAecLayerStandard
 70
     0
  0
APPID
  5
206
330
9
100
AcDbSymbolTableRecord
100
AcDbRegAppTableRecord
  2
AcCmTransparency
 70
     0
  0
APPID
  5
222
330
9
100
AcDbSymbolTableRecord
100
AcDbRegAppTableRecord
  2
ACAD_PSEXT
 70
     0
  0
APPID
  5
2DA
330
9
100
AcDbSymbolTableRecord
100
AcDbRegAppTableRecord
  2
GradientColor1ACI
 70
     0
  0
APPID
  5
2DB
330
9
100
AcDbSymbolTableRecord
100
AcDbRegAppTableRecord
  2
GradientColor2ACI
 70
     0
  0
APPID
  5
2F3
330
9
100
AcDbSymbolTableRecord
100
AcDbRegAppTableRecord
  2
ACAD_EXEMPT_FROM_CAD_STANDARDS
 70
     0
  0
APPID
  5
A1A
330
9
100
AcDbSymbolTableRecord
100
AcDbRegAppTableRecord
  2
AcDbBlockRepETag
 70
     0
  0
APPID
  5
228C
330
9
100
AcDbSymbolTableRecord
100
AcDbRegAppTableRecord
  2
RAK
 70
     0
  0
APPID
  5
2683
330
9
100
AcDbSymbolTableRecord
100
AcDbRegAppTableRecord
  2
ACAD_DSTYLE_DIMJOGGED_JOGANGLE_SYMBOL
 70
     0
  0
APPID
  5
47CF
330
9
100
AcDbSymbolTableRecord
100
AcDbRegAppTableRecord
  2
ACAD_DSTYLE_DIMBREAK
 70
     0
  0
APPID
  5
47D0
330
9
100
AcDbSymbolTableRecord
100
AcDbRegAppTableRecord
  2
AcDbDynamicBlockGUID
 70
     0
  0
APPID
  5
8BD5
330
9
100
AcDbSymbolTableRecord
100
AcDbRegAppTableRecord
  2
AcLayerTools
 70
     0
  0
APPID
  5
92D9
330
9
100
AcDbSymbolTableRecord
100
AcDbRegAppTableRecord
  2
AutoGrph01
 70
     0
  0
APPID
  5
92DA
330
9
100
AcDbSymbolTableRecord
100
AcDbRegAppTableRecord
  2
AutoGrphVars
 70
     0
  0
APPID
  5
92DB
330
9
100
AcDbSymbolTableRecord
100
AcDbRegAppTableRecord
  2
AutoGrphZ
 70
     0
  0
APPID
  5
92DC
330
9
100
AcDbSymbolTableRecord
100
AcDbRegAppTableRecord
  2
AutoGrph05
 70
     0
  0
ENDTAB
  0
TABLE
  2
DIMSTYLE
  5
A
330
0
100
AcDbSymbolTable
 70
     1
100
AcDbDimStyleTable
 71
     1
340
27
  0
DIMSTYLE
105
27
330
A
100
AcDbSymbolTableRecord
100
AcDbDimStyleTableRecord
  2
Standard
 70
     0
340
11
  0
ENDTAB
  0
TABLE
  2
BLOCK_RECORD
  5
1
330
0
100
AcDbSymbolTable
 70
     1
  0
BLOCK_RECORD
  5
1F
102
{ACAD_XDICTIONARY
360
15D
102
}
330
1
100
AcDbSymbolTableRecord
100
AcDbBlockTableRecord
  2
*Model_Space
340
22
 70
     0
280
     1
281
     0
  0
BLOCK_RECORD
  5
58
330
1
100
AcDbSymbolTableRecord
100
AcDbBlockTableRecord
  2
*Paper_Space
340
59
 70
     0
280
     1
281
     0
  0
BLOCK_RECORD
  5
5D
330
1
100
AcDbSymbolTableRecord
100
AcDbBlockTableRecord
  2
*Paper_Space0
340
5E
 70
     0
280
     1
281
     0
  0
ENDTAB
  0
ENDSEC
  0
SECTION
  2
BLOCKS
  0
BLOCK
  5
20
330
1F
100
AcDbEntity
  8
0
100
AcDbBlockBegin
  2
*Model_Space
 70
     0
 10
0.0
 20
0.0
 30
0.0
  3
*Model_Space
  1

  0
ENDBLK
  5
21
330
1F
100
AcDbEntity
  8
0
100
AcDbBlockEnd
  0
BLOCK
  5
5A
330
58
100
AcDbEntity
 67
     1
  8
0
100
AcDbBlockBegin
  2
*Paper_Space
 70
     0
 10
0.0
 20
0.0
 30
0.0
  3
*Paper_Space
  1

  0
ENDBLK
  5
5B
330
58
100
AcDbEntity
 67
     1
  8
0
100
AcDbBlockEnd
  0
BLOCK
  5
5F
330
5D
100
AcDbEntity
 67
     1
  8
0
100
AcDbBlockBegin
  2
*Paper_Space0
 70
     0
 10
0.0
 20
0.0
 30
0.0
  3
*Paper_Space0
  1

  0
ENDBLK
  5
60
330
5D
100
AcDbEntity
 67
     1
  8
0
100
AcDbBlockEnd
  0
ENDSEC
  0
SECTION
  2
ENTITIES
  0
ARC
  5
DD27
330
1F
100
AcDbEntity
  8
freecads.com
100
AcDbCircle
 10
11054.55959518336
 20
30125.75433187356
 30
0.0
 40
33.99308128895028
100
AcDbArc
 50
130.2181171472182
 51
136.2055386578414
  0
ARC
  5
DD28
330
1F
100
AcDbEntity
  8
freecads.com
100
AcDbCircle
 10
11033.9165373671
 20
30145.54647336553
 30
0.0
 40
5.394747406657096
100
AcDbArc
 50
136.2054700579986
 51
159.5408198589
  0
ARC
  5
DD29
330
1F
100
AcDbEntity
  8
freecads.com
100
AcDbCircle
 10
11033.01570048597
 20
30145.88254782568
 30
0.0
 40
4.433262550221648
100
AcDbArc
 50
159.5407794891479
 51
186.1289347678315
  0
ARC
  5
DD2A
330
1F
100
AcDbEntity
  8
freecads.com
100
AcDbCircle
 10
11047.7338956574
 20
30147.46296243557
 30
0.0
 40
19.23606564434183
100
AcDbArc
 50
186.1288613585145
 51
195.0707135063638
  0
ARC
  5
DD2B
330
1F
100
AcDbEntity
  8
freecads.com
100
AcDbCircle
 10
11040.1613964021
 20
30145.4239009966
 30
0.0
 40
11.39383914140112
100
AcDbArc
 50
195.0707319373806
 51
205.0581638783221
  0
ARC
  5
DD2C
330
1F
100
AcDbEntity
  8
freecads.com
100
AcDbCircle
 10
11050.8501327858
 20
30150.42135198444
 30
0.0
 40
23.19314428433132
100
AcDbArc
 50
205.058152708206
 51
210.9267077447096
  0
ARC
  5
DD2D
330
1F
100
AcDbEntity
  8
freecads.com
100
AcDbCircle
 10
11051.53683649679
 20
30150.83277039918
 30
0.0
 40
23.99366105410593
100
AcDbArc
 50
210.9267074304907
 51
216.7311328029057
  0
ARC
  5
DD2E
330
1F
100
AcDbEntity
  8
freecads.com
100
AcDbCircle
 10
11044.29739104251
 20
30145.43055479242
 30
0.0
 40
14.96074879132929
100
AcDbArc
 50
216.7312016145326
 51
224.9999765190899
  0
ARC
  5
DD2F
330
1F
100
AcDbEntity
  8
freecads.com
100
AcDbCircle
 10
11007.32264195761
 20
30108.45580890845
 30
0.0
 40
37.32944056647444
100
AcDbArc
 50
38.90975263605683
 51
45.00000593664512
  0
ARC
  5
DD30
330
1F
100
AcDbEntity
  8
freecads.com
100
AcDbCircle
 10
11033.91904625114
 20
30129.92387732938
 30
0.0
 40
3.149816767045504
100
AcDbArc
 50
1.662723946355137
 51
38.90975458967811
  0
ARC
  5
DD31
330
1F
100
AcDbEntity
  8
freecads.com
100
AcDbCircle
 10
11035.89937039927
 20
30129.98136240482
 30
0.0
 40
1.168658452937213
100
AcDbArc
 50
288.8679548123657
 51
1.662728071883836
  0
ARC
  5
DD32
330
1F
100
AcDbEntity
  8
freecads.com
100
AcDbCircle
 10
11033.89503334621
 20
30135.84624479525
 30
0.0
 40
7.36657846499132
100
AcDbArc
 50
270.0659202895451
 51
288.8679768827479
  0
ARC
  5
DD33
330
1F
100
AcDbEntity
  8
freecads.com
100
AcDbCircle
 10
11033.91249339291
 20
30120.66603237432
 30
0.0
 40
7.813643997071336
100
AcDbArc
 50
90.06588222103287
 51
100.9740879459142
  0
ARC
  5
DD34
330
1F
100
AcDbEntity
  8
freecads.com
100
AcDbCircle
 10
11035.74950228415
 20
30111.19239358708
 30
0.0
 40
17.46374417981596
100
AcDbArc
 50
100.9739784587689
 51
106.9531549991719
  0
ARC
  5
DD35
330
1F
100
AcDbEntity
  8
freecads.com
100
AcDbCircle
 10
11035.96619895192
 20
30110.48149199385
 30
0.0
 40
18.20693898667558
100
AcDbArc
 50
106.9531177992602
 51
112.8599211624855
  0
ARC
  5
DD36
330
1F
100
AcDbEntity
  8
freecads.com
100
AcDbCircle
 10
11033.23643440888
 20
30116.95641885224
 30
0.0
 40
11.18011237136784
100
AcDbArc
 50
112.8599956749007
 51
121.3713792288738
  0
ARC
  5
DD37
330
1F
100
AcDbEntity
  8
freecads.com
100
AcDbCircle
 10
11020.18885718109
 20
30138.35578564012
 30
0.0
 40
13.8832507397005
100
AcDbArc
 50
293.5664143281142
 51
301.3714351569699
  0
ARC
  5
DD38
330
1F
100
AcDbEntity
  8
freecads.com
100
AcDbCircle
 10
11022.53892819614
 20
30132.96806113266
 30
0.0
 40
8.005291132489659
100
AcDbArc
 50
281.7787540210871
 51
293.5664662809832
  0
ARC
  5
DD39
330
1F
100
AcDbEntity
  8
freecads.com
100
AcDbCircle
 10
11022.68661839963
 20
30132.25976806708
 30
0.0
 40
7.281764033538878
100
AcDbArc
 50
269.3379102563572
 51
281.7787990194369
  0
ARC
  5
DD3A
330
1F
100
AcDbEntity
  8
freecads.com
100
AcDbCircle
 10
11022.71403476719
 20
30134.63204696646
 30
0.0
 40
9.654201352768479
100
AcDbArc
 50
259.2678900651213
 51
269.337898789886
  0
ARC
  5
DD3B
330
1F
100
AcDbEntity
  8
freecads.com
100
AcDbCircle
 10
11028.53524014653
 20
30165.34503168284
 30
0.0
 40
40.91398161838067
100
AcDbArc
 50
254.2421168360998
 51
259.26775528609
  0
ARC
  5
DD3C
330
1F
100
AcDbEntity
  8
freecads.com
100
AcDbCircle
 10
11018.6362057461
 20
30130.26415989521
 30
0.0
 40
4.463214171855792
100
AcDbArc
 50
228.619635734768
 51
254.2420490179448
  0
ARC
  5
DD3D
330
1F
100
AcDbEntity
  8
freecads.com
100
AcDbCircle
 10
11017.19802153435
 20
30128.63173488437
 30
0.0
 40
2.287625689877625
100
AcDbArc
 50
188.6458966994025
 51
228.6196723149013
  0
ARC
  5
DD3E
330
1F
100
AcDbEntity
  8
freecads.com
100
AcDbCircle
 10
11022.06848357486
 20
30129.37231720392
 30
0.0
 40
7.214070925544035
100
AcDbArc
 50
171.6504414845734
 51
188.6459202001009
  0
ARC
  5
DD3F
330
1F
100
AcDbEntity
  8
freecads.com
100
AcDbCircle
 10
11024.62717163877
 20
30128.99678250593
 30
0.0
 40
9.800170482366802
100
AcDbArc
 50
164.9082043970153
 51
171.6504303213848
  0
ARC
  5
DD40
330
1F
100
AcDbEntity
  8
freecads.com
100
AcDbCircle
 10
11019.16338312397
 20
30130.47018315607
 30
0.0
 40
4.141204639544559
100
AcDbArc
 50
152.0747306081046
 51
164.9081599591232
  0
ARC
  5
DD41
330
1F
100
AcDbEntity
  8
freecads.com
100
AcDbCircle
 10
11016.98404113409
 20
30131.62531958152
 30
0.0
 40
1.674654078482225
100
AcDbArc
 50
130.9471362474164
 51
152.0748313840497
  0
ARC
  5
DD42
330
1F
100
AcDbEntity
  8
freecads.com
100
AcDbCircle
 10
11016.09156946234
 20
30132.65390463586
 30
0.0
 40
0.3128564067015457
100
AcDbArc
 50
58.28253072528727
 51
130.9469775607189
  0
ARC
  5
DD43
330
1F
100
AcDbEntity
  8
freecads.com
100
AcDbCircle
 10
11016.44410113706
 20
30133.22431286661
 30
0.0
 40
0.3576986852788327
100
AcDbArc
 50
238.282521007436
 51
359.5927159864361
  0
ARC
  5
DD44
330
1F
100
AcDbEntity
  8
freecads.com
100
AcDbCircle
 10
10967.54388247557
 20
30133.5718662518
 30
0.0
 40
49.2591524315319
100
AcDbArc
 50
359.5927823817291
 51
3.435364797912673
  0
ARC
  5
DD45
330
1F
100
AcDbEntity
  8
freecads.com
100
AcDbCircle
 10
10975.91958830955
 20
30134.07465204426
 30
0.0
 40
40.86836928748858
100
AcDbArc
 50
3.435380215426591
 51
8.467890848821333
  0
ARC
  5
DD46
330
1F
100
AcDbEntity
  8
freecads.com
100
AcDbCircle
 10
11004.92608616344
 20
30138.3930861694
 30
0.0
 40
11.5421729599607
100
AcDbArc
 50
8.467884927917594
 51
21.36482662824941
  0
ARC
  5
DD47
330
1F
100
AcDbEntity
  8
freecads.com
100
AcDbCircle
 10
11012.64023041873
 20
30141.41076297234
 30
0.0
 40
3.258792316857876
100
AcDbArc
 50
21.36485332283925
 51
51.35190025596013
  0
ARC
  5
DD48
330
1F
100
AcDbEntity
  8
freecads.com
100
AcDbCircle
 10
11007.36559400115
 20
30134.814687367
 30
0.0
 40
11.70450144807125
100
AcDbArc
 50
51.35195315499126
 51
62.93347913580737
  0
ARC
  5
DD49
330
1F
100
AcDbEntity
  8
freecads.com
100
AcDbCircle
 10
11006.7494629234
 20
30133.60889496762
 30
0.0
 40
13.05858889546894
100
AcDbArc
 50
62.93353876368645
 51
74.14401955688527
  0
ARC
  5
DD4A
330
1F
100
AcDbEntity
  8
freecads.com
100
AcDbCircle
 10
11008.07126746031
 20
30138.2626690943
 30
0.0
 40
8.220740111561278
100
AcDbArc
 50
74.14406524079803
 51
89.99996288794369
  0
ARC
  5
DD4B
330
1F
100
AcDbEntity
  8
freecads.com
100
AcDbCircle
 10
11008.07127051218
 20
30139.77198629453
 30
0.0
 40
6.711422911332804
100
AcDbArc
 50
89.9999805958261
 51
122.8475323876292
  0
ARC
  5
DD4C
330
1F
100
AcDbEntity
  8
freecads.com
100
AcDbCircle
 10
11009.25444474099
 20
30137.93939114957
 30
0.0
 40
8.892777128560345
100
AcDbArc
 50
122.8475018655407
 51
149.4523893170309
  0
ARC
  5
DD4D
330
1F
100
AcDbEntity
  8
freecads.com
100
AcDbCircle
 10
11015.84772230965
 20
30134.04827971045
 30
0.0
 40
16.54862831109449
100
AcDbArc
 50
149.4524168454005
 51
167.8901956389288
  0
ARC
  5
DD4E
330
1F
100
AcDbEntity
  8
freecads.com
100
AcDbCircle
 10
11046.74173280275
 20
30127.4197006853
 30
0.0
 40
48.14574755065596
100
AcDbArc
 50
167.8902568973459
 51
176.2041218091947
  0
ARC
  5
DD4F
330
1F
100
AcDbEntity
  8
freecads.com
100
AcDbCircle
 10
9203.456072950229
 20
30249.71505827081
 30
0.0
 40
1799.192385630451
100
AcDbArc
 50
356.1439213895913
 51
356.2041965482804
  0
ARC
  5
DD50
330
1F
100
AcDbEntity
  8
freecads.com
100
AcDbCircle
 10
9339.848559402708
 20
30240.52057449715
 30
0.0
 40
1662.490341421261
100
AcDbArc
 50
356.0800209809339
 51
356.1439630691478
  0
ARC
  5
DD51
330
1F
100
AcDbEntity
  8
freecads.com
100
AcDbCircle
 10
9494.985154399669
 20
30229.88950383972
 30
0.0
 40
1506.989914507965
100
AcDbArc
 50
356.0193090709884
 51
356.0800425959545
  0
ARC
  5
DD52
330
1F
100
AcDbEntity
  8
freecads.com
100
AcDbCircle
 10
10822.32092060751
 20
30137.5226980486
 30
0.0
 40
176.4442132760996
100
AcDbArc
 50
355.7247911951948
 51
356.0192913397189
  0
ARC
  5
DD53
330
1F
100
AcDbEntity
  8
freecads.com
100
AcDbCircle
 10
10997.04814773445
 20
30124.46091996541
 30
0.0
 40
1.229448070182285
100
AcDbArc
 50
316.3745530349053
 51
355.7247544095385
  0
ARC
  5
DD54
330
1F
100
AcDbEntity
  8
freecads.com
100
AcDbCircle
 10
10992.61913138293
 20
30128.68238949206
 30
0.0
 40
7.348025585130288
100
AcDbArc
 50
305.8805995203128
 51
316.3744302604714
  0
ARC
  5
DD55
330
1F
100
AcDbEntity
  8
freecads.com
100
AcDbCircle
 10
10990.5278904733
 20
30131.5733683743
 30
0.0
 40
10.9160849231468
100
AcDbArc
 50
296.9099682791391
 51
305.8806534219741
  0
ARC
  5
DD56
330
1F
100
AcDbEntity
  8
freecads.com
100
AcDbCircle
 10
10987.03040423517
 20
30138.46429968359
 30
0.0
 40
18.64378472937953
100
AcDbArc
 50
290.9019609127266
 51
296.9099947806299
  0
ARC
  5
DD57
330
1F
100
AcDbEntity
  8
freecads.com
100
AcDbCircle
 10
11000.02780649645
 20
30104.43101372422
 30
0.0
 40
17.78693059071592
100
AcDbArc
 50
110.9020194903747
 51
124.3723090817351
  0
ARC
  5
DD58
330
1F
100
AcDbEntity
  8
freecads.com
100
AcDbCircle
 10
10999.7510886955
 20
30104.83558501755
 30
0.0
 40
17.29677686722028
100
AcDbArc
 50
124.3723387232046
 51
138.1278692711824
  0
ARC
  5
DD59
330
1F
100
AcDbEntity
  8
freecads.com
100
AcDbCircle
 10
11006.55894650221
 20
30098.73322855333
 30
0.0
 40
26.43929743501981
100
AcDbArc
 50
138.127885919874
 51
148.851323816864
  0
ARC
  5
DD5A
330
1F
100
AcDbEntity
  8
freecads.com
100
AcDbCircle
 10
11056.53108051595
 20
30068.53008079565
 30
0.0
 40
84.82974453347726
100
AcDbArc
 50
148.8512681751033
 51
153.3500132461963
  0
ARC
  5
DD5B
330
1F
100
AcDbEntity
  8
freecads.com
100
AcDbCircle
 10
11056.97324237056
 20
30068.30820448016
 30
0.0
 40
85.32445273490909
100
AcDbArc
 50
153.3500279796695
 51
157.607531307795
  0
ARC
  5
DD5C
330
1F
100
AcDbEntity
  8
freecads.com
100
AcDbCircle
 10
10999.69469856699
 20
30091.90795434482
 30
0.0
 40
23.37463615789381
100
AcDbArc
 50
157.6076341365161
 51
168.7650709644749
  0
ARC
  5
DD5D
330
1F
100
AcDbEntity
  8
freecads.com
100
AcDbCircle
 10
10997.83075722603
 20
30092.27822508037
 30
0.0
 40
21.47427362939368
100
AcDbArc
 50
168.765121760668
 51
180.5372907053324
  0
ARC
  5
DD5E
330
1F
100
AcDbEntity
  8
freecads.com
100
AcDbCircle
 10
11040.6409315535
 20
30092.6797243607
 30
0.0
 40
64.28633066500075
100
AcDbArc
 50
180.5373223005154
 51
185.7347625918317
  0
ARC
  5
DD5F
330
1F
100
AcDbEntity
  8
freecads.com
100
AcDbCircle
 10
11056.24274297158
 20
30094.24657884579
 30
0.0
 40
79.96662251503122
100
AcDbArc
 50
185.7347810092917
 51
188.6713727628289
  0
ARC
  5
DD60
330
1F
100
AcDbEntity
  8
freecads.com
100
AcDbCircle
 10
10988.08088309482
 20
30083.85121054815
 30
0.0
 40
11.01662016622131
100
AcDbArc
 50
188.6714282813882
 51
201.3430978676466
  0
ARC
  5
DD61
330
1F
100
AcDbEntity
  8
freecads.com
100
AcDbCircle
 10
10984.3404861639
 20
30082.38966216169
 30
0.0
 40
7.000814781671319
100
AcDbArc
 50
201.3432015163385
 51
218.3838087402568
  0
ARC
  5
DD62
330
1F
100
AcDbEntity
  8
freecads.com
100
AcDbCircle
 10
10993.49395044569
 20
30089.64039218289
 30
0.0
 40
18.67810017676308
100
AcDbArc
 50
218.3837950934616
 51
226.5754348472158
  0
ARC
  5
DD63
330
1F
100
AcDbEntity
  8
freecads.com
100
AcDbCircle
 10
10967.28773204684
 20
30061.95190415183
 30
0.0
 40
19.44562278171554
100
AcDbArc
 50
38.61585437442394
 51
46.57539088533305
  0
ARC
  5
DD64
330
1F
100
AcDbEntity
  8
freecads.com
100
AcDbCircle
 10
10977.47226553216
 20
30070.08672396557
 30
0.0
 40
6.411052757526959
100
AcDbArc
 50
20.4128676604641
 51
38.61586535728484
  0
ARC
  5
DD65
330
1F
100
AcDbEntity
  8
freecads.com
100
AcDbCircle
 10
10973.80620542196
 20
30068.72239475856
 30
0.0
 40
10.32275199400771
100
AcDbArc
 50
7.140128595616261
 51
20.41284886638902
  0
ARC
  5
DD66
330
1F
100
AcDbEntity
  8
freecads.com
100
AcDbCircle
 10
10896.7865472182
 20
30059.07436868078
 30
0.0
 40
87.94434793882505
100
AcDbArc
 50
4.397354688208525
 51
7.14008730028692
  0
LINE
  5
DD67
330
1F
100
AcDbEntity
  8
freecads.com
100
AcDbLine
 10
10984.47201278511
 20
30065.81732520587
 30
0.0
 11
10985.02307378511
 21
30058.65124120586
 31
0.0
  0
LINE
  5
DD68
330
1F
100
AcDbEntity
  8
freecads.com
100
AcDbLine
 10
10985.02307378511
 20
30058.65124120586
 30
0.0
 11
10981.38843178511
 21
30057.79166820587
 31
0.0
  0
ARC
  5
DD69
330
1F
100
AcDbEntity
  8
freecads.com
100
AcDbCircle
 10
10979.28724272655
 20
30066.67641731027
 30
0.0
 40
9.129828153260262
100
AcDbArc
 50
262.3299776826319
 51
283.3056393353693
  0
ARC
  5
DD6A
330
1F
100
AcDbEntity
  8
freecads.com
100
AcDbCircle
 10
10980.2228764186
 20
30073.62394560926
 30
0.0
 40
16.14007493000524
100
AcDbArc
 50
248.6381876221965
 51
262.3300050846141
  0
ARC
  5
DD6B
330
1F
100
AcDbEntity
  8
freecads.com
100
AcDbCircle
 10
10979.91614311656
 20
30072.83974505628
 30
0.0
 40
15.29802040341343
100
AcDbArc
 50
234.6429350485501
 51
248.638226864901
  0
ARC
  5
DD6C
330
1F
100
AcDbEntity
  8
freecads.com
100
AcDbCircle
 10
10974.83261767488
 20
30065.67517050343
 30
0.0
 40
6.513183498869278
100
AcDbArc
 50
208.1549766453726
 51
234.6429590494983
  0
ARC
  5
DD6D
330
1F
100
AcDbEntity
  8
freecads.com
100
AcDbCircle
 10
10966.469992061
 20
30061.19962586857
 30
0.0
 40
2.971752290934412
100
AcDbArc
 50
28.15499829714953
 51
50.53982154593438
  0
ARC
  5
DD6E
330
1F
100
AcDbEntity
  8
freecads.com
100
AcDbCircle
 10
10966.24652364344
 20
30060.92814589545
 30
0.0
 40
3.323376393400745
100
AcDbArc
 50
50.53989721005981
 51
71.12436852837493
  0
ARC
  5
DD6F
330
1F
100
AcDbEntity
  8
freecads.com
100
AcDbCircle
 10
10965.28293236175
 20
30058.10977973045
 30
0.0
 40
6.301915632365671
100
AcDbArc
 50
71.12447292560665
 51
85.15743873778328
  0
ARC
  5
DD70
330
1F
100
AcDbEntity
  8
freecads.com
100
AcDbCircle
 10
10963.58695415712
 20
30038.09133508087
 30
0.0
 40
26.3920741250009
100
AcDbArc
 50
85.1574251898546
 51
90.00003120088276
  0
ARC
  5
DD71
330
1F
100
AcDbEntity
  8
freecads.com
100
AcDbCircle
 10
10963.58695323258
 20
30080.39314717813
 30
0.0
 40
15.90973797227024
100
AcDbArc
 50
258.6317178346011
 51
269.9999515715867
  0
ARC
  5
DD72
330
1F
100
AcDbEntity
  8
freecads.com
100
AcDbCircle
 10
10961.09520357099
 20
30068.00002595412
 30
0.0
 40
3.268603923101981
100
AcDbArc
 50
221.8896535009556
 51
258.6316630431316
  0
ARC
  5
DD73
330
1F
100
AcDbEntity
  8
freecads.com
100
AcDbCircle
 10
10960.12594661087
 20
30067.130675935
 30
0.0
 40
1.96659451050892
100
AcDbArc
 50
170.7638195249814
 51
221.8896237302477
  0
ARC
  5
DD74
330
1F
100
AcDbEntity
  8
freecads.com
100
AcDbCircle
 10
10963.94879188614
 20
30066.50903911318
 30
0.0
 40
5.839652518968949
100
AcDbArc
 50
148.014776244673
 51
170.7638833594545
  0
ARC
  5
DD75
330
1F
100
AcDbEntity
  8
freecads.com
100
AcDbCircle
 10
10955.07705430403
 20
30072.04952788187
 30
0.0
 40
4.620019728373377
100
AcDbArc
 50
328.0148532833723
 51
340.8080723565997
  0
ARC
  5
DD76
330
1F
100
AcDbEntity
  8
freecads.com
100
AcDbCircle
 10
10947.31264311686
 20
30074.75213756661
 30
0.0
 40
12.8413444507922
100
AcDbArc
 50
340.8081475422625
 51
346.7744985429374
  0
ARC
  5
DD77
330
1F
100
AcDbEntity
  8
freecads.com
100
AcDbCircle
 10
10946.15256466097
 20
30075.02476376752
 30
0.0
 40
14.03302690392634
100
AcDbArc
 50
346.7745483810467
 51
352.5966095022645
  0
ARC
  5
DD78
330
1F
100
AcDbEntity
  8
freecads.com
100
AcDbCircle
 10
10949.96918347093
 20
30074.52885572504
 30
0.0
 40
10.18432531417796
100
AcDbArc
 50
352.5965322033262
 51
0.0000083309631576
  0
ARC
  5
DD79
330
1F
100
AcDbEntity
  8
freecads.com
100
AcDbCircle
 10
10970.8802551337
 20
30074.52886805179
 30
0.0
 40
10.72674634859689
100
AcDbArc
 50
173.6267437228003
 51
180.0000579323772
  0
ARC
  5
DD7A
330
1F
100
AcDbEntity
  8
freecads.com
100
AcDbCircle
 10
10963.37151170003
 20
30075.36756169616
 30
0.0
 40
3.171308903824316
100
AcDbArc
 50
157.8336047898554
 51
173.626777080207
  0
ARC
  5
DD7B
330
1F
100
AcDbEntity
  8
freecads.com
100
AcDbCircle
 10
10961.28792072731
 20
30076.21643655264
 30
0.0
 40
0.9214333820381909
100
AcDbArc
 50
124.8360080180576
 51
157.8337410404721
  0
ARC
  5
DD7C
330
1F
100
AcDbEntity
  8
freecads.com
100
AcDbCircle
 10
10960.96566798372
 20
30076.67947597062
 30
0.0
 40
0.3572948056595159
100
AcDbArc
 50
58.28256218712283
 51
124.8359808085988
  0
ARC
  5
DD7D
330
1F
100
AcDbEntity
  8
freecads.com
100
AcDbCircle
 10
10961.8470495124
 20
30078.10557738624
 30
0.0
 40
1.319189207601401
100
AcDbArc
 50
238.2824276548051
 51
256.3521910841572
  0
ARC
  5
DD7E
330
1F
100
AcDbEntity
  8
freecads.com
100
AcDbCircle
 10
10961.66083547309
 20
30077.33866669788
 30
0.0
 40
0.5299948891108681
100
AcDbArc
 50
256.3523275514717
 51
292.0447488389797
  0
ARC
  5
DD7F
330
1F
100
AcDbEntity
  8
freecads.com
100
AcDbCircle
 10
10961.70552196725
 20
30077.22831392394
 30
0.0
 40
0.4109376865705345
100
AcDbArc
 50
292.0446465301834
 51
333.9296300213598
  0
ARC
  5
DD80
330
1F
100
AcDbEntity
  8
freecads.com
100
AcDbCircle
 10
10961.37844010941
 20
30077.38834153255
 30
0.0
 40
0.7750686757058926
100
AcDbArc
 50
333.9295271485313
 51
359.9999758500453
  0
ARC
  5
DD81
330
1F
100
AcDbEntity
  8
freecads.com
100
AcDbCircle
 10
10960.27689078872
 20
30077.38833967591
 30
0.0
 40
1.876617996393802
100
AcDbArc
 50
0.0000467115903625
 51
53.04287779325187
  0
ARC
  5
DD82
330
1F
100
AcDbEntity
  8
freecads.com
100
AcDbCircle
 10
10938.97219643511
 20
30049.07188667653
 30
0.0
 40
37.31263797559295
100
AcDbArc
 50
53.04297380512874
 51
59.0810099305003
  0
ARC
  5
DD83
330
1F
100
AcDbEntity
  8
freecads.com
100
AcDbCircle
 10
10941.40470974647
 20
30053.13317336118
 30
0.0
 40
32.57859419228668
100
AcDbArc
 50
59.08109260380669
 51
66.19562973366098
  0
ARC
  5
DD84
330
1F
100
AcDbEntity
  8
freecads.com
100
AcDbCircle
 10
10951.97702356149
 20
30077.09885163571
 30
0.0
 40
6.384557570160525
100
AcDbArc
 50
66.19568385474778
 51
89.99998901912855
  0
ARC
  5
DD85
330
1F
100
AcDbEntity
  8
freecads.com
100
AcDbCircle
 10
10951.97702146919
 20
30077.43561930498
 30
0.0
 40
6.047789900889255
100
AcDbArc
 50
89.99996858546538
 51
120.1629428411654
  0
ARC
  5
DD86
330
1F
100
AcDbEntity
  8
freecads.com
100
AcDbCircle
 10
10958.80772731525
 20
30065.68184641717
 30
0.0
 40
19.64226375806857
100
AcDbArc
 50
120.1629930745424
 51
132.7064796267957
  0
ARC
  5
DD87
330
1F
100
AcDbEntity
  8
freecads.com
100
AcDbCircle
 10
10957.75992620491
 20
30066.81708373083
 30
0.0
 40
18.09738482262651
100
AcDbArc
 50
132.7064876830244
 51
145.4339064203097
  0
ARC
  5
DD88
330
1F
100
AcDbEntity
  8
freecads.com
100
AcDbCircle
 10
10944.81473337618
 20
30075.73607421484
 30
0.0
 40
2.377130097380121
100
AcDbArc
 50
145.4339443251081
 51
202.1353054501282
  0
ARC
  5
DD89
330
1F
100
AcDbEntity
  8
freecads.com
100
AcDbCircle
 10
10969.37560889463
 20
30085.72690070259
 30
0.0
 40
28.89228086332621
100
AcDbArc
 50
202.1354064980801
 51
204.6368408967236
  0
ARC
  5
DD8A
330
1F
100
AcDbEntity
  8
freecads.com
100
AcDbCircle
 10
10943.35379617813
 20
30073.79293993171
 30
0.0
 40
0.2644245563361456
100
AcDbArc
 50
204.6369107803042
 51
275.1797933830987
  0
ARC
  5
DD8B
330
1F
100
AcDbEntity
  8
freecads.com
100
AcDbCircle
 10
10943.34825222976
 20
30073.85408567598
 30
0.0
 40
0.3258211149119598
100
AcDbArc
 50
275.1799671167276
 51
335.6565022317089
  0
ARC
  5
DD8C
330
1F
100
AcDbEntity
  8
freecads.com
100
AcDbCircle
 10
10907.56761384305
 20
30090.04241200853
 30
0.0
 40
39.59815225032214
100
AcDbArc
 50
335.6564552504889
 51
337.6480064159256
  0
ARC
  5
DD8D
330
1F
100
AcDbEntity
  8
freecads.com
100
AcDbCircle
 10
10957.58566662679
 20
30069.47546685518
 30
0.0
 40
14.48331257098427
100
AcDbArc
 50
153.3251985025453
 51
157.6479961336517
  0
ARC
  5
DD8E
330
1F
100
AcDbEntity
  8
freecads.com
100
AcDbCircle
 10
10944.76306883387
 20
30075.9174971659
 30
0.0
 40
0.1334425826029354
100
AcDbArc
 50
36.30014514980105
 51
153.3251081590764
  0
ARC
  5
DD8F
330
1F
100
AcDbEntity
  8
freecads.com
100
AcDbCircle
 10
10944.22719497258
 20
30075.52385473702
 30
0.0
 40
0.7983599887759861
100
AcDbArc
 50
2.485668609660386
 51
36.30025236960245
  0
ARC
  5
DD90
330
1F
100
AcDbEntity
  8
freecads.com
100
AcDbCircle
 10
10861.89616618854
 20
30071.9497455963
 30
0.0
 40
83.20693088275625
100
AcDbArc
 50
1.252279774070918
 51
2.485731406310658
  0
ARC
  5
DD91
330
1F
100
AcDbEntity
  8
freecads.com
100
AcDbCircle
 10
10951.93896187893
 20
30073.91807136784
 30
0.0
 40
6.857375932344597
100
AcDbArc
 50
181.2522840147697
 51
194.7442707547656
  0
ARC
  5
DD92
330
1F
100
AcDbEntity
  8
freecads.com
100
AcDbCircle
 10
10955.07004980938
 20
30074.74208355274
 30
0.0
 40
10.09507692364605
100
AcDbArc
 50
194.744272464416
 51
204.8417299571517
  0
ARC
  5
DD93
330
1F
100
AcDbEntity
  8
freecads.com
100
AcDbCircle
 10
10956.95144462026
 20
30075.61306759901
 30
0.0
 40
12.16830137923609
100
AcDbArc
 50
204.8417052306306
 51
214.0226795191546
  0
ARC
  5
DD94
330
1F
100
AcDbEntity
  8
freecads.com
100
AcDbCircle
 10
10960.65811484787
 20
30078.11537649272
 30
0.0
 40
16.6405439906956
100
AcDbArc
 50
214.0226593640204
 51
221.2835005039281
  0
ARC
  5
DD95
330
1F
100
AcDbEntity
  8
freecads.com
100
AcDbCircle
 10
10870.55446046904
 20
29999.00325708197
 30
0.0
 40
103.2652355617601
100
AcDbArc
 50
39.27227715249215
 51
41.28353656301457
  0
ARC
  5
DD96
330
1F
100
AcDbEntity
  8
freecads.com
100
AcDbCircle
 10
10948.81294110139
 20
30062.99387321491
 30
0.0
 40
2.175232376689633
100
AcDbArc
 50
7.001694432348105
 51
39.27227836975009
  0
ARC
  5
DD97
330
1F
100
AcDbEntity
  8
freecads.com
100
AcDbCircle
 10
10950.42817686527
 20
30063.19224769172
 30
0.0
 40
0.5478605673065457
100
AcDbArc
 50
280.7983057488976
 51
7.001697089140236
  0
ARC
  5
DD98
330
1F
100
AcDbEntity
  8
freecads.com
100
AcDbCircle
 10
10948.72493110861
 20
30072.12245452757
 30
0.0
 40
9.639045321706163
100
AcDbArc
 50
270.0000396859879
 51
280.79825536584
  0
ARC
  5
DD99
330
1F
100
AcDbEntity
  8
freecads.com
100
AcDbCircle
 10
10948.72494176843
 20
30057.49176090777
 30
0.0
 40
4.991648298095013
100
AcDbArc
 50
90.00004572180907
 51
111.5105823392513
  0
ARC
  5
DD9A
330
1F
100
AcDbEntity
  8
freecads.com
100
AcDbCircle
 10
10949.95216404365
 20
30054.37799732404
 30
0.0
 40
8.338527167732257
100
AcDbArc
 50
111.5106705255588
 51
126.1581845793248
  0
ARC
  5
DD9B
330
1F
100
AcDbEntity
  8
freecads.com
100
AcDbCircle
 10
10949.32424342576
 20
30055.23726001643
 30
0.0
 40
7.274282516867776
100
AcDbArc
 50
126.1581979281145
 51
141.6646282820425
  0
ARC
  5
DD9C
330
1F
100
AcDbEntity
  8
freecads.com
100
AcDbCircle
 10
10945.30945255414
 20
30058.41197981427
 30
0.0
 40
2.155943769032964
100
AcDbArc
 50
141.6646830245467
 51
179.9999895931746
  0
ARC
  5
DD9D
330
1F
100
AcDbEntity
  8
freecads.com
100
AcDbCircle
 10
10942.34619457707
 20
30058.41197986076
 30
0.0
 40
0.807314208041663
100
AcDbArc
 50
300.3110884612497
 51
0.000024492423036
  0
ARC
  5
DD9E
330
1F
100
AcDbEntity
  8
freecads.com
100
AcDbCircle
 10
10942.0552525469
 20
30058.90964993718
 30
0.0
 40
1.383788639286642
100
AcDbArc
 50
260.3047855516496
 51
300.3110134369925
  0
ARC
  5
DD9F
330
1F
100
AcDbEntity
  8
freecads.com
100
AcDbCircle
 10
10942.49573589695
 20
30061.48792775864
 30
0.0
 40
3.999422808332685
100
AcDbArc
 50
239.2637867946767
 51
260.3049001168755
  0
ARC
  5
DDA0
330
1F
100
AcDbEntity
  8
freecads.com
100
AcDbCircle
 10
10945.08793027681
 20
30065.84739706455
 30
0.0
 40
9.071349891029884
100
AcDbArc
 50
227.8553012681436
 51
239.2637717176302
  0
ARC
  5
DDA1
330
1F
100
AcDbEntity
  8
freecads.com
100
AcDbCircle
 10
10932.84303750334
 20
30052.31694082113
 30
0.0
 40
9.177229373916619
100
AcDbArc
 50
47.85530042498059
 51
55.68847797791069
  0
ARC
  5
DDA2
330
1F
100
AcDbEntity
  8
freecads.com
100
AcDbCircle
 10
10937.03677448071
 20
30058.46206861323
 30
0.0
 40
1.737469605178612
100
AcDbArc
 50
55.68858563472668
 51
82.56069689622536
  0
ARC
  5
DDA3
330
1F
100
AcDbEntity
  8
freecads.com
100
AcDbCircle
 10
10937.09728640425
 20
30058.925500907
 30
0.0
 40
1.27010338495914
100
AcDbArc
 50
82.56066497095735
 51
115.5047490741049
  0
ARC
  5
DDA4
330
1F
100
AcDbEntity
  8
freecads.com
100
AcDbCircle
 10
10938.24477685265
 20
30056.52025377558
 30
0.0
 40
3.935051431805185
100
AcDbArc
 50
115.5047712424303
 51
129.6902518745025
  0
ARC
  5
DDA5
330
1F
100
AcDbEntity
  8
freecads.com
100
AcDbCircle
 10
10937.58298951075
 20
30057.31764898895
 30
0.0
 40
2.8988074392218
100
AcDbArc
 50
129.6901572074079
 51
144.8742015010111
  0
ARC
  5
DDA6
330
1F
100
AcDbEntity
  8
freecads.com
100
AcDbCircle
 10
10937.68137090101
 20
30057.24844090089
 30
0.0
 40
3.019093171543037
100
AcDbArc
 50
144.8742280568351
 51
159.6023119243182
  0
ARC
  5
DDA7
330
1F
100
AcDbEntity
  8
freecads.com
100
AcDbCircle
 10
10937.27103609097
 20
30057.40102220066
 30
0.0
 40
2.581308167952054
100
AcDbArc
 50
159.6022702908904
 51
175.5188382013008
  0
ARC
  5
DDA8
330
1F
100
AcDbEntity
  8
freecads.com
100
AcDbCircle
 10
10936.07025507195
 20
30057.4951282816
 30
0.0
 40
1.37684521289862
100
AcDbArc
 50
175.5188300492756
 51
200.9936652143874
  0
ARC
  5
DDA9
330
1F
100
AcDbEntity
  8
freecads.com
100
AcDbCircle
 10
10937.31806685458
 20
30057.97396006809
 30
0.0
 40
2.713375842782487
100
AcDbArc
 50
200.9936653021432
 51
239.2300279771291
  0
ARC
  5
DDAA
330
1F
100
AcDbEntity
  8
freecads.com
100
AcDbCircle
 10
10945.00192197911
 20
30070.87917235244
 30
0.0
 40
17.73290092444146
100
AcDbArc
 50
239.2301149747771
 51
248.7899823255567
  0
ARC
  5
DDAB
330
1F
100
AcDbEntity
  8
freecads.com
100
AcDbCircle
 10
10945.33953759878
 20
30071.74914113277
 30
0.0
 40
18.66608364256117
100
AcDbArc
 50
248.7899766999258
 51
258.567638267205
  0
ARC
  5
DDAC
330
1F
100
AcDbEntity
  8
freecads.com
100
AcDbCircle
 10
10943.34866566373
 20
30061.90418076916
 30
0.0
 40
8.621840733177297
100
AcDbArc
 50
258.5675885053545
 51
275.9880884730754
  0
ARC
  5
DDAD
330
1F
100
AcDbEntity
  8
freecads.com
100
AcDbCircle
 10
10945.02667501755
 20
30045.90694141437
 30
0.0
 40
7.463164158521204
100
AcDbArc
 50
85.78170916129217
 51
95.98804390453052
  0
ARC
  5
DDAE
330
1F
100
AcDbEntity
  8
freecads.com
100
AcDbCircle
 10
10945.4326937866
 20
30051.411816274
 30
0.0
 40
1.943336402058949
100
AcDbArc
 50
58.02455530792135
 51
85.78168445738979
  0
ARC
  5
DDAF
330
1F
100
AcDbEntity
  8
freecads.com
100
AcDbCircle
 10
10945.5532302343
 20
30051.60489619933
 30
0.0
 40
1.715720733029617
100
AcDbArc
 50
27.96006437397192
 51
58.02460481455854
  0
ARC
  5
DDB0
330
1F
100
AcDbEntity
  8
freecads.com
100
AcDbCircle
 10
10942.38462249938
 20
30049.92295632387
 30
0.0
 40
5.303059122765846
100
AcDbArc
 50
14.99292179988662
 51
27.95999893401841
  0
ARC
  5
DDB1
330
1F
100
AcDbEntity
  8
freecads.com
100
AcDbCircle
 10
10932.01589985301
 20
30047.14602897075
 30
0.0
 40
16.03719787917425
100
AcDbArc
 50
2.076593501087971
 51
14.99295404965174
  0
ARC
  5
DDB2
330
1F
100
AcDbEntity
  8
freecads.com
100
AcDbCircle
 10
10868.79638266676
 20
30044.85376373823
 30
0.0
 40
79.29825883422444
100
AcDbArc
 50
358.1272220922809
 51
2.076572979950954
  0
ARC
  5
DDB3
330
1F
100
AcDbEntity
  8
freecads.com
100
AcDbCircle
 10
10840.04147659598
 20
30045.79402377681
 30
0.0
 40
108.0685336344084
100
AcDbArc
 50
354.5767518213549
 51
358.1272018124541
  0
ARC
  5
DDB4
330
1F
100
AcDbEntity
  8
freecads.com
100
AcDbCircle
 10
10764.99265801839
 20
30052.918994335
 30
0.0
 40
183.4548080837116
100
AcDbArc
 50
352.1880491183389
 51
354.5767382586841
  0
ARC
  5
DDB5
330
1F
100
AcDbEntity
  8
freecads.com
100
AcDbCircle
 10
11101.65038007959
 20
30006.73120199616
 30
0.0
 40
156.3565130705257
100
AcDbArc
 50
172.1880925609953
 51
173.8040359469443
  0
ARC
  5
DDB6
330
1F
100
AcDbEntity
  8
freecads.com
100
AcDbCircle
 10
11185.28288887873
 20
29997.65196546649
 30
0.0
 40
240.4804042309648
100
AcDbArc
 50
173.8040834988858
 51
174.9745115075154
  0
ARC
  5
DDB7
330
1F
100
AcDbEntity
  8
freecads.com
100
AcDbCircle
 10
11171.04844010434
 20
29998.90376723263
 30
0.0
 40
226.1910186749767
100
AcDbArc
 50
174.9745286254482
 51
176.1568738421599
  0
ARC
  5
DDB8
330
1F
100
AcDbEntity
  8
freecads.com
100
AcDbCircle
 10
11025.16875336158
 20
30008.70345973805
 30
0.0
 40
79.9825477256323
100
AcDbArc
 50
176.1569322915859
 51
178.7248216651017
  0
ARC
  5
DDB9
330
1F
100
AcDbEntity
  8
freecads.com
100
AcDbCircle
 10
10825.42204656306
 20
30013.1497862829
 30
0.0
 40
119.8136401674276
100
AcDbArc
 50
356.5501599126815
 51
358.7248132520124
  0
ARC
  5
DDBA
330
1F
100
AcDbEntity
  8
freecads.com
100
AcDbCircle
 10
10935.634451418
 20
30006.50574944417
 30
0.0
 40
9.40115260636182
100
AcDbArc
 50
342.5450453026528
 51
356.5501552635257
  0
ARC
  5
DDBB
330
1F
100
AcDbEntity
  8
freecads.com
100
AcDbCircle
 10
10939.8104520039
 20
30005.19266982053
 30
0.0
 40
5.023578050573823
100
AcDbArc
 50
321.0985757606748
 51
342.5450487213603
  0
ARC
  5
DDBC
330
1F
100
AcDbEntity
  8
freecads.com
100
AcDbCircle
 10
10930.44928266077
 20
30012.74651609969
 30
0.0
 40
17.05238036333321
100
AcDbArc
 50
312.4662529531857
 51
321.098704851676
  0
ARC
  5
DDBD
330
1F
100
AcDbEntity
  8
freecads.com
100
AcDbCircle
 10
10953.87378013533
 20
29987.15293098597
 30
0.0
 40
17.64255703261764
100
AcDbArc
 50
132.4662881869225
 51
142.0826647464653
  0
ARC
  5
DDBE
330
1F
100
AcDbEntity
  8
freecads.com
100
AcDbCircle
 10
10940.85970140579
 20
29997.29044102051
 30
0.0
 40
1.146031493008473
100
AcDbArc
 50
142.0827011574693
 51
212.4719385349685
  0
ARC
  5
DDBF
330
1F
100
AcDbEntity
  8
freecads.com
100
AcDbCircle
 10
10941.72984513914
 20
29997.84418637809
 30
0.0
 40
2.17743056113388
100
AcDbArc
 50
212.4719741558619
 51
257.2405838691338
  0
ARC
  5
DDC0
330
1F
100
AcDbEntity
  8
freecads.com
100
AcDbCircle
 10
10952.92659471536
 20
30047.28888486972
 30
0.0
 40
52.87403212375941
100
AcDbArc
 50
257.2405687246067
 51
261.6719595314863
  0
LINE
  5
DDC1
330
1F
100
AcDbEntity
  8
freecads.com
100
AcDbLine
 10
10945.26829578511
 20
29994.97240820586
 30
0.0
 11
10949.88308278511
 21
29994.29687420586
 31
0.0
  0
LINE
  5
DDC2
330
1F
100
AcDbEntity
  8
freecads.com
100
AcDbLine
 10
10949.88308278511
 20
29994.29687420586
 30
0.0
 11
10951.07799878511
 21
30004.14014220586
 31
0.0
  0
ARC
  5
DDC3
330
1F
100
AcDbEntity
  8
freecads.com
100
AcDbCircle
 10
11510.05350291513
 20
29936.28329937289
 30
0.0
 40
563.0791821197683
100
AcDbArc
 50
172.2822665324691
 51
173.0784454817702
  0
ARC
  5
DDC4
330
1F
100
AcDbEntity
  8
freecads.com
100
AcDbCircle
 10
10979.49486304997
 20
30008.18482448248
 30
0.0
 40
27.67064684168597
100
AcDbArc
 50
165.1637588220637
 51
172.282188309342
  0
ARC
  5
DDC5
330
1F
100
AcDbEntity
  8
freecads.com
100
AcDbCircle
 10
10957.71552774578
 20
30013.9539064091
 30
0.0
 40
5.140184073067423
100
AcDbArc
 50
144.864556303472
 51
165.163685013134
  0
ARC
  5
DDC6
330
1F
100
AcDbEntity
  8
freecads.com
100
AcDbCircle
 10
10954.61248902621
 20
30016.13762680893
 30
0.0
 40
1.345782396937261
100
AcDbArc
 50
90.0000102644603
 51
144.8645314127968
  0
ARC
  5
DDC7
330
1F
100
AcDbEntity
  8
freecads.com
100
AcDbCircle
 10
10954.61248916109
 20
30018.38202644631
 30
0.0
 40
0.8986172404425692
100
AcDbArc
 50
269.9999760273242
 51
308.2140520550453
  0
ARC
  5
DDC8
330
1F
100
AcDbEntity
  8
freecads.com
100
AcDbCircle
 10
10953.2136085363
 20
30020.15878758031
 30
0.0
 40
3.159976815947115
100
AcDbArc
 50
308.2140769139109
 51
323.2089508298117
  0
ARC
  5
DDC9
330
1F
100
AcDbEntity
  8
freecads.com
100
AcDbCircle
 10
10952.09789190861
 20
30020.99317562904
 30
0.0
 40
4.553184269690923
100
AcDbArc
 50
323.2089791957175
 51
335.8276400000692
  0
ARC
  5
DDCA
330
1F
100
AcDbEntity
  8
freecads.com
100
AcDbCircle
 10
10950.64886585201
 20
30021.64355377707
 30
0.0
 40
6.141475253146787
100
AcDbArc
 50
335.8276396219301
 51
345.9106865476283
  0
LINE
  5
DDCB
330
1F
100
AcDbEntity
  8
freecads.com
100
AcDbLine
 10
10956.60558978511
 20
30020.14850920586
 30
0.0
 11
10957.27448778511
 21
30022.81360920586
 31
0.0
  0
LINE
  5
DDCC
330
1F
100
AcDbEntity
  8
freecads.com
100
AcDbLine
 10
10957.27448778511
 20
30022.81360920586
 30
0.0
 11
10959.29608078511
 21
30019.48936620586
 31
0.0
  0
ARC
  5
DDCD
330
1F
100
AcDbEntity
  8
freecads.com
100
AcDbCircle
 10
10949.57336317369
 20
30013.57662574638
 30
0.0
 40
11.37944363722231
100
AcDbArc
 50
19.02575970439513
 51
31.30531536155937
  0
ARC
  5
DDCE
330
1F
100
AcDbEntity
  8
freecads.com
100
AcDbCircle
 10
10946.3401998288
 20
30012.46172262511
 30
0.0
 40
14.79943693903647
100
AcDbArc
 50
8.94206135435599
 51
19.02579449942661
  0
ARC
  5
DDCF
330
1F
100
AcDbEntity
  8
freecads.com
100
AcDbCircle
 10
10929.62967263513
 20
30009.83233106305
 30
0.0
 40
31.71556590156394
100
AcDbArc
 50
2.564666471411918
 51
8.942102785682308
  0
ARC
  5
DDD0
330
1F
100
AcDbEntity
  8
freecads.com
100
AcDbCircle
 10
10765.01989606528
 20
30002.45913552414
 30
0.0
 40
196.4903896909719
100
AcDbArc
 50
0.9083971925407496
 51
2.564674751684296
  0
ARC
  5
DDD1
330
1F
100
AcDbEntity
  8
freecads.com
100
AcDbCircle
 10
11079.66811070345
 20
30007.44817416126
 30
0.0
 40
118.197375373876
100
AcDbArc
 50
180.9084086259147
 51
182.9031681123049
  0
ARC
  5
DDD2
330
1F
100
AcDbEntity
  8
freecads.com
100
AcDbCircle
 10
11030.76631114232
 20
30004.96819610791
 30
0.0
 40
69.23273209465175
100
AcDbArc
 50
182.9031608116741
 51
185.8807695139849
  0
ARC
  5
DDD3
330
1F
100
AcDbEntity
  8
freecads.com
100
AcDbCircle
 10
11054.68439970872
 20
30007.43169732551
 30
0.0
 40
93.27735309218295
100
AcDbArc
 50
185.8807208810191
 51
187.7072716577331
  0
ARC
  5
DDD4
330
1F
100
AcDbEntity
  8
freecads.com
100
AcDbCircle
 10
10963.27075667622
 20
29995.06027335836
 30
0.0
 40
1.030367973703798
100
AcDbArc
 50
187.7072430309418
 51
233.1976971765826
  0
ARC
  5
DDD5
330
1F
100
AcDbEntity
  8
freecads.com
100
AcDbCircle
 10
10963.9967190895
 20
29996.03060308172
 30
0.0
 40
2.242210041597579
100
AcDbArc
 50
233.1976519567717
 51
272.8385874443775
  0
ARC
  5
DDD6
330
1F
100
AcDbEntity
  8
freecads.com
100
AcDbCircle
 10
10960.92907461215
 20
30057.89940233033
 30
0.0
 40
64.18701420711973
100
AcDbArc
 50
272.8385759056347
 51
276.3386175394758
  0
ARC
  5
DDD7
330
1F
100
AcDbEntity
  8
freecads.com
100
AcDbCircle
 10
10961.52976471545
 20
30052.4913127389
 30
0.0
 40
58.74566679812039
100
AcDbArc
 50
276.3386740708173
 51
280.1498671536052
  0
ARC
  5
DDD8
330
1F
100
AcDbEntity
  8
freecads.com
100
AcDbCircle
 10
10971.3329120776
 20
29997.7328425909
 30
0.0
 40
3.116611879362122
100
AcDbArc
 50
280.1498745853475
 51
312.4458457374995
  0
ARC
  5
DDD9
330
1F
100
AcDbEntity
  8
freecads.com
100
AcDbCircle
 10
10972.51614350783
 20
29996.43911781751
 30
0.0
 40
1.363397572224161
100
AcDbArc
 50
312.4458871272453
 51
2.214574012911587
  0
ARC
  5
DDDA
330
1F
100
AcDbEntity
  8
freecads.com
100
AcDbCircle
 10
10970.91702514022
 20
29996.37727363165
 30
0.0
 40
2.963711371746751
100
AcDbArc
 50
2.21466850781389
 51
30.1100002089108
  0
ARC
  5
DDDB
330
1F
100
AcDbEntity
  8
freecads.com
100
AcDbCircle
 10
10968.97928168419
 20
29995.25354011434
 30
0.0
 40
5.203717335856162
100
AcDbArc
 50
30.11010521462856
 51
50.30781405566076
  0
ARC
  5
DDDC
330
1F
100
AcDbEntity
  8
freecads.com
100
AcDbCircle
 10
10967.44459104199
 20
29993.40446253185
 30
0.0
 40
7.606707821307535
100
AcDbArc
 50
50.30791372480525
 51
65.50450779602458
  0
ARC
  5
DDDD
330
1F
100
AcDbEntity
  8
freecads.com
100
AcDbCircle
 10
10972.65116372938
 20
30004.83162279186
 30
0.0
 40
4.950696001015652
100
AcDbArc
 50
226.2271968214938
 51
245.5044924986448
  0
ARC
  5
DDDE
330
1F
100
AcDbEntity
  8
freecads.com
100
AcDbCircle
 10
10971.02222107386
 20
30003.13136307776
 30
0.0
 40
2.596054357293197
100
AcDbArc
 50
194.9833338045152
 51
226.2272090706378
  0
ARC
  5
DDDF
330
1F
100
AcDbEntity
  8
freecads.com
100
AcDbCircle
 10
10977.10787942312
 20
30004.76011599748
 30
0.0
 40
8.895901467932169
100
AcDbArc
 50
181.4249043413584
 51
194.9833513646592
  0
ARC
  5
DDE0
330
1F
100
AcDbEntity
  8
freecads.com
100
AcDbCircle
 10
11166.14437767758
 20
30009.46214034968
 30
0.0
 40
197.9908688925428
100
AcDbArc
 50
180.0000492372679
 51
181.4248623254563
  0
ARC
  5
DDE1
330
1F
100
AcDbEntity
  8
freecads.com
100
AcDbCircle
 10
11061.11562003319
 20
30009.46205778227
 30
0.0
 40
92.96211124811803
100
AcDbArc
 50
177.8437336496703
 51
180.0000539763786
  0
ARC
  5
DDE2
330
1F
100
AcDbEntity
  8
freecads.com
100
AcDbCircle
 10
10992.89389145688
 20
30012.0307574436
 30
0.0
 40
24.69204117428713
100
AcDbArc
 50
172.0634358012554
 51
177.8438123148653
  0
ARC
  5
DDE3
330
1F
100
AcDbEntity
  8
freecads.com
100
AcDbCircle
 10
10982.33645062931
 20
30013.50260763805
 30
0.0
 40
14.03249616420304
100
AcDbArc
 50
165.1479389254303
 51
172.0635024743385
  0
ARC
  5
DDE4
330
1F
100
AcDbEntity
  8
freecads.com
100
AcDbCircle
 10
10969.27178570621
 20
30016.96714312636
 30
0.0
 40
0.5162660795023216
100
AcDbArc
 50
89.99999124360909
 51
165.147867901331
  0
ARC
  5
DDE5
330
1F
100
AcDbEntity
  8
freecads.com
100
AcDbCircle
 10
10969.27178515447
 20
30018.24435171476
 30
0.0
 40
0.7609425089017689
100
AcDbArc
 50
270.0000474848016
 51
0.8197350869560537
  0
ARC
  5
DDE6
330
1F
100
AcDbEntity
  8
freecads.com
100
AcDbCircle
 10
10792.6057016144
 20
30015.71643601017
 30
0.0
 40
177.4451111013241
100
AcDbArc
 50
0.8197893602907242
 51
2.764590617872884
  0
ARC
  5
DDE7
330
1F
100
AcDbEntity
  8
freecads.com
100
AcDbCircle
 10
10798.3360044907
 20
30015.9930611615
 30
0.0
 40
171.7081351974754
100
AcDbArc
 50
2.764618502816606
 51
5.560742983813925
  0
ARC
  5
DDE8
330
1F
100
AcDbEntity
  8
freecads.com
100
AcDbCircle
 10
10238.07149884115
 20
29961.44592013802
 30
0.0
 40
734.6217226019391
100
AcDbArc
 50
5.560763452726284
 51
6.510722036739742
  0
ARC
  5
DDE9
330
1F
100
AcDbEntity
  8
freecads.com
100
AcDbCircle
 10
11102.67330732774
 20
30060.11879417708
 30
0.0
 40
135.5924023750225
100
AcDbArc
 50
184.9016706348202
 51
186.510738867655
  0
ARC
  5
DDEA
330
1F
100
AcDbEntity
  8
freecads.com
100
AcDbCircle
 10
11044.68521695715
 20
30055.14583723627
 30
0.0
 40
77.39146659601506
100
AcDbArc
 50
182.4530007136143
 51
184.9017291430316
  0
ARC
  5
DDEB
330
1F
100
AcDbEntity
  8
freecads.com
100
AcDbCircle
 10
11091.01921766474
 20
30057.13070755164
 30
0.0
 40
123.7679620623478
100
AcDbArc
 50
181.1732382214508
 51
182.4529834516102
  0
ARC
  5
DDEC
330
1F
100
AcDbEntity
  8
freecads.com
100
AcDbCircle
 10
10968.06787388336
 20
30054.61269509869
 30
0.0
 40
0.790836854611362
100
AcDbArc
 50
134.9999995428701
 51
181.1731049681435
  0
ARC
  5
DDED
330
1F
100
AcDbEntity
  8
freecads.com
100
AcDbCircle
 10
10967.87257292775
 20
30054.80799647634
 30
0.0
 40
0.5146392960150205
100
AcDbArc
 50
76.92626762916323
 51
135.0000325219555
  0
ARC
  5
DDEE
330
1F
100
AcDbEntity
  8
freecads.com
100
AcDbCircle
 10
10965.24620565114
 20
30043.49844849312
 30
0.0
 40
12.1251380215808
100
AcDbArc
 50
71.04823870290414
 51
76.92618407741239
  0
ARC
  5
DDEF
330
1F
100
AcDbEntity
  8
freecads.com
100
AcDbCircle
 10
10964.44190921566
 20
30041.15626317917
 30
0.0
 40
14.60157190938691
100
AcDbArc
 50
64.81201797051013
 51
71.04815536095492
  0
ARC
  5
DDF0
330
1F
100
AcDbEntity
  8
freecads.com
100
AcDbCircle
 10
10959.94935196699
 20
30031.60389634843
 30
0.0
 40
25.15764990746485
100
AcDbArc
 50
60.66264922100875
 51
64.81201450405396
  0
ARC
  5
DDF1
330
1F
100
AcDbEntity
  8
freecads.com
100
AcDbCircle
 10
10984.24019774656
 20
30074.82365071421
 30
0.0
 40
24.4204940283975
100
AcDbArc
 50
240.6626699746436
 51
246.776054366055
  0
ARC
  5
DDF2
330
1F
100
AcDbEntity
  8
freecads.com
100
AcDbCircle
 10
10978.25317290191
 20
30060.8710179425
 30
0.0
 40
9.237594840422099
100
AcDbArc
 50
246.776140720355
 51
259.4075968718267
  0
ARC
  5
DDF3
330
1F
100
AcDbEntity
  8
freecads.com
100
AcDbCircle
 10
10978.36931552576
 20
30061.49218133743
 30
0.0
 40
9.869522899563008
100
AcDbArc
 50
259.4077093054281
 51
271.5298049004139
  0
ARC
  5
DDF4
330
1F
100
AcDbEntity
  8
freecads.com
100
AcDbCircle
 10
10977.81777041275
 20
30082.14321120531
 30
0.0
 40
30.52791675327692
100
AcDbArc
 50
271.5298589647409
 51
276.7543288856799
  0
LINE
  5
DDF5
330
1F
100
AcDbEntity
  8
freecads.com
100
AcDbLine
 10
10981.40823278511
 20
30051.82717120586
 30
0.0
 11
10986.44161878511
 21
30052.42330220586
 31
0.0
  0
LINE
  5
DDF6
330
1F
100
AcDbEntity
  8
freecads.com
100
AcDbLine
 10
10986.44161878511
 20
30052.42330220586
 30
0.0
 11
10985.91419778511
 21
30034.85761520586
 31
0.0
  0
ARC
  5
DDF7
330
1F
100
AcDbEntity
  8
freecads.com
100
AcDbCircle
 10
11613.53788599252
 20
30016.01239592128
 30
0.0
 40
627.9065506020421
100
AcDbArc
 50
178.2801362808065
 51
179.6318426374458
  0
ARC
  5
DDF8
330
1F
100
AcDbEntity
  8
freecads.com
100
AcDbCircle
 10
11160.55579498304
 20
30018.92303879891
 30
0.0
 40
174.9151085004586
100
AcDbArc
 50
179.6318230023307
 51
183.1309481174791
  0
ARC
  5
DDF9
330
1F
100
AcDbEntity
  8
freecads.com
100
AcDbCircle
 10
11149.20657226948
 20
30018.30240882406
 30
0.0
 40
163.5489289428113
100
AcDbArc
 50
183.1310077104565
 51
185.8457839454875
  0
ARC
  5
DDFA
330
1F
100
AcDbEntity
  8
freecads.com
100
AcDbCircle
 10
10987.79446631791
 20
30001.77644305613
 30
0.0
 40
1.293033850265627
100
AcDbArc
 50
185.8458164725708
 51
269.9999763910534
  0
ARC
  5
DDFB
330
1F
100
AcDbEntity
  8
freecads.com
100
AcDbCircle
 10
10987.79446603037
 20
29999.48312960409
 30
0.0
 40
1.000279601770474
100
AcDbArc
 50
58.7943811660973
 51
90.00001404839094
  0
ARC
  5
DDFC
330
1F
100
AcDbEntity
  8
freecads.com
100
AcDbCircle
 10
10987.52909213398
 20
29999.04503517322
 30
0.0
 40
1.512480768537517
100
AcDbArc
 50
35.89836883106941
 51
58.79451873105945
  0
ARC
  5
DDFD
330
1F
100
AcDbEntity
  8
freecads.com
100
AcDbCircle
 10
10987.15281081489
 20
29998.77266522901
 30
0.0
 40
1.9769945117105
100
AcDbArc
 50
16.17498547774438
 51
35.89846322047615
  0
ARC
  5
DDFE
330
1F
100
AcDbEntity
  8
freecads.com
100
AcDbCircle
 10
10986.57770261524
 20
29998.60585407638
 30
0.0
 40
2.57580616986889
100
AcDbArc
 50
0.0000028802354111
 51
16.17496449076426
  0
ARC
  5
DDFF
330
1F
100
AcDbEntity
  8
freecads.com
100
AcDbCircle
 10
10993.56715426963
 20
29998.60585602993
 30
0.0
 40
4.413645484522398
100
AcDbArc
 50
180.0000236790869
 51
204.7647409113404
  0
ARC
  5
DE00
330
1F
100
AcDbEntity
  8
freecads.com
100
AcDbCircle
 10
10992.20172640497
 20
29997.9759599734
 30
0.0
 40
2.909929322599166
100
AcDbArc
 50
204.7647554765551
 51
238.5927929240173
  0
ARC
  5
DE01
330
1F
100
AcDbEntity
  8
freecads.com
100
AcDbCircle
 10
10992.37717497066
 20
29998.26329594833
 30
0.0
 40
3.246595569270484
100
AcDbArc
 50
238.5926675475531
 51
270.2285383767045
  0
ARC
  5
DE02
330
1F
100
AcDbEntity
  8
freecads.com
100
AcDbCircle
 10
10992.36713805702
 20
30000.78076683827
 30
0.0
 40
5.764086467231132
100
AcDbArc
 50
270.2284917138306
 51
290.8168277935718
  0
ARC
  5
DE03
330
1F
100
AcDbEntity
  8
freecads.com
100
AcDbCircle
 10
10992.92909399492
 20
29999.30271875824
 30
0.0
 40
4.182814636390842
100
AcDbArc
 50
290.8168105945691
 51
330.0548660347992
  0
ARC
  5
DE04
330
1F
100
AcDbEntity
  8
freecads.com
100
AcDbCircle
 10
10982.3408009713
 20
30005.40234456108
 30
0.0
 40
16.40236389520464
100
AcDbArc
 50
330.0549158486979
 51
344.2703043531251
  0
ARC
  5
DE05
330
1F
100
AcDbEntity
  8
freecads.com
100
AcDbCircle
 10
10980.5852925139
 20
30005.89677989144
 30
0.0
 40
18.22617206492269
100
AcDbArc
 50
344.2702974858567
 51
357.971477936139
  0
ARC
  5
DE06
330
1F
100
AcDbEntity
  8
freecads.com
100
AcDbCircle
 10
10989.60335103426
 20
30005.57736934971
 30
0.0
 40
9.20245871781158
100
AcDbArc
 50
357.971466867037
 51
20.81678929505451
  0
ARC
  5
DE07
330
1F
100
AcDbEntity
  8
freecads.com
100
AcDbCircle
 10
11004.69080875598
 20
30011.3136151564
 30
0.0
 40
6.938665668663102
100
AcDbArc
 50
183.5197852093746
 51
200.8167791809874
  0
ARC
  5
DE08
330
1F
100
AcDbEntity
  8
freecads.com
100
AcDbCircle
 10
11267.08489423958
 20
30027.45302062703
 30
0.0
 40
269.8286360093289
100
AcDbArc
 50
182.2837587308085
 51
183.5197313041097
  0
ARC
  5
DE09
330
1F
100
AcDbEntity
  8
freecads.com
100
AcDbCircle
 10
11257.85922761192
 20
30027.08497866358
 30
0.0
 40
260.5956311031964
100
AcDbArc
 50
180.6748932533896
 51
182.283732314336
  0
ARC
  5
DE0A
330
1F
100
AcDbEntity
  8
freecads.com
100
AcDbCircle
 10
11535.03812776138
 20
30030.35037876023
 30
0.0
 40
537.7937651622217
100
AcDbArc
 50
179.739178778729
 51
180.6749282496977
  0
ARC
  5
DE0B
330
1F
100
AcDbEntity
  8
freecads.com
100
AcDbCircle
 10
11474.13144375789
 20
30030.62761421132
 30
0.0
 40
476.8864502009206
100
AcDbArc
 50
178.1032944365572
 51
179.7391757502609
  0
ARC
  5
DE0C
330
1F
100
AcDbEntity
  8
freecads.com
100
AcDbCircle
 10
11135.83850447402
 20
30041.83043055029
 30
0.0
 40
138.4080670458957
100
AcDbArc
 50
173.9940051931566
 51
178.103276449307
  0
ARC
  5
DE0D
330
1F
100
AcDbEntity
  8
freecads.com
100
AcDbCircle
 10
11111.23041708133
 20
30044.41952711754
 30
0.0
 40
113.6641509016543
100
AcDbArc
 50
170.3977694080384
 51
173.9940448805213
  0
ARC
  5
DE0E
330
1F
100
AcDbEntity
  8
freecads.com
100
AcDbCircle
 10
11000.62566597973
 20
30063.13135123287
 30
0.0
 40
1.48775709275112
100
AcDbArc
 50
91.07554322687358
 51
170.3978288402959
  0
ARC
  5
DE0F
330
1F
100
AcDbEntity
  8
freecads.com
100
AcDbCircle
 10
11000.62536225626
 20
30063.14761220146
 30
0.0
 40
1.471493288003437
100
AcDbArc
 50
21.36752021711098
 51
91.07560394095823
  0
ARC
  5
DE10
330
1F
100
AcDbEntity
  8
freecads.com
100
AcDbCircle
 10
9405.538245056318
 20
29439.08117222994
 30
0.0
 40
1714.29426081415
100
AcDbArc
 50
20.86428148375536
 51
21.36756680205619
  0
ARC
  5
DE11
330
1F
100
AcDbEntity
  8
freecads.com
100
AcDbCircle
 10
10593.29669458032
 20
29891.79336331312
 30
0.0
 40
443.1851142927466
100
AcDbArc
 50
19.05565781348069
 51
20.86433343140852
  0
ARC
  5
DE12
330
1F
100
AcDbEntity
  8
freecads.com
100
AcDbCircle
 10
10951.52840425542
 20
30015.53182925267
 30
0.0
 40
64.18489559911832
100
AcDbArc
 50
11.52625030858132
 51
19.05564341055348
  0
ARC
  5
DE13
330
1F
100
AcDbEntity
  8
freecads.com
100
AcDbCircle
 10
11065.19248130639
 20
30038.71130630008
 30
0.0
 40
51.81859817603143
100
AcDbArc
 50
191.5262751210936
 51
195.6332552824843
  0
ARC
  5
DE14
330
1F
100
AcDbEntity
  8
freecads.com
100
AcDbCircle
 10
11172.32947115683
 20
30068.69167960759
 30
0.0
 40
163.071271752284
100
AcDbArc
 50
195.6333046800566
 51
197.3810212588169
  0
ARC
  5
DE15
330
1F
100
AcDbEntity
  8
freecads.com
100
AcDbCircle
 10
11185.01393950363
 20
30072.66200909944
 30
0.0
 40
176.3625942410732
100
AcDbArc
 50
197.3809815241359
 51
199.1076144674881
  0
ARC
  5
DE16
330
1F
100
AcDbEntity
  8
freecads.com
100
AcDbCircle
 10
11135.6393236227
 20
30055.55724560114
 30
0.0
 40
124.1091194502523
100
AcDbArc
 50
199.1076489849869
 51
201.3544882886551
  0
ARC
  5
DE17
330
1F
100
AcDbEntity
  8
freecads.com
100
AcDbCircle
 10
10730.31207936772
 20
29897.08227219679
 30
0.0
 40
311.097144441787
100
AcDbArc
 50
20.54483212043268
 51
21.35453270767878
  0
ARC
  5
DE18
330
1F
100
AcDbEntity
  8
freecads.com
100
AcDbCircle
 10
10843.91836783678
 20
29939.65945847506
 30
0.0
 40
189.7744113245305
100
AcDbArc
 50
19.37228888088593
 51
20.54477948343606
  0
ARC
  5
DE19
330
1F
100
AcDbEntity
  8
freecads.com
100
AcDbCircle
 10
10739.16825527789
 20
29902.82789940081
 30
0.0
 40
300.8111161789452
100
AcDbArc
 50
18.74756544276769
 51
19.37231707505956
  0
ARC
  5
DE1A
330
1F
100
AcDbEntity
  8
freecads.com
100
AcDbCircle
 10
11021.6272285455
 20
29998.69641233371
 30
0.0
 40
2.526280239608705
100
AcDbArc
 50
359.9999971003796
 51
18.74764570100587
  0
ARC
  5
DE1B
330
1F
100
AcDbEntity
  8
freecads.com
100
AcDbCircle
 10
11025.28684744168
 20
29998.69641168673
 30
0.0
 40
1.133338656571714
100
AcDbArc
 50
179.9999737550064
 51
240.9418825415126
  0
ARC
  5
DE1C
330
1F
100
AcDbEntity
  8
freecads.com
100
AcDbCircle
 10
11028.88118318041
 20
30005.16529480544
 30
0.0
 40
8.533723660486675
100
AcDbArc
 50
240.9419255766158
 51
254.7408437461359
  0
ARC
  5
DE1D
330
1F
100
AcDbEntity
  8
freecads.com
100
AcDbCircle
 10
11029.30158732425
 20
30006.70636229461
 30
0.0
 40
10.13110547156021
100
AcDbArc
 50
254.7408637483679
 51
267.7897244080878
  0
ARC
  5
DE1E
330
1F
100
AcDbEntity
  8
freecads.com
100
AcDbCircle
 10
11029.09178980153
 20
30001.27073046995
 30
0.0
 40
4.691426406231903
100
AcDbArc
 50
267.7897893778218
 51
290.9935785919743
  0
ARC
  5
DE1F
330
1F
100
AcDbEntity
  8
freecads.com
100
AcDbCircle
 10
11031.36626961675
 20
29995.34352056942
 30
0.0
 40
1.65720144825597
100
AcDbArc
 50
81.5620032045275
 51
110.9935543219478
  0
ARC
  5
DE20
330
1F
100
AcDbEntity
  8
freecads.com
100
AcDbCircle
 10
11031.10803622171
 20
29993.60276781761
 30
0.0
 40
3.417003888655065
100
AcDbArc
 50
64.42974746478832
 51
81.56197515987297
  0
ARC
  5
DE21
330
1F
100
AcDbEntity
  8
freecads.com
100
AcDbCircle
 10
11030.28375284168
 20
29991.88007710534
 30
0.0
 40
5.326743761176341
100
AcDbArc
 50
50.93288950112312
 51
64.42967242023083
  0
ARC
  5
DE22
330
1F
100
AcDbEntity
  8
freecads.com
100
AcDbCircle
 10
11027.00883635901
 20
29987.84557134874
 30
0.0
 40
10.52311890819719
100
AcDbArc
 50
42.82339595508243
 51
50.9328629869225
  0
ARC
  5
DE23
330
1F
100
AcDbEntity
  8
freecads.com
100
AcDbCircle
 10
11041.21829649669
 20
30001.01446566065
 30
0.0
 40
8.850278697873724
100
AcDbArc
 50
222.8234350974362
 51
233.1853007612962
  0
ARC
  5
DE24
330
1F
100
AcDbEntity
  8
freecads.com
100
AcDbCircle
 10
11040.48042255517
 20
30000.02868521705
 30
0.0
 40
7.61892942320154
100
AcDbArc
 50
233.1854298175806
 51
244.7793000759658
  0
ARC
  5
DE25
330
1F
100
AcDbEntity
  8
freecads.com
100
AcDbCircle
 10
11040.24069214033
 20
29999.51972831492
 30
0.0
 40
7.056339163821203
100
AcDbArc
 50
244.7793650486929
 51
256.8486666724516
  0
ARC
  5
DE26
330
1F
100
AcDbEntity
  8
freecads.com
100
AcDbCircle
 10
11040.06702617686
 20
29998.77649697634
 30
0.0
 40
6.293087770483547
100
AcDbArc
 50
256.8487422052773
 51
269.9999418059253
  0
ARC
  5
DE27
330
1F
100
AcDbEntity
  8
freecads.com
100
AcDbCircle
 10
11040.0670245977
 20
30000.43658571304
 30
0.0
 40
7.953176507175477
100
AcDbArc
 50
269.9999653294112
 51
282.6686646318128
  0
ARC
  5
DE28
330
1F
100
AcDbEntity
  8
freecads.com
100
AcDbCircle
 10
11041.38463260299
 20
29994.57495935349
 30
0.0
 40
1.945285493307419
100
AcDbArc
 50
282.6686185187924
 51
318.7268706995857
  0
ARC
  5
DE29
330
1F
100
AcDbEntity
  8
freecads.com
100
AcDbCircle
 10
11039.79911988704
 20
29995.96654584319
 30
0.0
 40
4.05487396757139
100
AcDbArc
 50
318.7269082765249
 51
340.4795840629785
  0
ARC
  5
DE2A
330
1F
100
AcDbEntity
  8
freecads.com
100
AcDbCircle
 10
10985.43811403229
 20
30015.23849549441
 30
0.0
 40
61.73092619809914
100
AcDbArc
 50
340.4796664005321
 51
343.4602539799154
  0
ARC
  5
DE2B
330
1F
100
AcDbEntity
  8
freecads.com
100
AcDbCircle
 10
11022.90131101247
 20
30004.11311748196
 30
0.0
 40
22.65068612852505
100
AcDbArc
 50
343.4602521440757
 51
351.9881140903068
  0
ARC
  5
DE2C
330
1F
100
AcDbEntity
  8
freecads.com
100
AcDbCircle
 10
10980.44388263266
 20
30010.08914729272
 30
0.0
 40
65.52662526605847
100
AcDbArc
 50
351.9880747478723
 51
355.8494448713983
  0
ARC
  5
DE2D
330
1F
100
AcDbEntity
  8
freecads.com
100
AcDbCircle
 10
10932.59217037712
 20
30013.5617595951
 30
0.0
 40
113.5041762871449
100
AcDbArc
 50
355.8493858873986
 51
358.7658128151368
  0
ARC
  5
DE2E
330
1F
100
AcDbEntity
  8
freecads.com
100
AcDbCircle
 10
10686.24090708165
 20
30018.86903657133
 30
0.0
 40
359.9126017035138
100
AcDbArc
 50
358.7658295782953
 51
359.9999687399201
  0
ARC
  5
DE2F
330
1F
100
AcDbEntity
  8
freecads.com
100
AcDbCircle
 10
11413.01073067016
 20
30018.86897582401
 30
0.0
 40
366.8572218850732
100
AcDbArc
 50
177.4383189767236
 51
180.0000211809235
  0
ARC
  5
DE30
330
1F
100
AcDbEntity
  8
freecads.com
100
AcDbCircle
 10
11336.89621843318
 20
30022.27466534796
 30
0.0
 40
290.6665551728971
100
AcDbArc
 50
174.3881422830725
 51
177.4383894697329
  0
ARC
  5
DE31
330
1F
100
AcDbEntity
  8
freecads.com
100
AcDbCircle
 10
11582.54735112793
 20
29998.1371560197
 30
0.0
 40
537.5007066811082
100
AcDbArc
 50
172.9440916853833
 51
174.3881554014211
  0
ARC
  5
DE32
330
1F
100
AcDbEntity
  8
freecads.com
100
AcDbCircle
 10
11051.57062042266
 20
30063.85889423379
 30
0.0
 40
2.472076209492947
100
AcDbArc
 50
108.0377793430103
 51
172.9441015215854
  0
ARC
  5
DE33
330
1F
100
AcDbEntity
  8
freecads.com
100
AcDbCircle
 10
11051.34599159724
 20
30064.54868193169
 30
0.0
 40
1.746634842197145
100
AcDbArc
 50
15.49279744477727
 51
108.037771144696
  0
ARC
  5
DE34
330
1F
100
AcDbEntity
  8
freecads.com
100
AcDbCircle
 10
10071.50388041538
 20
29792.94717098369
 30
0.0
 40
1018.534687287036
100
AcDbArc
 50
14.42136805199931
 51
15.49279132347589
  0
ARC
  5
DE35
330
1F
100
AcDbEntity
  8
freecads.com
100
AcDbCircle
 10
10689.06014140829
 20
29951.75418632656
 30
0.0
 40
380.8863487699079
100
AcDbArc
 50
11.68826010724027
 51
14.42136840171625
  0
ARC
  5
DE36
330
1F
100
AcDbEntity
  8
freecads.com
100
AcDbCircle
 10
11007.9498455205
 20
30017.72498227635
 30
0.0
 40
55.24423032236061
100
AcDbArc
 50
0.3224876571832627
 51
11.68820657647376
  0
ARC
  5
DE37
330
1F
100
AcDbEntity
  8
freecads.com
100
AcDbCircle
 10
11120.67832006003
 20
30018.35946327861
 30
0.0
 40
57.486029759624
100
AcDbArc
 50
180.3224730114815
 51
183.5551156764048
  0
ARC
  5
DE38
330
1F
100
AcDbEntity
  8
freecads.com
100
AcDbCircle
 10
11189.22618858019
 20
30022.61812343633
 30
0.0
 40
126.1660593533251
100
AcDbArc
 50
183.5550715763425
 51
185.3511429024111
  0
ARC
  5
DE39
330
1F
100
AcDbEntity
  8
freecads.com
100
AcDbCircle
 10
11191.37471438497
 20
30022.8193665711
 30
0.0
 40
128.3239893644888
100
AcDbArc
 50
185.3511411051163
 51
187.1410248657896
  0
ARC
  5
DE3A
330
1F
100
AcDbEntity
  8
freecads.com
100
AcDbCircle
 10
11131.93854067147
 20
30015.37310900317
 30
0.0
 40
68.42319222924536
100
AcDbArc
 50
187.1411335103975
 51
190.0069190287368
  0
ARC
  5
DE3B
330
1F
100
AcDbEntity
  8
freecads.com
100
AcDbCircle
 10
10976.02454355523
 20
29987.86175960402
 30
0.0
 40
89.89941778755531
100
AcDbArc
 50
8.093570802703121
 51
10.0069761974984
  0
ARC
  5
DE3C
330
1F
100
AcDbEntity
  8
freecads.com
100
AcDbCircle
 10
11004.77943958945
 20
29991.95087340811
 30
0.0
 40
60.85522908066741
100
AcDbArc
 50
5.53028504442722
 51
8.093591329938043
  0
ARC
  5
DE3D
330
1F
100
AcDbEntity
  8
freecads.com
100
AcDbCircle
 10
10999.23233085949
 20
29991.41372140116
 30
0.0
 40
66.42828457442819
100
AcDbArc
 50
3.581416132717433
 51
5.530342388706568
  0
ARC
  5
DE3E
330
1F
100
AcDbEntity
  8
freecads.com
100
AcDbCircle
 10
11063.502140502
 20
29995.43630219666
 30
0.0
 40
2.032713393336167
100
AcDbArc
 50
339.3869078490447
 51
3.581554371772292
  0
ARC
  5
DE3F
330
1F
100
AcDbEntity
  8
freecads.com
100
AcDbCircle
 10
11067.37173511917
 20
29993.98080798886
 30
0.0
 40
2.101561136767006
100
AcDbArc
 50
159.3869079245018
 51
218.7104150759286
  0
ARC
  5
DE40
330
1F
100
AcDbEntity
  8
freecads.com
100
AcDbCircle
 10
11070.41229219337
 20
29996.41767058538
 30
0.0
 40
5.998134841413611
100
AcDbArc
 50
218.7104855537628
 51
245.9347136070144
  0
ARC
  5
DE41
330
1F
100
AcDbEntity
  8
freecads.com
100
AcDbCircle
 10
11070.54049791096
 20
29996.704752218
 30
0.0
 40
6.312543126614806
100
AcDbArc
 50
245.9347419707555
 51
272.3055793177369
  0
ARC
  5
DE42
330
1F
100
AcDbEntity
  8
freecads.com
100
AcDbCircle
 10
11070.70216155934
 20
29992.6894087681
 30
0.0
 40
2.293946586049962
100
AcDbArc
 50
272.3056002901078
 51
328.2825117174434
  0
ARC
  5
DE43
330
1F
100
AcDbEntity
  8
freecads.com
100
AcDbCircle
 10
11073.51423486967
 20
29990.95145299052
 30
0.0
 40
1.01184327229062
100
AcDbArc
 50
114.9338925345696
 51
148.2826103610912
  0
ARC
  5
DE44
330
1F
100
AcDbEntity
  8
freecads.com
100
AcDbCircle
 10
11075.50496188411
 20
29986.66942995673
 30
0.0
 40
5.733994827252607
100
AcDbArc
 50
105.6940997481381
 51
114.933879021493
  0
ARC
  5
DE45
330
1F
100
AcDbEntity
  8
freecads.com
100
AcDbCircle
 10
11075.97865894383
 20
29984.98352830516
 30
0.0
 40
7.485181077521308
100
AcDbArc
 50
97.19323526858751
 51
105.6940909148197
  0
ARC
  5
DE46
330
1F
100
AcDbEntity
  8
freecads.com
100
AcDbCircle
 10
11076.21252078919
 20
29983.13060540891
 30
0.0
 40
9.352803796956017
100
AcDbArc
 50
89.99996939473692
 51
97.19326872317415
  0
ARC
  5
DE47
330
1F
100
AcDbEntity
  8
freecads.com
100
AcDbCircle
 10
11076.21252286565
 20
30002.12856039173
 30
0.0
 40
9.645151185867449
100
AcDbArc
 50
270.0000173426941
 51
277.8496767705483
  0
ARC
  5
DE48
330
1F
100
AcDbEntity
  8
freecads.com
100
AcDbCircle
 10
11077.15940067392
 20
29995.26048347948
 30
0.0
 40
2.712110146299063
100
AcDbArc
 50
277.8496546447412
 51
298.0303077951327
  0
ARC
  5
DE49
330
1F
100
AcDbEntity
  8
freecads.com
100
AcDbCircle
 10
11077.78859313235
 20
29994.078654491
 30
0.0
 40
1.373228931342096
100
AcDbArc
 50
298.0302812845231
 51
328.5274413238792
  0
ARC
  5
DE4A
330
1F
100
AcDbEntity
  8
freecads.com
100
AcDbCircle
 10
11077.83679405453
 20
29994.04914981358
 30
0.0
 40
1.316714730580386
100
AcDbArc
 50
328.5273989990418
 51
0.0000170698450226
  0
ARC
  5
DE4B
330
1F
100
AcDbEntity
  8
freecads.com
100
AcDbCircle
 10
11082.64387296461
 20
29994.04915082351
 30
0.0
 40
3.490364179498155
100
AcDbArc
 50
167.5371846791196
 51
180.0000101387704
  0
ARC
  5
DE4C
330
1F
100
AcDbEntity
  8
freecads.com
100
AcDbCircle
 10
11090.48926749022
 20
29992.31518901518
 30
0.0
 40
11.52509123242527
100
AcDbArc
 50
162.4179842676309
 51
167.5370836323896
  0
ARC
  5
DE4D
330
1F
100
AcDbEntity
  8
freecads.com
100
AcDbCircle
 10
11091.75457870794
 20
29991.91423570468
 30
0.0
 40
12.85241034809498
100
AcDbArc
 50
157.4257479351937
 51
162.417941630315
  0
ARC
  5
DE4E
330
1F
100
AcDbEntity
  8
freecads.com
100
AcDbCircle
 10
11089.23007131562
 20
29992.96375580326
 30
0.0
 40
10.11843338930495
100
AcDbArc
 50
151.4529836320861
 51
157.4257474073813
  0
ARC
  5
DE4F
330
1F
100
AcDbEntity
  8
freecads.com
100
AcDbCircle
 10
11075.46972888871
 20
30000.44963875654
 30
0.0
 40
5.546350914863791
100
AcDbArc
 50
331.4529863279192
 51
343.2544131876408
  0
ARC
  5
DE50
330
1F
100
AcDbEntity
  8
freecads.com
100
AcDbCircle
 10
11068.50671889412
 20
30002.54468863289
 30
0.0
 40
12.81771544768264
100
AcDbArc
 50
343.2543848476881
 51
349.5644929375741
  0
ARC
  5
DE51
330
1F
100
AcDbEntity
  8
freecads.com
100
AcDbCircle
 10
11067.82724482953
 20
30002.66982758053
 30
0.0
 40
13.50861685936521
100
AcDbArc
 50
349.5645062581949
 51
355.776368150729
  0
ARC
  5
DE52
330
1F
100
AcDbEntity
  8
freecads.com
100
AcDbCircle
 10
11072.67089509259
 20
30002.31213010537
 30
0.0
 40
8.65177680079793
100
AcDbArc
 50
355.7763246853276
 51
4.449970765954225
  0
ARC
  5
DE53
330
1F
100
AcDbEntity
  8
freecads.com
100
AcDbCircle
 10
11090.00937547179
 20
30003.66147340621
 30
0.0
 40
8.739129708167327
100
AcDbArc
 50
175.0935497840202
 51
184.4500201623434
  0
ARC
  5
DE54
330
1F
100
AcDbEntity
  8
freecads.com
100
AcDbCircle
 10
11105.52724849039
 20
30002.32936274931
 30
0.0
 40
24.31407438940595
100
AcDbArc
 50
170.7331800051442
 51
175.0935501806728
  0
ARC
  5
DE55
330
1F
100
AcDbEntity
  8
freecads.com
100
AcDbCircle
 10
11107.3682361882
 20
30002.02896076175
 30
0.0
 40
26.17941003135899
100
AcDbArc
 50
166.4465302208296
 51
170.7331296927129
  0
ARC
  5
DE56
330
1F
100
AcDbEntity
  8
freecads.com
100
AcDbCircle
 10
11099.36975155758
 20
30003.95714575772
 30
0.0
 40
17.95179471680386
100
AcDbArc
 50
160.7592131813839
 51
166.4465995808975
  0
LINE
  5
DE57
330
1F
100
AcDbEntity
  8
freecads.com
100
AcDbLine
 10
11082.42070778511
 20
30009.87295920586
 30
0.0
 11
11083.77829278511
 21
30013.76251020587
 31
0.0
  0
LINE
  5
DE58
330
1F
100
AcDbEntity
  8
freecads.com
100
AcDbLine
 10
11083.77829278511
 20
30013.76251020587
 30
0.0
 11
11087.46590078511
 21
30008.73898220586
 31
0.0
  0
ARC
  5
DE59
330
1F
100
AcDbEntity
  8
freecads.com
100
AcDbCircle
 10
11043.37410822146
 20
29976.37257807662
 30
0.0
 40
54.69616337307181
100
AcDbArc
 50
31.79805981266428
 51
36.28122641504223
  0
ARC
  5
DE5A
330
1F
100
AcDbEntity
  8
freecads.com
100
AcDbCircle
 10
11082.58458766802
 20
30000.68226664621
 30
0.0
 40
8.561332097996638
100
AcDbArc
 50
14.14994654176705
 51
31.7980628675063
  0
ARC
  5
DE5B
330
1F
100
AcDbEntity
  8
freecads.com
100
AcDbCircle
 10
11086.35533059221
 20
30001.63290293087
 30
0.0
 40
4.672603315213309
100
AcDbArc
 50
348.1643865814699
 51
14.14999534567112
  0
ARC
  5
DE5C
330
1F
100
AcDbEntity
  8
freecads.com
100
AcDbCircle
 10
11082.41342046067
 20
30002.45896861173
 30
0.0
 40
8.700138540913224
100
AcDbArc
 50
331.845077966378
 51
348.1643846272672
  0
ARC
  5
DE5D
330
1F
100
AcDbEntity
  8
freecads.com
100
AcDbCircle
 10
11095.71655046605
 20
29995.33935142323
 30
0.0
 40
6.388341066085442
100
AcDbArc
 50
151.8449888047759
 51
161.7438937222701
  0
ARC
  5
DE5E
330
1F
100
AcDbEntity
  8
freecads.com
100
AcDbCircle
 10
11091.99488173557
 20
29996.56701220591
 30
0.0
 40
2.469416578842821
100
AcDbArc
 50
161.7438651479424
 51
181.8710756835653
  0
ARC
  5
DE5F
330
1F
100
AcDbEntity
  8
freecads.com
100
AcDbCircle
 10
11091.5613373662
 20
29996.55284627754
 30
0.0
 40
2.035640837553485
100
AcDbArc
 50
181.8709946248167
 51
204.5007291112461
  0
ARC
  5
DE60
330
1F
100
AcDbEntity
  8
freecads.com
100
AcDbCircle
 10
11092.86355369016
 20
29997.14632201598
 30
0.0
 40
3.466717637203362
100
AcDbArc
 50
204.5007525164018
 51
219.6902730878329
  0
ARC
  5
DE61
330
1F
100
AcDbEntity
  8
freecads.com
100
AcDbCircle
 10
11091.79379697717
 20
29996.25849411742
 30
0.0
 40
2.076531389825285
100
AcDbArc
 50
219.6901561932841
 51
261.4111242834308
  0
ARC
  5
DE62
330
1F
100
AcDbEntity
  8
freecads.com
100
AcDbCircle
 10
11091.80844264646
 20
29996.35546550071
 30
0.0
 40
2.174602510985922
100
AcDbArc
 50
261.4111403318924
 51
301.7180301451467
  0
ARC
  5
DE63
330
1F
100
AcDbEntity
  8
freecads.com
100
AcDbCircle
 10
11088.06398326418
 20
30002.41400366866
 30
0.0
 40
9.296881696613876
100
AcDbArc
 50
301.718007402847
 51
317.6587515631581
  0
ARC
  5
DE64
330
1F
100
AcDbEntity
  8
freecads.com
100
AcDbCircle
 10
11020.33896186159
 20
30064.12819288345
 30
0.0
 40
100.9228587687309
100
AcDbArc
 50
317.6587612141017
 51
320.4312833179196
  0
ARC
  5
DE65
330
1F
100
AcDbEntity
  8
freecads.com
100
AcDbCircle
 10
11073.41598015603
 20
30020.26784832774
 30
0.0
 40
32.06866720733431
100
AcDbArc
 50
320.4312935393143
 51
327.4086796997498
  0
ARC
  5
DE66
330
1F
100
AcDbEntity
  8
freecads.com
100
AcDbCircle
 10
11094.87999776651
 20
30006.54561929215
 30
0.0
 40
6.593117719870726
100
AcDbArc
 50
327.4086657959419
 51
349.9557853913624
  0
ARC
  5
DE67
330
1F
100
AcDbEntity
  8
freecads.com
100
AcDbCircle
 10
11099.69750914809
 20
30005.69232630512
 30
0.0
 40
1.700620930562557
100
AcDbArc
 50
349.955852234778
 51
42.83255483217678
  0
ARC
  5
DE68
330
1F
100
AcDbEntity
  8
freecads.com
100
AcDbCircle
 10
11099.49029096894
 20
30005.5002234488
 30
0.0
 40
1.983185757069089
100
AcDbArc
 50
42.83251041584078
 51
90.00003420159698
  0
ARC
  5
DE69
330
1F
100
AcDbEntity
  8
freecads.com
100
AcDbCircle
 10
11099.49028962736
 20
30008.49497272156
 30
0.0
 40
1.011563515701494
100
AcDbArc
 50
227.3639930520954
 51
270.0000089351289
  0
ARC
  5
DE6A
330
1F
100
AcDbEntity
  8
freecads.com
100
AcDbCircle
 10
11104.93862681988
 20
30014.412537111
 30
0.0
 40
9.055315529934034
100
AcDbArc
 50
218.8535693260634
 51
227.3640374111764
  0
ARC
  5
DE6B
330
1F
100
AcDbEntity
  8
freecads.com
100
AcDbCircle
 10
11107.30302045327
 20
30016.31719462052
 30
0.0
 40
12.09144422980734
100
AcDbArc
 50
210.9091178737029
 51
218.8535465016001
  0
ARC
  5
DE6C
330
1F
100
AcDbEntity
  8
freecads.com
100
AcDbCircle
 10
11112.04582259115
 20
30019.15674157249
 30
0.0
 40
17.6193008679108
100
AcDbArc
 50
204.9178398303326
 51
210.909154793539
  0
ARC
  5
DE6D
330
1F
100
AcDbEntity
  8
freecads.com
100
AcDbCircle
 10
10881.94024754903
 20
29912.25826043468
 30
0.0
 40
236.1046848627202
100
AcDbArc
 50
24.91782503883904
 51
25.38352449389709
  0
ARC
  5
DE6E
330
1F
100
AcDbEntity
  8
freecads.com
100
AcDbCircle
 10
10894.05684958204
 20
29918.00731338127
 30
0.0
 40
222.6933592531586
100
AcDbArc
 50
25.38353926997429
 51
25.87009429852084
  0
ARC
  5
DE6F
330
1F
100
AcDbEntity
  8
freecads.com
100
AcDbCircle
 10
10913.99980994263
 20
29927.67799673692
 30
0.0
 40
200.5293392103398
100
AcDbArc
 50
25.87015536770158
 51
26.3370007334382
  0
ARC
  5
DE70
330
1F
100
AcDbEntity
  8
freecads.com
100
AcDbCircle
 10
11071.08319785698
 20
30005.43966888867
 30
0.0
 40
25.25222029722931
100
AcDbArc
 50
26.33707133004293
 51
28.48560011814424
  0
ARC
  5
DE71
330
1F
100
AcDbEntity
  8
freecads.com
100
AcDbCircle
 10
11210.06030251356
 20
30080.85304454418
 30
0.0
 40
132.8673953312208
100
AcDbArc
 50
206.1872693499202
 51
208.4856697846087
  0
ARC
  5
DE72
330
1F
100
AcDbEntity
  8
freecads.com
100
AcDbCircle
 10
11095.43868568408
 20
30024.48384485995
 30
0.0
 40
5.134855555151684
100
AcDbArc
 50
181.9062476027025
 51
206.1872398993789
  0
ARC
  5
DE73
330
1F
100
AcDbEntity
  8
freecads.com
100
AcDbCircle
 10
11093.61084078614
 20
30024.42300782107
 30
0.0
 40
3.305998503269547
100
AcDbArc
 50
148.3531317913586
 51
181.9062190559415
  0
ARC
  5
DE74
330
1F
100
AcDbEntity
  8
freecads.com
100
AcDbCircle
 10
11122.49028940255
 20
30006.62374405354
 30
0.0
 40
37.22997738331389
100
AcDbArc
 50
142.6658402765722
 51
148.3532266759084
  0
LINE
  5
DE75
330
1F
100
AcDbEntity
  8
freecads.com
100
AcDbLine
 10
11092.88828578511
 20
30029.20233120586
 30
0.0
 11
11095.62306378511
 21
30032.78780920586
 31
0.0
  0
LINE
  5
DE76
330
1F
100
AcDbEntity
  8
freecads.com
100
AcDbLine
 10
11095.62306378511
 20
30032.78780920586
 30
0.0
 11
11095.68018378511
 21
30052.38560920586
 31
0.0
  0
ARC
  5
DE77
330
1F
100
AcDbEntity
  8
freecads.com
100
AcDbCircle
 10
11946.7923889136
 20
30049.90551545029
 30
0.0
 40
851.1158185486353
100
AcDbArc
 50
179.1072232408973
 51
179.8330437491977
  0
ARC
  5
DE78
330
1F
100
AcDbEntity
  8
freecads.com
100
AcDbCircle
 10
11193.95666994975
 20
30061.63712589172
 30
0.0
 40
98.18869695496232
100
AcDbArc
 50
175.5513060626678
 51
179.1072551266271
  0
ARC
  5
DE79
330
1F
100
AcDbEntity
  8
freecads.com
100
AcDbCircle
 10
11133.55646386092
 20
30066.33631938223
 30
0.0
 40
37.60596579306393
100
AcDbArc
 50
169.2409861524664
 51
175.5513232518346
  0
ARC
  5
DE7A
330
1F
100
AcDbEntity
  8
freecads.com
100
AcDbCircle
 10
11115.41773357096
 20
30069.78303674893
 30
0.0
 40
19.14266714040482
100
AcDbArc
 50
158.7821920932555
 51
169.2410310356583
  0
ARC
  5
DE7B
330
1F
100
AcDbEntity
  8
freecads.com
100
AcDbCircle
 10
11066.54287344892
 20
30088.75779511332
 30
0.0
 40
33.28626959243243
100
AcDbArc
 50
338.782238041096
 51
343.4456999362041
  0
ARC
  5
DE7C
330
1F
100
AcDbEntity
  8
freecads.com
100
AcDbCircle
 10
11088.1759674324
 20
30082.3274518131
 30
0.0
 40
10.71770583096886
100
AcDbArc
 50
343.4458114121667
 51
354.2986797356616
  0
ARC
  5
DE7D
330
1F
100
AcDbEntity
  8
freecads.com
100
AcDbCircle
 10
11090.13378826685
 20
30082.13198202651
 30
0.0
 40
8.750151293681435
100
AcDbArc
 50
354.298730065247
 51
6.578285722254791
  0
ARC
  5
DE7E
330
1F
100
AcDbEntity
  8
freecads.com
100
AcDbCircle
 10
11082.50821787574
 20
30081.2525705782
 30
0.0
 40
16.42626282782868
100
AcDbArc
 50
6.578394503780446
 51
14.24239926728196
  0
ARC
  5
DE7F
330
1F
100
AcDbEntity
  8
freecads.com
100
AcDbCircle
 10
11078.43073505925
 20
30080.21760147542
 30
0.0
 40
20.63304629770686
100
AcDbArc
 50
14.24238895150343
 51
26.96957921173765
  0
ARC
  5
DE80
330
1F
100
AcDbEntity
  8
freecads.com
100
AcDbCircle
 10
11056.10491116201
 20
30068.85702834419
 30
0.0
 40
45.68309688765254
100
AcDbArc
 50
26.96949515088231
 51
33.99473589510475
  0
ARC
  5
DE81
330
1F
100
AcDbEntity
  8
freecads.com
100
AcDbCircle
 10
11051.33066772276
 20
30065.6374727427
 30
0.0
 40
51.44147675397611
100
AcDbArc
 50
33.99466747026693
 51
39.76175979779149
  0
ARC
  5
DE82
330
1F
100
AcDbEntity
  8
freecads.com
100
AcDbCircle
 10
11088.86051891826
 20
30096.86375720081
 30
0.0
 40
2.619652005053519
100
AcDbArc
 50
39.76170257246737
 51
90.00004665510289
  0
ARC
  5
DE83
330
1F
100
AcDbEntity
  8
freecads.com
100
AcDbCircle
 10
11088.86051569265
 20
30096.47243145215
 30
0.0
 40
3.010977753716331
100
AcDbArc
 50
89.99997921157055
 51
102.5654013876934
  0
ARC
  5
DE84
330
1F
100
AcDbEntity
  8
freecads.com
100
AcDbCircle
 10
11088.43953052345
 20
30098.36116805559
 30
0.0
 40
1.075892621256932
100
AcDbArc
 50
102.5654078747413
 51
129.6416178671396
  0
ARC
  5
DE85
330
1F
100
AcDbEntity
  8
freecads.com
100
AcDbCircle
 10
11088.07968212972
 20
30098.79550504007
 30
0.0
 40
0.5118540742100378
100
AcDbArc
 50
129.6414567619457
 51
172.5259893568862
  0
ARC
  5
DE86
330
1F
100
AcDbEntity
  8
freecads.com
100
AcDbCircle
 10
11088.14469310679
 20
30098.78697797402
 30
0.0
 40
0.5774218863762151
100
AcDbArc
 50
172.5261657744466
 51
211.7174881377681
  0
ARC
  5
DE87
330
1F
100
AcDbEntity
  8
freecads.com
100
AcDbCircle
 10
11086.58306537003
 20
30097.82184038133
 30
0.0
 40
1.25838087020329
100
AcDbArc
 50
12.83158577887024
 51
31.71741286660387
  0
ARC
  5
DE88
330
1F
100
AcDbEntity
  8
freecads.com
100
AcDbCircle
 10
11087.30480121151
 20
30097.98623224104
 30
0.0
 40
0.5181597489054586
100
AcDbArc
 50
336.203371057246
 51
12.83168988674248
  0
ARC
  5
DE89
330
1F
100
AcDbEntity
  8
freecads.com
100
AcDbCircle
 10
11087.38753675444
 20
30097.94974717363
 30
0.0
 40
0.4277366865365042
100
AcDbArc
 50
294.8764573835811
 51
336.2033906280017
  0
ARC
  5
DE8A
330
1F
100
AcDbEntity
  8
freecads.com
100
AcDbCircle
 10
11087.21252481481
 20
30098.32718438781
 30
0.0
 40
0.8437751819455392
100
AcDbArc
 50
270.00006588773
 51
294.8764503506202
  0
ARC
  5
DE8B
330
1F
100
AcDbEntity
  8
freecads.com
100
AcDbCircle
 10
11087.21252531321
 20
30096.54602126795
 30
0.0
 40
0.9373879379101078
100
AcDbArc
 50
89.99997115595773
 51
149.7158685685069
  0
ARC
  5
DE8C
330
1F
100
AcDbEntity
  8
freecads.com
100
AcDbCircle
 10
11087.52764576597
 20
30096.36199597776
 30
0.0
 40
1.302307390909761
100
AcDbArc
 50
149.7158372813894
 51
196.5204424270182
  0
ARC
  5
DE8D
330
1F
100
AcDbEntity
  8
freecads.com
100
AcDbCircle
 10
11091.38742527733
 20
30097.50680651846
 30
0.0
 40
5.328284173056152
100
AcDbArc
 50
196.5203769610599
 51
216.1797010033537
  0
ARC
  5
DE8E
330
1F
100
AcDbEntity
  8
freecads.com
100
AcDbCircle
 10
11102.52906748642
 20
30105.65519822752
 30
0.0
 40
19.13163443882753
100
AcDbArc
 50
216.1797069698847
 51
223.772972585183
  0
ARC
  5
DE8F
330
1F
100
AcDbEntity
  8
freecads.com
100
AcDbCircle
 10
11082.49081017572
 20
30086.45733462664
 30
0.0
 40
8.618856059314929
100
AcDbArc
 50
17.74981899657641
 51
43.77298445670223
  0
ARC
  5
DE90
330
1F
100
AcDbEntity
  8
freecads.com
100
AcDbCircle
 10
11075.39663653583
 20
30084.18649741329
 30
0.0
 40
16.06761443118828
100
AcDbArc
 50
1.421844207128846
 51
17.74981572004761
  0
ARC
  5
DE91
330
1F
100
AcDbEntity
  8
freecads.com
100
AcDbCircle
 10
11080.51598273437
 20
30084.31356143938
 30
0.0
 40
10.94669158787034
100
AcDbArc
 50
341.3526430458789
 51
1.421860176528888
  0
ARC
  5
DE92
330
1F
100
AcDbEntity
  8
freecads.com
100
AcDbCircle
 10
11089.03547612251
 20
30081.43859310518
 30
0.0
 40
1.955183899319555
100
AcDbArc
 50
269.9999608080168
 51
341.3526620160191
  0
ARC
  5
DE93
330
1F
100
AcDbEntity
  8
freecads.com
100
AcDbCircle
 10
11089.03547560358
 20
30080.342083373
 30
0.0
 40
0.8586741671351127
100
AcDbArc
 50
246.7995588055638
 51
269.9999453867304
  0
ARC
  5
DE94
330
1F
100
AcDbEntity
  8
freecads.com
100
AcDbCircle
 10
11088.85843879124
 20
30079.92903558009
 30
0.0
 40
0.4092851239364248
100
AcDbArc
 50
206.4460847336639
 51
246.7996279397648
  0
ARC
  5
DE95
330
1F
100
AcDbEntity
  8
freecads.com
100
AcDbCircle
 10
11088.895679811
 20
30079.94755917355
 30
0.0
 40
0.4508785977839703
100
AcDbArc
 50
168.4789525903698
 51
206.4460438302171
  0
ARC
  5
DE96
330
1F
100
AcDbEntity
  8
freecads.com
100
AcDbCircle
 10
11089.48273569891
 20
30079.82789557828
 30
0.0
 40
1.050006289990314
100
AcDbArc
 50
148.282547846851
 51
168.4788922409902
  0
ARC
  5
DE97
330
1F
100
AcDbEntity
  8
freecads.com
100
AcDbCircle
 10
11087.53860733521
 20
30081.02943301042
 30
0.0
 40
1.235453684586504
100
AcDbArc
 50
328.282505689728
 51
357.4816140278123
  0
ARC
  5
DE98
330
1F
100
AcDbEntity
  8
freecads.com
100
AcDbCircle
 10
11065.04340334386
 20
30082.0188656451
 30
0.0
 40
23.75240684328768
100
AcDbArc
 50
357.4815216334668
 51
0.87982901059828
  0
ARC
  5
DE99
330
1F
100
AcDbEntity
  8
freecads.com
100
AcDbCircle
 10
11063.75810317393
 20
30081.99912319477
 30
0.0
 40
25.03785862813106
100
AcDbArc
 50
0.879838028185534
 51
4.789781007556589
  0
ARC
  5
DE9A
330
1F
100
AcDbEntity
  8
freecads.com
100
AcDbCircle
 10
11053.41509383513
 20
30081.13250715576
 30
0.0
 40
35.41711031308032
100
AcDbArc
 50
4.789695544967996
 51
7.804654710650383
  0
ARC
  5
DE9B
330
1F
100
AcDbEntity
  8
freecads.com
100
AcDbCircle
 10
11064.59407854239
 20
30082.66478661216
 30
0.0
 40
24.13360113300571
100
AcDbArc
 50
7.804598726587305
 51
13.97821497637518
  0
ARC
  5
DE9C
330
1F
100
AcDbEntity
  8
freecads.com
100
AcDbCircle
 10
11081.90816946048
 20
30086.97467960508
 30
0.0
 40
6.291153937339247
100
AcDbArc
 50
13.97824122083356
 51
30.75626413150835
  0
ARC
  5
DE9D
330
1F
100
AcDbEntity
  8
freecads.com
100
AcDbCircle
 10
11082.32494662467
 20
30087.22269645872
 30
0.0
 40
5.806163664984953
100
AcDbArc
 50
30.75627431689488
 51
48.41578193980101
  0
ARC
  5
DE9E
330
1F
100
AcDbEntity
  8
freecads.com
100
AcDbCircle
 10
11073.76577275023
 20
30077.5769197876
 30
0.0
 40
18.70191742356737
100
AcDbArc
 50
48.41577581134188
 51
55.80322581994412
  0
ARC
  5
DE9F
330
1F
100
AcDbEntity
  8
freecads.com
100
AcDbCircle
 10
11073.27177995372
 20
30076.84993229579
 30
0.0
 40
19.58085979722192
100
AcDbArc
 50
55.80324411899481
 51
67.88854405160525
  0
ARC
  5
DEA0
330
1F
100
AcDbEntity
  8
freecads.com
100
AcDbCircle
 10
11078.41452933862
 20
30089.50771529467
 30
0.0
 40
5.918234072918849
100
AcDbArc
 50
67.88861864058837
 51
97.34902359499617
  0
ARC
  5
DEA1
330
1F
100
AcDbEntity
  8
freecads.com
100
AcDbCircle
 10
11078.43292662016
 20
30089.36513081655
 30
0.0
 40
6.062000526968753
100
AcDbArc
 50
97.34909647206995
 51
126.3603577204226
  0
ARC
  5
DEA2
330
1F
100
AcDbEntity
  8
freecads.com
100
AcDbCircle
 10
11087.23332896275
 20
30077.41130954821
 30
0.0
 40
20.9058856082623
100
AcDbArc
 50
126.3604571011862
 51
137.9040354374083
  0
ARC
  5
DEA3
330
1F
100
AcDbEntity
  8
freecads.com
100
AcDbCircle
 10
11100.18561126572
 20
30065.7097545623
 30
0.0
 40
38.36120015547958
100
AcDbArc
 50
137.904116574819
 51
141.9441964057817
  0
ARC
  5
DEA4
330
1F
100
AcDbEntity
  8
freecads.com
100
AcDbCircle
 10
11076.82204558239
 20
30084.00004646825
 30
0.0
 40
8.689816981719223
100
AcDbArc
 50
141.94420141961
 51
154.1106338139327
  0
ARC
  5
DEA5
330
1F
100
AcDbEntity
  8
freecads.com
100
AcDbCircle
 10
11072.80254480377
 20
30085.95088325025
 30
0.0
 40
4.221914715640063
100
AcDbArc
 50
154.1105591037094
 51
172.7257074280199
  0
ARC
  5
DEA6
330
1F
100
AcDbEntity
  8
freecads.com
100
AcDbCircle
 10
11071.4575783212
 20
30086.12255950045
 30
0.0
 40
2.866035822042703
100
AcDbArc
 50
172.7256161384176
 51
197.608795385217
  0
ARC
  5
DEA7
330
1F
100
AcDbEntity
  8
freecads.com
100
AcDbCircle
 10
11083.09141631579
 20
30089.81500039194
 30
0.0
 40
15.07178472252172
100
AcDbArc
 50
197.6088113150802
 51
210.4653155253444
  0
ARC
  5
DEA8
330
1F
100
AcDbEntity
  8
freecads.com
100
AcDbCircle
 10
11149.71416026143
 20
30129.00458081733
 30
0.0
 40
92.36611326454548
100
AcDbArc
 50
210.4653636869586
 51
213.8306758804371
  0
ARC
  5
DEA9
330
1F
100
AcDbEntity
  8
freecads.com
100
AcDbCircle
 10
11164.86020423695
 20
30139.15575944821
 30
0.0
 40
110.599299374044
100
AcDbArc
 50
213.8306924440566
 51
216.6206298998579
  0
ARC
  5
DEAA
330
1F
100
AcDbEntity
  8
freecads.com
100
AcDbCircle
 10
11080.94351586537
 20
30076.78682828144
 30
0.0
 40
6.043600523453843
100
AcDbArc
 50
216.6205869781913
 51
239.7824096694535
  0
ARC
  5
DEAB
330
1F
100
AcDbEntity
  8
freecads.com
100
AcDbCircle
 10
11059.22072782663
 20
30039.48965753553
 30
0.0
 40
37.11840204623646
100
AcDbArc
 50
57.99735951462722
 51
59.78243072261496
  0
ARC
  5
DEAC
330
1F
100
AcDbEntity
  8
freecads.com
100
AcDbCircle
 10
11078.70663517946
 20
30070.67043070025
 30
0.0
 40
0.3496490008451714
100
AcDbArc
 50
8.479802139010082
 51
57.9973209759305
  0
ARC
  5
DEAD
330
1F
100
AcDbEntity
  8
freecads.com
100
AcDbCircle
 10
11078.91122763543
 20
30070.70093361735
 30
0.0
 40
0.1427951853423574
100
AcDbArc
 50
274.8428265152139
 51
8.479762659573802
  0
ARC
  5
DEAE
330
1F
100
AcDbEntity
  8
freecads.com
100
AcDbCircle
 10
11077.80631119712
 20
30083.7419878075
 30
0.0
 40
13.23057325215089
100
AcDbArc
 50
271.0921707357035
 51
274.8428759414452
  0
ARC
  5
DEAF
330
1F
100
AcDbEntity
  8
freecads.com
100
AcDbCircle
 10
11078.09795016614
 20
30068.44432605111
 30
0.0
 40
2.069868195771169
100
AcDbArc
 50
91.09217056777531
 51
112.1091944390083
  0
ARC
  5
DEB0
330
1F
100
AcDbEntity
  8
freecads.com
100
AcDbCircle
 10
11079.86499428356
 20
30064.0946238879
 30
0.0
 40
6.764796717220843
100
AcDbArc
 50
112.1091949913973
 51
120.807786165462
  0
ARC
  5
DEB1
330
1F
100
AcDbEntity
  8
freecads.com
100
AcDbCircle
 10
11080.4758317513
 20
30063.07026020571
 30
0.0
 40
7.957459018702512
100
AcDbArc
 50
120.8078199916382
 51
129.0388286607959
  0
ARC
  5
DEB2
330
1F
100
AcDbEntity
  8
freecads.com
100
AcDbCircle
 10
11080.03702361216
 20
30063.61138617451
 30
0.0
 40
7.260774084833045
100
AcDbArc
 50
129.0387952660376
 51
137.8552434867649
  0
ARC
  5
DEB3
330
1F
100
AcDbEntity
  8
freecads.com
100
AcDbCircle
 10
11062.60045049435
 20
30079.39127275497
 30
0.0
 40
16.25600508631826
100
AcDbArc
 50
310.5321919164867
 51
317.8553077784004
  0
ARC
  5
DEB4
330
1F
100
AcDbEntity
  8
freecads.com
100
AcDbCircle
 10
11071.86204007612
 20
30068.55967261524
 30
0.0
 40
2.004668195764443
100
AcDbArc
 50
276.3318275587294
 51
310.5322143714036
  0
ARC
  5
DEB5
330
1F
100
AcDbEntity
  8
freecads.com
100
AcDbCircle
 10
11072.01007691152
 20
30067.22556649779
 30
0.0
 40
0.6623738773415294
100
AcDbArc
 50
205.1804239912569
 51
276.3318292920639
  0
ARC
  5
DEB6
330
1F
100
AcDbEntity
  8
freecads.com
100
AcDbCircle
 10
11073.85942780104
 20
30068.09503646327
 30
0.0
 40
2.705919015926272
100
AcDbArc
 50
179.999963101804
 51
205.1804842101477
  0
ARC
  5
DEB7
330
1F
100
AcDbEntity
  8
freecads.com
100
AcDbCircle
 10
11067.50353497297
 20
30068.09503719069
 30
0.0
 40
3.649973812139392
100
AcDbArc
 50
0.0000159357184578
 51
16.61298927094861
  0
ARC
  5
DEB8
330
1F
100
AcDbEntity
  8
freecads.com
100
AcDbCircle
 10
10925.13857583014
 20
30025.61917932361
 30
0.0
 40
152.2163902503213
100
AcDbArc
 50
16.61294405668654
 51
17.74441191780727
  0
ARC
  5
DEB9
330
1F
100
AcDbEntity
  8
freecads.com
100
AcDbCircle
 10
10947.4746334282
 20
30032.76663372278
 30
0.0
 40
128.7646190291278
100
AcDbArc
 50
17.7444002301705
 51
19.34567661916283
  0
ARC
  5
DEBA
330
1F
100
AcDbEntity
  8
freecads.com
100
AcDbCircle
 10
10887.89276555796
 20
30011.84787260406
 30
0.0
 40
191.9120144278004
100
AcDbArc
 50
19.34571847868842
 51
20.53310558927104
  0
LINE
  5
DEBB
330
1F
100
AcDbEntity
  8
freecads.com
100
AcDbLine
 10
11067.61254878511
 20
30079.16073020586
 30
0.0
 11
11064.07158878511
 21
30088.61479220586
 31
0.0
  0
LINE
  5
DEBC
330
1F
100
AcDbEntity
  8
freecads.com
100
AcDbLine
 10
11064.07158878511
 20
30088.61479220586
 30
0.0
 11
11066.12616478511
 21
30091.93916520586
 31
0.0
  0
ARC
  5
DEBD
330
1F
100
AcDbEntity
  8
freecads.com
100
AcDbCircle
 10
11057.69994917321
 20
30097.14685974757
 30
0.0
 40
9.905614164600448
100
AcDbArc
 50
328.2824916530301
 51
339.8811624456352
  0
ARC
  5
DEBE
330
1F
100
AcDbEntity
  8
freecads.com
100
AcDbCircle
 10
11033.51566072027
 20
30106.0061162294
 30
0.0
 40
35.66151122499499
100
AcDbArc
 50
339.8810922329841
 51
344.3521167649931
  0
ARC
  5
DEBF
330
1F
100
AcDbEntity
  8
freecads.com
100
AcDbCircle
 10
11027.3193031069
 20
30107.74173869774
 30
0.0
 40
42.09635644653576
100
AcDbArc
 50
344.3521365211724
 51
348.61605475898
  0
ARC
  5
DEC0
330
1F
100
AcDbEntity
  8
freecads.com
100
AcDbCircle
 10
11026.83841244908
 20
30107.83852266616
 30
0.0
 40
42.58688978869626
100
AcDbArc
 50
348.6161080125508
 51
352.8431404288662
  0
ARC
  5
DEC1
330
1F
100
AcDbEntity
  8
freecads.com
100
AcDbCircle
 10
10989.17474633397
 20
30112.56773721239
 30
0.0
 40
80.54630516162914
100
AcDbArc
 50
352.8431436510386
 51
356.0508102876343
  0
ARC
  5
DEC2
330
1F
100
AcDbEntity
  8
freecads.com
100
AcDbCircle
 10
11055.99514249368
 20
30107.95474724442
 30
0.0
 40
13.56686787386345
100
AcDbArc
 50
356.0507915345028
 51
8.027529208597359
  0
ARC
  5
DEC3
330
1F
100
AcDbEntity
  8
freecads.com
100
AcDbCircle
 10
11054.41528497911
 20
30107.73196420675
 30
0.0
 40
15.16235590191419
100
AcDbArc
 50
8.027433477906138
 51
19.12931004219124
  0
ARC
  5
DEC4
330
1F
100
AcDbEntity
  8
freecads.com
100
AcDbCircle
 10
10959.95950074697
 20
30074.96966902013
 30
0.0
 40
115.138668900564
100
AcDbArc
 50
19.12927440179255
 51
21.62016762762967
  0
ARC
  5
DEC5
330
1F
100
AcDbEntity
  8
freecads.com
100
AcDbCircle
 10
10978.9722783633
 20
30082.50507720176
 30
0.0
 40
94.68706531670216
100
AcDbArc
 50
21.62018197290751
 51
23.60508732815322
  0
ARC
  5
DEC6
330
1F
100
AcDbEntity
  8
freecads.com
100
AcDbCircle
 10
10995.90997902531
 20
30089.90681309691
 30
0.0
 40
76.20270982414715
100
AcDbArc
 50
23.60505605201651
 51
25.94103867567843
  0
ARC
  5
DEC7
330
1F
100
AcDbEntity
  8
freecads.com
100
AcDbCircle
 10
11000.47283471669
 20
30092.12657768558
 30
0.0
 40
71.12855897135847
100
AcDbArc
 50
25.94095122322505
 51
28.04914726112212
  0
ARC
  5
DEC8
330
1F
100
AcDbEntity
  8
freecads.com
100
AcDbCircle
 10
11058.47787531794
 20
30123.03225809161
 30
0.0
 40
5.403785738495114
100
AcDbArc
 50
28.04913061121045
 51
41.93870287460518
  0
ARC
  5
DEC9
330
1F
100
AcDbEntity
  8
freecads.com
100
AcDbCircle
 10
11060.27996533455
 20
30124.65138074631
 30
0.0
 40
2.981165958389251
100
AcDbArc
 50
41.93868665205326
 51
65.27902637893984
  0
ARC
  5
DECA
330
1F
100
AcDbEntity
  8
freecads.com
100
AcDbCircle
 10
11055.17788982903
 20
30113.56936989187
 30
0.0
 40
15.18125362373217
100
AcDbArc
 50
65.27901157354604
 51
72.26509861281084
  0
ARC
  5
DECB
330
1F
100
AcDbEntity
  8
freecads.com
100
AcDbCircle
 10
11053.64224905137
 20
30108.76762969846
 30
0.0
 40
20.22257304259113
100
AcDbArc
 50
72.26513499402482
 51
78.61509053261619
  0
ARC
  5
DECC
330
1F
100
AcDbEntity
  8
freecads.com
100
AcDbCircle
 10
11051.77787391133
 20
30099.50891776202
 30
0.0
 40
29.66712921977853
100
AcDbArc
 50
78.61503581141905
 51
83.37975379083792
  0
ARC
  5
DECD
330
1F
100
AcDbEntity
  8
freecads.com
100
AcDbCircle
 10
11063.4996907817
 20
30200.50533208164
 30
0.0
 40
72.00723675396384
100
AcDbArc
 50
260.4548758279775
 51
263.379781153862
  0
ARC
  5
DECE
330
1F
100
AcDbEntity
  8
freecads.com
100
AcDbCircle
 10
11052.27512664881
 20
30133.75296366776
 30
0.0
 40
4.317728491340982
100
AcDbArc
 50
237.6998351537288
 51
260.4548424960853
  0
ARC
  5
DECF
330
1F
100
AcDbEntity
  8
freecads.com
100
AcDbCircle
 10
11051.54595783624
 20
30132.59953726158
 30
0.0
 40
2.953148104664959
100
AcDbArc
 50
207.8639369496486
 51
237.6998066568215
  0
ARC
  5
DED0
330
1F
100
AcDbEntity
  8
freecads.com
100
AcDbCircle
 10
11069.96497364677
 20
30142.337047307
 30
0.0
 40
23.78771662224017
100
AcDbArc
 50
201.4454696202484
 51
207.8638977503007
  0
ARC
  5
DED1
330
1F
100
AcDbEntity
  8
freecads.com
100
AcDbCircle
 10
11067.42544988476
 20
30141.33946164707
 30
0.0
 40
21.0592815239149
100
AcDbArc
 50
195.8507661856934
 51
201.445389644437
  0
ARC
  5
DED2
330
1F
100
AcDbEntity
  8
freecads.com
100
AcDbCircle
 10
11056.51708918971
 20
30138.24225794034
 30
0.0
 40
9.719748735731302
100
AcDbArc
 50
185.8770194031055
 51
195.8507264188784
  0
ARC
  5
DED3
330
1F
100
AcDbEntity
  8
freecads.com
100
AcDbCircle
 10
11053.76834697727
 20
30137.95931415995
 30
0.0
 40
6.956482383518353
100
AcDbArc
 50
173.8833429772224
 51
185.876993863474
  0
ARC
  5
DED4
330
1F
100
AcDbEntity
  8
freecads.com
100
AcDbCircle
 10
11052.12413399747
 20
30138.13552280743
 30
0.0
 40
5.302854308569237
100
AcDbArc
 50
159.1832063132387
 51
173.8834449338934
  0
ARC
  5
DED5
330
1F
100
AcDbEntity
  8
freecads.com
100
AcDbCircle
 10
11039.61353464977
 20
30142.89204888815
 30
0.0
 40
8.081451291470392
100
AcDbArc
 50
339.1832150344415
 51
346.8703413392185
  0
ARC
  5
DED6
330
1F
100
AcDbEntity
  8
freecads.com
100
AcDbCircle
 10
11043.99786204736
 20
30141.86939349486
 30
0.0
 40
3.579434989557618
100
AcDbArc
 50
346.8703062773249
 51
1.000079354543782
  0
ARC
  5
DED7
330
1F
100
AcDbEntity
  8
freecads.com
100
AcDbCircle
 10
11045.56443903311
 20
30141.89673890306
 30
0.0
 40
2.012619357892391
100
AcDbArc
 50
1.000121058861016
 51
20.34431933451987
  0
ARC
  5
DED8
330
1F
100
AcDbEntity
  8
freecads.com
100
AcDbCircle
 10
11046.68616119065
 20
30142.31266315272
 30
0.0
 40
0.8162692502074385
100
AcDbArc
 50
20.34432318357607
 51
58.28265317773769
  0
ARC
  5
DED9
330
1F
100
AcDbEntity
  8
freecads.com
100
AcDbCircle
 10
11047.73277357737
 20
30144.00611786086
 30
0.0
 40
1.174506060217405
100
AcDbArc
 50
212.8791425059278
 51
238.2824444395304
  0
ARC
  5
DEDA
330
1F
100
AcDbEntity
  8
freecads.com
100
AcDbCircle
 10
11049.59620488828
 20
30145.21066040185
 30
0.0
 40
3.393356885194025
100
AcDbArc
 50
201.3645512485333
 51
212.8790969229292
  0
ARC
  5
DEDB
330
1F
100
AcDbEntity
  8
freecads.com
100
AcDbCircle
 10
11050.28149301724
 20
30145.47872801939
 30
0.0
 40
4.129210177131652
100
AcDbArc
 50
190.7505912953194
 51
201.3644881975433
  0
ARC
  5
DEDC
330
1F
100
AcDbEntity
  8
freecads.com
100
AcDbCircle
 10
11050.21294645125
 20
30145.46570605208
 30
0.0
 40
4.059437666145782
100
AcDbArc
 50
180.0000684004842
 51
190.7504905937279
  0
ARC
  5
DEDD
330
1F
100
AcDbEntity
  8
freecads.com
100
AcDbCircle
 10
11043.59235040353
 20
30145.46570306923
 30
0.0
 40
2.561158381580521
100
AcDbArc
 50
359.9999583145434
 51
21.13969716204067
  0
ARC
  5
DEDE
330
1F
100
AcDbEntity
  8
freecads.com
100
AcDbCircle
 10
11034.29205652826
 20
30141.86962293149
 30
0.0
 40
12.53248018580973
100
AcDbArc
 50
21.13965590022138
 51
27.65289033897492
  0
ARC
  5
DEDF
330
1F
100
AcDbEntity
  8
freecads.com
100
AcDbCircle
 10
11032.14112144875
 20
30140.74260123276
 30
0.0
 40
14.96079227975051
100
AcDbArc
 50
27.65292621948181
 51
33.92272845573402
  0
ARC
  5
DEE0
330
1F
100
AcDbEntity
  8
freecads.com
100
AcDbCircle
 10
11031.83406932313
 20
30140.5360820298
 30
0.0
 40
15.33083442457503
100
AcDbArc
 50
33.92276531892989
 51
40.07874723410026
  0
ARC
  5
DEE1
330
1F
100
AcDbEntity
  8
freecads.com
100
AcDbCircle
 10
11036.34955445945
 20
30144.33561466324
 30
0.0
 40
9.429474051837997
100
AcDbArc
 50
40.07873420307991
 51
59.79174736904951
  0
ARC
  5
DEE2
330
1F
100
AcDbEntity
  8
freecads.com
100
AcDbCircle
 10
11037.32328209595
 20
30146.00809843051
 30
0.0
 40
7.494184031750713
100
AcDbArc
 50
59.79172301270081
 51
83.2089501517718
  0
ARC
  5
DEE3
330
1F
100
AcDbEntity
  8
freecads.com
100
AcDbCircle
 10
11037.37810567898
 20
30146.46852365658
 30
0.0
 40
7.030506326842524
100
AcDbArc
 50
83.20890275391086
 51
107.5057583518609
  0
ARC
  5
DEE4
330
1F
100
AcDbEntity
  8
freecads.com
100
AcDbCircle
 10
11037.57711509567
 20
30145.83752095648
 30
0.0
 40
7.692147585596185
100
AcDbArc
 50
107.5056539688373
 51
130.2182243859888
  0
ARC
  5
DEE5
330
1F
100
AcDbEntity
  8
freecads.com
100
AcDbCircle
 10
11141.16731463368
 20
30099.20498122259
 30
0.0
 40
116.0255193418744
100
AcDbArc
 50
171.685556900757
 51
174.536676981162
  0
ARC
  5
DEE6
330
1F
100
AcDbEntity
  8
freecads.com
100
AcDbCircle
 10
11093.07592217673
 20
30103.80455772152
 30
0.0
 40
67.71467032825741
100
AcDbArc
 50
174.5366521725979
 51
178.8040069664642
  0
ARC
  5
DEE7
330
1F
100
AcDbEntity
  8
freecads.com
100
AcDbCircle
 10
11100.20972209651
 20
30103.65558143127
 30
0.0
 40
74.85002562626528
100
AcDbArc
 50
178.8039735967804
 51
181.9245672485488
  0
ARC
  5
DEE8
330
1F
100
AcDbEntity
  8
freecads.com
100
AcDbCircle
 10
11026.72468767629
 20
30101.18628755438
 30
0.0
 40
1.323515468427149
100
AcDbArc
 50
181.9245575883282
 51
238.2825952046201
  0
ARC
  5
DEE9
330
1F
100
AcDbEntity
  8
freecads.com
100
AcDbCircle
 10
11025.42647250015
 20
30099.08573165018
 30
0.0
 40
1.145836217793797
100
AcDbArc
 50
25.30400649623412
 51
58.28243530580397
  0
ARC
  5
DEEA
330
1F
100
AcDbEntity
  8
freecads.com
100
AcDbCircle
 10
11020.79230220457
 20
30096.89476656845
 30
0.0
 40
6.271834883206395
100
AcDbArc
 50
15.93454688843589
 51
25.30405891351869
  0
ARC
  5
DEEB
330
1F
100
AcDbEntity
  8
freecads.com
100
AcDbCircle
 10
11018.9542850983
 20
30096.36999469122
 30
0.0
 40
8.183298303223407
100
AcDbArc
 50
7.330706114148156
 51
15.93455061299978
  0
ARC
  5
DEEC
330
1F
100
AcDbEntity
  8
freecads.com
100
AcDbCircle
 10
11017.02183187676
 20
30096.12139112028
 30
0.0
 40
10.13167690834863
100
AcDbArc
 50
0.0000231044155384
 51
7.33069428202054
  0
ARC
  5
DEED
330
1F
100
AcDbEntity
  8
freecads.com
100
AcDbCircle
 10
11033.95955851172
 20
30096.12139545691
 30
0.0
 40
6.806049726610585
100
AcDbArc
 50
180.0000021133816
 51
194.0229216008523
  0
ARC
  5
DEEE
330
1F
100
AcDbEntity
  8
freecads.com
100
AcDbCircle
 10
11039.98915509046
 20
30097.62730158889
 30
0.0
 40
13.02085368013106
100
AcDbArc
 50
194.0229065154153
 51
202.6523832567916
  0
ARC
  5
DEEF
330
1F
100
AcDbEntity
  8
freecads.com
100
AcDbCircle
 10
11043.16537830322
 20
30098.95286084692
 30
0.0
 40
16.46258307734153
100
AcDbArc
 50
202.6524371672556
 51
210.3560460593292
  0
ARC
  5
DEF0
330
1F
100
AcDbEntity
  8
freecads.com
100
AcDbCircle
 10
11048.89788137282
 20
30102.31017156129
 30
0.0
 40
23.10585987990751
100
AcDbArc
 50
210.3560029277046
 51
216.3310569774699
  0
ARC
  5
DEF1
330
1F
100
AcDbEntity
  8
freecads.com
100
AcDbCircle
 10
11000.55510852423
 20
30066.75846914932
 30
0.0
 40
36.90203319325411
100
AcDbArc
 50
31.21934489831409
 51
36.33111405630423
  0
ARC
  5
DEF2
330
1F
100
AcDbEntity
  8
freecads.com
100
AcDbCircle
 10
11026.55510195222
 20
30082.51661254759
 30
0.0
 40
6.499422423535919
100
AcDbArc
 50
12.73976695060677
 51
31.21944247758552
  0
ARC
  5
DEF3
330
1F
100
AcDbEntity
  8
freecads.com
100
AcDbCircle
 10
11024.01686279696
 20
30081.94274738078
 30
0.0
 40
9.101725103647002
100
AcDbArc
 50
358.1125474946144
 51
12.73974733983461
  0
ARC
  5
DEF4
330
1F
100
AcDbEntity
  8
freecads.com
100
AcDbCircle
 10
10927.36751842295
 20
30085.12773479951
 30
0.0
 40
105.8035343565514
100
AcDbArc
 50
355.68880406289
 51
358.1125543552058
  0
ARC
  5
DEF5
330
1F
100
AcDbEntity
  8
freecads.com
100
AcDbCircle
 10
11073.08271205306
 20
30074.14271036807
 30
0.0
 40
40.32513639776131
100
AcDbArc
 50
175.6887913562366
 51
180.7948337830701
  0
ARC
  5
DEF6
330
1F
100
AcDbEntity
  8
freecads.com
100
AcDbCircle
 10
11163.24448506758
 20
30075.39355715465
 30
0.0
 40
130.4955857190637
100
AcDbArc
 50
180.7948339446281
 51
182.9234255375161
  0
ARC
  5
DEF7
330
1F
100
AcDbEntity
  8
freecads.com
100
AcDbCircle
 10
11178.25997900159
 20
30076.16047959626
 30
0.0
 40
145.5306523335386
100
AcDbArc
 50
182.9234708821756
 51
185.0011881074519
  0
ARC
  5
DEF8
330
1F
100
AcDbEntity
  8
freecads.com
100
AcDbCircle
 10
11152.00693869645
 20
30073.863146825
 30
0.0
 40
119.1772870243305
100
AcDbArc
 50
185.0012164599613
 51
187.4146546604914
  0
ARC
  5
DEF9
330
1F
100
AcDbEntity
  8
freecads.com
100
AcDbCircle
 10
10906.07550858355
 20
30041.85803777386
 30
0.0
 40
128.8279454261159
100
AcDbArc
 50
4.575321463074746
 51
7.414755005878157
  0
ARC
  5
DEFA
330
1F
100
AcDbEntity
  8
freecads.com
100
AcDbCircle
 10
10905.73134287035
 20
30041.83038903414
 30
0.0
 40
129.1732199250389
100
AcDbArc
 50
1.741663937869065
 51
4.575368780473002
  0
ARC
  5
DEFB
330
1F
100
AcDbEntity
  8
freecads.com
100
AcDbCircle
 10
10870.36769282675
 20
30040.75518383861
 30
0.0
 40
164.553211595615
100
AcDbArc
 50
359.265401163277
 51
1.741628392082594
  0
ARC
  5
DEFC
330
1F
100
AcDbEntity
  8
freecads.com
100
AcDbCircle
 10
10680.85595197518
 20
30043.18501062193
 30
0.0
 40
354.0805288319114
100
AcDbArc
 50
357.869245931168
 51
359.2654122146766
  0
ARC
  5
DEFD
330
1F
100
AcDbEntity
  8
freecads.com
100
AcDbCircle
 10
9781.862248168007
 20
30076.63092930133
 30
0.0
 40
1253.696173960568
100
AcDbArc
 50
357.3974446903573
 51
357.8693320634399
  0
ARC
  5
DEFE
330
1F
100
AcDbEntity
  8
freecads.com
100
AcDbCircle
 10
10962.25900225488
 20
30022.97653436031
 30
0.0
 40
72.08063108928818
100
AcDbArc
 50
353.616835234431
 51
357.3975553237571
  0
ARC
  5
DEFF
330
1F
100
AcDbEntity
  8
freecads.com
100
AcDbCircle
 10
11021.86573615418
 20
30016.30828366373
 30
0.0
 40
12.10206580558509
100
AcDbArc
 50
342.8347128004637
 51
353.6169211968045
  0
ARC
  5
DF00
330
1F
100
AcDbEntity
  8
freecads.com
100
AcDbCircle
 10
11033.03290317266
 20
30012.85888010881
 30
0.0
 40
0.4142942428152489
100
AcDbArc
 50
224.8413354599829
 51
342.8347766608025
  0
ARC
  5
DF01
330
1F
100
AcDbEntity
  8
freecads.com
100
AcDbCircle
 10
11033.4303401007
 20
30013.25412084279
 30
0.0
 40
0.9748041442200737
100
AcDbArc
 50
198.3451668859165
 51
224.8412901293744
  0
ARC
  5
DF02
330
1F
100
AcDbEntity
  8
freecads.com
100
AcDbCircle
 10
12875.46765509546
 20
30624.06234170668
 30
0.0
 40
1941.64173911993
100
AcDbArc
 50
198.212047440472
 51
198.345202817128
  0
ARC
  5
DF03
330
1F
100
AcDbEntity
  8
freecads.com
100
AcDbCircle
 10
11502.64545440852
 20
30172.38064287605
 30
0.0
 40
496.4230180417074
100
AcDbArc
 50
197.6179140996732
 51
198.2119554111763
  0
ARC
  5
DF04
330
1F
100
AcDbEntity
  8
freecads.com
100
AcDbCircle
 10
11905.9049220242
 20
30300.43992222726
 30
0.0
 40
919.5274699790411
100
AcDbArc
 50
197.2433732006371
 51
197.6178580822342
  0
ARC
  5
DF05
330
1F
100
AcDbEntity
  8
freecads.com
100
AcDbCircle
 10
11277.32268263631
 20
30105.33941748818
 30
0.0
 40
261.363479302589
100
AcDbArc
 50
192.2412791528363
 51
197.2433230377727
  0
ARC
  5
DF06
330
1F
100
AcDbEntity
  8
freecads.com
100
AcDbCircle
 10
11306.27052676597
 20
30111.61987521801
 30
0.0
 40
290.9847863135626
100
AcDbArc
 50
187.6261316631225
 51
192.241255733147
  0
ARC
  5
DF07
330
1F
100
AcDbEntity
  8
freecads.com
100
AcDbCircle
 10
11293.83040225978
 20
30109.95410848369
 30
0.0
 40
278.4336319233619
100
AcDbArc
 50
183.4132783619613
 51
187.6261062417395
  0
ARC
  5
DF08
330
1F
100
AcDbEntity
  8
freecads.com
100
AcDbCircle
 10
11041.81267257765
 20
30094.92285225311
 30
0.0
 40
25.96804072727007
100
AcDbArc
 50
159.4039676788134
 51
183.413208149596
  0
ARC
  5
DF09
330
1F
100
AcDbEntity
  8
freecads.com
100
AcDbCircle
 10
10990.38182062086
 20
30114.25040371726
 30
0.0
 40
28.97453637466154
100
AcDbArc
 50
339.4039126246456
 51
343.1252901863782
  0
ARC
  5
DF0A
330
1F
100
AcDbEntity
  8
freecads.com
100
AcDbCircle
 10
10966.45075471668
 20
30121.5097819416
 30
0.0
 40
53.98242488027467
100
AcDbArc
 50
343.125187497411
 51
345.4609409619948
  0
ARC
  5
DF0B
330
1F
100
AcDbEntity
  8
freecads.com
100
AcDbCircle
 10
10967.35850720785
 20
30121.27443289838
 30
0.0
 40
53.04465958318808
100
AcDbArc
 50
345.4608656389599
 51
347.8050979947076
  0
ARC
  5
DF0C
330
1F
100
AcDbEntity
  8
freecads.com
100
AcDbCircle
 10
10995.51137476468
 20
30115.19018832668
 30
0.0
 40
24.24184750379804
100
AcDbArc
 50
347.8051006535447
 51
352.0149501587158
  0
ARC
  5
DF0D
330
1F
100
AcDbEntity
  8
freecads.com
100
AcDbCircle
 10
11039.91673404451
 20
30108.96122877668
 30
0.0
 40
20.59826701263341
100
AcDbArc
 50
163.215642204401
 51
172.0149270663547
  0
ARC
  5
DF0E
330
1F
100
AcDbEntity
  8
freecads.com
100
AcDbCircle
 10
11026.24338002005
 20
30113.08538216756
 30
0.0
 40
6.316486609979402
100
AcDbArc
 50
141.9897593648571
 51
163.2156186906535
  0
ARC
  5
DF0F
330
1F
100
AcDbEntity
  8
freecads.com
100
AcDbCircle
 10
11023.99861496819
 20
30114.83982967398
 30
0.0
 40
3.467441824290607
100
AcDbArc
 50
111.4453015461819
 51
141.989741524999
  0
ARC
  5
DF10
330
1F
100
AcDbEntity
  8
freecads.com
100
AcDbCircle
 10
11024.05351397713
 20
30114.70007044584
 30
0.0
 40
3.617596887587072
100
AcDbArc
 50
81.85574879461468
 51
111.4453082305551
  0
ARC
  5
DF11
330
1F
100
AcDbEntity
  8
freecads.com
100
AcDbCircle
 10
11024.03015547513
 20
30114.53683055631
 30
0.0
 40
3.782499528997089
100
AcDbArc
 50
67.33039095140782
 51
81.85578804296119
  0
ARC
  5
DF12
330
1F
100
AcDbEntity
  8
freecads.com
100
AcDbCircle
 10
11024.91940475568
 20
30116.66581917805
 30
0.0
 40
1.475259438658276
100
AcDbArc
 50
37.99534881321771
 51
67.33041310428333
  0
ARC
  5
DF13
330
1F
100
AcDbEntity
  8
freecads.com
100
AcDbCircle
 10
11024.97816265082
 20
30116.71171877848
 30
0.0
 40
1.400698969505559
100
AcDbArc
 50
7.695423011075546
 51
37.99533003666185
  0
ARC
  5
DF14
330
1F
100
AcDbEntity
  8
freecads.com
100
AcDbCircle
 10
11023.10569439989
 20
30116.45870326919
 30
0.0
 40
3.290184137124095
100
AcDbArc
 50
351.6855763553697
 51
7.695426136023561
  0
ARC
  5
DF15
330
1F
100
AcDbEntity
  8
freecads.com
100
AcDbCircle
 10
10971.24818560607
 20
30100.63018304899
 30
0.0
 40
21.89010195721177
100
AcDbArc
 50
349.113654292141
 51
0.1659142083754404
  0
ARC
  5
DF16
330
1F
100
AcDbEntity
  8
freecads.com
100
AcDbCircle
 10
10972.04731315024
 20
30100.47647643052
 30
0.0
 40
21.0763264622856
100
AcDbArc
 50
337.7429495320066
 51
349.1136980842835
  0
ARC
  5
DF17
330
1F
100
AcDbEntity
  8
freecads.com
100
AcDbCircle
 10
10969.03081318866
 20
30101.71103023616
 30
0.0
 40
24.33568147764206
100
AcDbArc
 50
327.2389736298106
 51
337.7428672800868
  0
ARC
  5
DF18
330
1F
100
AcDbEntity
  8
freecads.com
100
AcDbCircle
 10
10956.3392948716
 20
30109.87800686843
 30
0.0
 40
39.42786967228789
100
AcDbArc
 50
319.9212739139882
 51
327.238894990963
  0
ARC
  5
DF19
330
1F
100
AcDbEntity
  8
freecads.com
100
AcDbCircle
 10
10931.15160995407
 20
30131.07204911651
 30
0.0
 40
72.34605459062732
100
AcDbArc
 50
317.9235226253815
 51
319.9212612664012
  0
ARC
  5
DF1A
330
1F
100
AcDbEntity
  8
freecads.com
100
AcDbCircle
 10
10983.33555135408
 20
30083.95914183911
 30
0.0
 40
2.041077724343691
100
AcDbArc
 50
291.6951528356376
 51
317.9234978150013
  0
ARC
  5
DF1B
330
1F
100
AcDbEntity
  8
freecads.com
100
AcDbCircle
 10
10983.91579244075
 20
30082.50069884341
 30
0.0
 40
0.4714485673874832
100
AcDbArc
 50
218.0737440843913
 51
291.6952605537992
  0
ARC
  5
DF1C
330
1F
100
AcDbEntity
  8
freecads.com
100
AcDbCircle
 10
10986.36523905445
 20
30084.41949559116
 30
0.0
 40
3.58297065030718
100
AcDbArc
 50
201.4497923216867
 51
218.0737087064258
  0
ARC
  5
DF1D
330
1F
100
AcDbEntity
  8
freecads.com
100
AcDbCircle
 10
10991.80358401012
 20
30086.55621150399
 30
0.0
 40
9.4260135860616
100
AcDbArc
 50
185.5886372389863
 51
201.4497808989929
  0
ARC
  5
DF1E
330
1F
100
AcDbEntity
  8
freecads.com
100
AcDbCircle
 10
11017.57398066551
 20
30089.07784880941
 30
0.0
 40
35.31948763795572
100
AcDbArc
 50
179.6511237840032
 51
185.5886171835736
  0
ARC
  5
DF1F
330
1F
100
AcDbEntity
  8
freecads.com
100
AcDbCircle
 10
11019.15978214415
 20
30089.06813184233
 30
0.0
 40
36.90531888545716
100
AcDbArc
 50
173.6794106915643
 51
179.6510293291643
  0
ARC
  5
DF20
330
1F
100
AcDbEntity
  8
freecads.com
100
AcDbCircle
 10
11001.71033076535
 20
30091.00089880913
 30
0.0
 40
19.34915354195622
100
AcDbArc
 50
163.9973234195982
 51
173.6793590067292
  0
ARC
  5
DF21
330
1F
100
AcDbEntity
  8
freecads.com
100
AcDbCircle
 10
10992.02935855348
 20
30093.77736475359
 30
0.0
 40
9.277908032700986
100
AcDbArc
 50
153.4305517084354
 51
163.9973376269813
  0
ARC
  5
DF22
330
1F
100
AcDbEntity
  8
freecads.com
100
AcDbCircle
 10
11013.6419821078
 20
30082.96903263687
 30
0.0
 40
33.44245934335264
100
AcDbArc
 50
149.3609977874371
 51
153.4306329869822
  0
ARC
  5
DF23
330
1F
100
AcDbEntity
  8
freecads.com
100
AcDbCircle
 10
11016.98848272767
 20
30080.98689768874
 30
0.0
 40
37.33192271884933
100
AcDbArc
 50
145.3723131765964
 51
149.3610717387059
  0
ARC
  5
DF24
330
1F
100
AcDbEntity
  8
freecads.com
100
AcDbCircle
 10
11010.9195600294
 20
30085.17795198787
 30
0.0
 40
29.95650687611411
100
AcDbArc
 50
140.6679315244205
 51
145.3724000644169
  0
ARC
  5
DF25
330
1F
100
AcDbEntity
  8
freecads.com
100
AcDbCircle
 10
11018.20931794189
 20
30079.20453947984
 30
0.0
 40
39.38106137029889
100
AcDbArc
 50
134.5174480294109
 51
140.6679335137403
  0
ARC
  5
DF26
330
1F
100
AcDbEntity
  8
freecads.com
100
AcDbCircle
 10
10991.42039837564
 20
30106.44854135718
 30
0.0
 40
1.172661118262819
100
AcDbArc
 50
57.21579438938771
 51
134.5174399070537
  0
ARC
  5
DF27
330
1F
100
AcDbEntity
  8
freecads.com
100
AcDbCircle
 10
10990.98619577348
 20
30105.77437901826
 30
0.0
 40
1.974550611233949
100
AcDbArc
 50
3.830303493526825
 51
57.21585287020751
  0
ARC
  5
DF28
330
1F
100
AcDbEntity
  8
freecads.com
100
AcDbCircle
 10
10911.57365489738
 20
30100.45749195818
 30
0.0
 40
81.56488253922272
100
AcDbArc
 50
0.165835626686335
 51
3.830390531696016
  0
ARC
  5
DF29
330
1F
100
AcDbEntity
  8
freecads.com
100
AcDbCircle
 10
11028.38578056501
 20
30096.9243987937
 30
0.0
 40
6.767728220101639
100
AcDbArc
 50
351.8309647081649
 51
359.9999442270698
  0
ARC
  5
DF2A
330
1F
100
AcDbEntity
  8
freecads.com
100
AcDbCircle
 10
11032.93982517876
 20
30096.27066447347
 30
0.0
 40
2.167001005252308
100
AcDbArc
 50
332.7422958634974
 51
351.8309267182997
  0
ARC
  5
DF2B
330
1F
100
AcDbEntity
  8
freecads.com
100
AcDbCircle
 10
11034.23598765066
 20
30095.60287585533
 30
0.0
 40
0.7089273472796966
100
AcDbArc
 50
295.2424842559606
 51
332.7423351810688
  0
ARC
  5
DF2C
330
1F
100
AcDbEntity
  8
freecads.com
100
AcDbCircle
 10
11034.36596996137
 20
30095.32717879627
 30
0.0
 40
0.4041253304437847
100
AcDbArc
 50
238.2825394481354
 51
295.2425686266352
  0
ARC
  5
DF2D
330
1F
100
AcDbEntity
  8
freecads.com
100
AcDbCircle
 10
11034.79502646199
 20
30096.02140832541
 30
0.0
 40
1.220240591819792
100
AcDbArc
 50
212.8536854720864
 51
238.2825678987147
  0
ARC
  5
DF2E
330
1F
100
AcDbEntity
  8
freecads.com
100
AcDbCircle
 10
11036.73737537899
 20
30097.27575088269
 30
0.0
 40
3.532402905839107
100
AcDbArc
 50
201.3442605773245
 51
212.8537769340526
  0
ARC
  5
DF2F
330
1F
100
AcDbEntity
  8
freecads.com
100
AcDbCircle
 10
11037.45253321017
 20
30097.55522085635
 30
0.0
 40
4.3002272279728
100
AcDbArc
 50
190.7365999471771
 51
201.3443221600335
  0
ARC
  5
DF30
330
1F
100
AcDbEntity
  8
freecads.com
100
AcDbCircle
 10
11037.38510597354
 20
30097.54242827481
 30
0.0
 40
4.231597188429136
100
AcDbArc
 50
180.0000280134056
 51
190.736500734911
  0
ARC
  5
DF31
330
1F
100
AcDbEntity
  8
freecads.com
100
AcDbCircle
 10
11036.9289600932
 20
30097.54242767547
 30
0.0
 40
3.775451308092046
100
AcDbArc
 50
168.6539647809954
 51
180.0000223027521
  0
ARC
  5
DF32
330
1F
100
AcDbEntity
  8
freecads.com
100
AcDbCircle
 10
11035.58429155032
 20
30097.81223941421
 30
0.0
 40
2.403980614070456
100
AcDbArc
 50
152.7423383505114
 51
168.6538885044366
  0
ARC
  5
DF33
330
1F
100
AcDbEntity
  8
freecads.com
100
AcDbCircle
 10
11034.77802268761
 20
30098.22763131368
 30
0.0
 40
1.496996651081862
100
AcDbArc
 50
132.2381109567513
 51
152.7423289905964
  0
ARC
  5
DF34
330
1F
100
AcDbEntity
  8
freecads.com
100
AcDbCircle
 10
11034.15350835751
 20
30098.91545439254
 30
0.0
 40
0.5679548133177649
100
AcDbArc
 50
89.99995686358678
 51
132.238090849451
  0
ARC
  5
DF35
330
1F
100
AcDbEntity
  8
freecads.com
100
AcDbCircle
 10
11034.15350817881
 20
30098.99627149289
 30
0.0
 40
0.4871377129704023
100
AcDbArc
 50
38.15012715607166
 51
89.99992868811848
  0
ARC
  5
DF36
330
1F
100
AcDbEntity
  8
freecads.com
100
AcDbCircle
 10
11032.78410363599
 20
30097.92058381822
 30
0.0
 40
2.22850866004679
100
AcDbArc
 50
21.34432140426582
 51
38.15015482447264
  0
ARC
  5
DF37
330
1F
100
AcDbEntity
  8
freecads.com
100
AcDbCircle
 10
11031.28713087718
 20
30097.33560692852
 30
0.0
 40
3.83571910118602
100
AcDbArc
 50
8.527759343410849
 51
21.34428219663233
  0
ARC
  5
DF38
330
1F
100
AcDbEntity
  8
freecads.com
100
AcDbCircle
 10
11028.54479795468
 20
30096.92439740446
 30
0.0
 40
6.608710830439356
100
AcDbArc
 50
359.9999549294643
 51
8.527816875491577
  0
ARC
  5
DF39
330
1F
100
AcDbEntity
  8
freecads.com
100
AcDbCircle
 10
11087.26992610105
 20
30038.10575035408
 30
0.0
 40
11.84617821042922
100
AcDbArc
 50
162.8987816761827
 51
172.1994239708644
  0
ARC
  5
DF3A
330
1F
100
AcDbEntity
  8
freecads.com
100
AcDbCircle
 10
11087.53166878181
 20
30038.06989829203
 30
0.0
 40
12.11036488923628
100
AcDbArc
 50
172.1994469676992
 51
181.3474716303993
  0
ARC
  5
DF3B
330
1F
100
AcDbEntity
  8
freecads.com
100
AcDbCircle
 10
11091.33441063144
 20
30038.15936148294
 30
0.0
 40
15.91415894745257
100
AcDbArc
 50
181.3475238713626
 51
189.1923760940204
  0
ARC
  5
DF3C
330
1F
100
AcDbEntity
  8
freecads.com
100
AcDbCircle
 10
11110.76102174111
 20
30041.30311526099
 30
0.0
 40
35.59349854570116
100
AcDbArc
 50
189.1923475746948
 51
193.4901730810106
  0
ARC
  5
DF3D
330
1F
100
AcDbEntity
  8
freecads.com
100
AcDbCircle
 10
11026.70022946093
 20
30021.1371776638
 30
0.0
 40
50.85233326790731
100
AcDbArc
 50
10.27675027562724
 51
13.49014536576898
  0
ARC
  5
DF3E
330
1F
100
AcDbEntity
  8
freecads.com
100
AcDbCircle
 10
11066.93551847611
 20
30028.4322807316
 30
0.0
 40
9.961050445006973
100
AcDbArc
 50
359.5209721142527
 51
10.27688260233292
  0
ARC
  5
DF3F
330
1F
100
AcDbEntity
  8
freecads.com
100
AcDbCircle
 10
11071.26114512303
 20
30028.39610767129
 30
0.0
 40
5.635272552098619
100
AcDbArc
 50
344.2557726123488
 51
359.5210465748381
  0
ARC
  5
DF40
330
1F
100
AcDbEntity
  8
freecads.com
100
AcDbCircle
 10
11069.8063815157
 20
30028.80622627067
 30
0.0
 40
7.146740189439684
100
AcDbArc
 50
331.4815856610787
 51
344.2558416591323
  0
LINE
  5
DF41
330
1F
100
AcDbEntity
  8
freecads.com
100
AcDbLine
 10
11076.08596278511
 20
30025.39407820587
 30
0.0
 11
11074.77607478511
 21
30022.98340920587
 31
0.0
  0
LINE
  5
DF42
330
1F
100
AcDbEntity
  8
freecads.com
100
AcDbLine
 10
11074.77607478511
 20
30022.98340920587
 30
0.0
 11
11074.06447178511
 21
30025.48340920586
 31
0.0
  0
ARC
  5
DF43
330
1F
100
AcDbEntity
  8
freecads.com
100
AcDbCircle
 10
11083.03878066159
 20
30028.03786083515
 30
0.0
 40
9.330779331697556
100
AcDbArc
 50
186.9711320974003
 51
195.8884988606425
  0
ARC
  5
DF44
330
1F
100
AcDbEntity
  8
freecads.com
100
AcDbCircle
 10
11153.17362607221
 20
30036.61336897331
 30
0.0
 40
79.98795080492725
100
AcDbArc
 50
185.1364887531896
 51
186.9710604275623
  0
ARC
  5
DF45
330
1F
100
AcDbEntity
  8
freecads.com
100
AcDbCircle
 10
11162.22317862119
 20
30037.42673143685
 30
0.0
 40
89.07398183202337
100
AcDbArc
 50
183.216603884156
 51
185.1364259575169
  0
ARC
  5
DF46
330
1F
100
AcDbEntity
  8
freecads.com
100
AcDbCircle
 10
11171.2038336343
 20
30037.93150712255
 30
0.0
 40
98.06881162213855
100
AcDbArc
 50
181.4304267390529
 51
183.2166437929947
  0
ARC
  5
DF47
330
1F
100
AcDbEntity
  8
freecads.com
100
AcDbCircle
 10
10945.70986575632
 20
30032.30079505077
 30
0.0
 40
127.4954463350888
100
AcDbArc
 50
1.430398555116205
 51
2.886379316215304
  0
ARC
  5
DF48
330
1F
100
AcDbEntity
  8
freecads.com
100
AcDbCircle
 10
10892.75060561047
 20
30029.63062776603
 30
0.0
 40
180.5219776993378
100
AcDbArc
 50
2.886375778026684
 51
4.008218180787046
  0
ARC
  5
DF49
330
1F
100
AcDbEntity
  8
freecads.com
100
AcDbCircle
 10
10906.39519732462
 20
30030.58645854607
 30
0.0
 40
166.8439480366354
100
AcDbArc
 50
4.00830680732703
 51
5.142983153563941
  0
ARC
  5
DF4A
330
1F
100
AcDbEntity
  8
freecads.com
100
AcDbCircle
 10
11020.61390428285
 20
30040.86651876135
 30
0.0
 40
52.16355451958049
100
AcDbArc
 50
5.143051755832017
 51
7.841558259053394
  0
ARC
  5
DF4B
330
1F
100
AcDbEntity
  8
freecads.com
100
AcDbCircle
 10
11108.56846871919
 20
30052.97982569417
 30
0.0
 40
36.62122801682296
100
AcDbArc
 50
183.5394275263014
 51
187.8416059790334
  0
ARC
  5
DF4C
330
1F
100
AcDbEntity
  8
freecads.com
100
AcDbCircle
 10
11080.0737713273
 20
30051.21733225601
 30
0.0
 40
8.072074569221538
100
AcDbArc
 50
170.3233511226949
 51
183.5394235855018
  0
ARC
  5
DF4D
330
1F
100
AcDbEntity
  8
freecads.com
100
AcDbCircle
 10
11077.78667935848
 20
30051.60731263003
 30
0.0
 40
5.751972337427493
100
AcDbArc
 50
153.9702960872574
 51
170.3233498034568
  0
ARC
  5
DF4E
330
1F
100
AcDbEntity
  8
freecads.com
100
AcDbCircle
 10
11083.40359857597
 20
30048.86415241075
 30
0.0
 40
12.00294901987351
100
AcDbArc
 50
144.5371780493532
 51
153.9702958299663
  0
LINE
  5
DF4F
330
1F
100
AcDbEntity
  8
freecads.com
100
AcDbLine
 10
11073.62729078511
 20
30055.82795820587
 30
0.0
 11
11075.65350878511
 21
30058.67250720586
 31
0.0
  0
LINE
  5
DF50
330
1F
100
AcDbEntity
  8
freecads.com
100
AcDbLine
 10
11075.65350878511
 20
30058.67250720586
 30
0.0
 11
11076.32263578511
 21
30051.82795820586
 31
0.0
  0
ARC
  5
DF51
330
1F
100
AcDbEntity
  8
freecads.com
100
AcDbCircle
 10
11030.9051791327
 20
30047.38790288201
 30
0.0
 40
45.63397265253399
100
AcDbArc
 50
1.855985391692755
 51
5.583549263271125
  0
ARC
  5
DF52
330
1F
100
AcDbEntity
  8
freecads.com
100
AcDbCircle
 10
11034.35969015826
 20
30047.49978606863
 30
0.0
 40
42.17765029061734
100
AcDbArc
 50
357.9016729110591
 51
1.856064328166118
  0
ARC
  5
DF53
330
1F
100
AcDbEntity
  8
freecads.com
100
AcDbCircle
 10
11041.38287910693
 20
30047.24244792541
 30
0.0
 40
35.14974833282407
100
AcDbArc
 50
353.7207149642665
 51
357.9016970726317
  0
ARC
  5
DF54
330
1F
100
AcDbEntity
  8
freecads.com
100
AcDbCircle
 10
11066.58695789069
 20
30044.46912866415
 30
0.0
 40
9.793548162796726
100
AcDbArc
 50
342.898865348267
 51
353.7206344105257
  0
ENDSEC
  0
SECTION
  2
OBJECTS
  0
DICTIONARY
  5
C
330
0
100
AcDbDictionary
281
     1
  3
ACAD_CIP_PREVIOUS_PRODUCT_INFO
350
1A5
  3
ACAD_COLOR
350
73
  3
ACAD_DETAILVIEWSTYLE
350
1AB
  3
ACAD_GROUP
350
D
  3
ACAD_LAYOUT
350
1A
  3
ACAD_MATERIAL
350
72
  3
ACAD_MLEADERSTYLE
350
D7
  3
ACAD_MLINESTYLE
350
17
  3
ACAD_PLOTSETTINGS
350
19
  3
ACAD_PLOTSTYLENAME
350
E
  3
ACAD_SCALELIST
350
B6
  3
ACAD_SECTIONVIEWSTYLE
350
1A8
  3
ACAD_TABLESTYLE
350
86
  3
ACAD_VISUALSTYLE
350
99
  3
ACDB_RECOMPOSE_DATA
350
DFAC
  3
AcDbVariableDictionary
350
66
  3
AEC_PROPERTY_SET_DEFS
350
268B
  0
DICTIONARY
  5
18E
330
2
100
AcDbDictionary
280
     1
281
     1
  3
ACAD_LAYERSTATES
360
18F
  0
DICTIONARY
  5
E6
330
10
100
AcDbDictionary
280
     1
281
     1
  0
DICTIONARY
  5
15D
330
1F
100
AcDbDictionary
280
     1
281
     1
  3
ACAD_SORTENTS
360
28E
  0
XRECORD
  5
1A5
102
{ACAD_REACTORS
330
C
102
}
330
C
100
AcDbXrecord
280
     1
300
ACD
300
2022
300

  0
DICTIONARY
  5
73
102
{ACAD_REACTORS
330
C
102
}
330
C
100
AcDbDictionary
281
     1
  0
DICTIONARY
  5
1AB
102
{ACAD_REACTORS
330
C
102
}
330
C
100
AcDbDictionary
281
     1
  3
Imperial24
350
1AC
  3
Metric50
350
224
  0
DICTIONARY
  5
D
102
{ACAD_REACTORS
330
C
102
}
330
C
100
AcDbDictionary
281
     1
  0
DICTIONARY
  5
1A
102
{ACAD_REACTORS
330
C
102
}
330
C
100
AcDbDictionary
281
     1
  3
Layout1
350
59
  3
Layout2
350
5E
  3
Model
350
22
  0
DICTIONARY
  5
72
102
{ACAD_REACTORS
330
C
102
}
330
C
100
AcDbDictionary
281
     1
  3
ByBlock
350
97
  3
ByLayer
350
96
  3
Global
350
98
  0
DICTIONARY
  5
D7
102
{ACAD_REACTORS
330
C
102
}
330
C
100
AcDbDictionary
281
     1
  3
Standard
350
D8
  0
DICTIONARY
  5
17
102
{ACAD_REACTORS
330
C
102
}
330
C
100
AcDbDictionary
281
     1
  3
Standard
350
18
  0
DICTIONARY
  5
19
102
{ACAD_REACTORS
330
C
102
}
330
C
100
AcDbDictionary
281
     1
  0
ACDBDICTIONARYWDFLT
  5
E
102
{ACAD_REACTORS
330
C
102
}
330
C
100
AcDbDictionary
281
     1
  3
Normal
350
F
100
AcDbDictionaryWithDefault
340
F
  0
DICTIONARY
  5
B6
102
{ACAD_REACTORS
330
C
102
}
330
C
100
AcDbDictionary
281
     1
  3
*A1
350
47D1
  3
*A2
350
8BD6
  3
A0
350
B7
  3
A1
350
124
  3
A2
350
125
  3
A3
350
126
  3
A4
350
127
  3
A5
350
128
  3
A6
350
129
  3
A7
350
12A
  3
A8
350
12B
  3
A9
350
12C
  3
B0
350
12D
  3
B1
350
12E
  3
B2
350
12F
  3
B3
350
130
  3
B4
350
131
  3
B5
350
132
  3
B6
350
133
  3
B7
350
134
  3
B8
350
135
  3
B9
350
136
  3
C0
350
137
  3
C1
350
138
  3
C2
350
139
  3
C3
350
13A
  3
C4
350
13B
  3
C5
350
13C
  3
C6
350
13D
  3
C7
350
13E
  3
C8
350
13F
  3
C9
350
140
  3
D0
350
141
  3
D1
350
142
  3
D2
350
143
  0
DICTIONARY
  5
1A8
102
{ACAD_REACTORS
330
C
102
}
330
C
100
AcDbDictionary
281
     1
  3
Imperial24
350
1AA
  3
Metric50
350
223
  0
DICTIONARY
  5
86
102
{ACAD_REACTORS
330
C
102
}
330
C
100
AcDbDictionary
281
     1
  3
Standard
350
87
  0
DICTIONARY
  5
99
102
{ACAD_REACTORS
330
C
102
}
330
C
100
AcDbDictionary
281
     1
  3
2dWireframe
350
9F
  3
3dWireframe
350
2684
  3
Basic
350
9E
  3
Brighten
350
A5
  3
ColorChange
350
A9
  3
Conceptual
350
A2
  3
Dim
350
A4
  3
EdgeColorOff
350
175
  3
Facepattern
350
A8
  3
Flat
350
9A
  3
FlatWithEdges
350
9B
  3
Gouraud
350
9C
  3
GouraudWithEdges
350
9D
  3
Hidden
350
A1
  3
JitterOff
350
173
  3
Linepattern
350
A7
  3
OverhangOff
350
174
  3
Realistic
350
A3
  3
Shaded
350
182
  3
Shaded with edges
350
181
  3
Shades of Gray
350
17E
  3
Sketchy
350
17F
  3
Thicken
350
A6
  3
Wireframe
350
A0
  3
X-Ray
350
180
  0
XRECORD
  5
DFAC
102
{ACAD_REACTORS
330
C
102
}
330
C
100
AcDbXrecord
280
     1
 90
        1
330
87
  0
DICTIONARY
  5
66
102
{ACAD_REACTORS
330
C
102
}
330
C
100
AcDbDictionary
281
     1
  3
CANNOSCALE
350
F0
  3
CMLEADERSTYLE
350
EF
  3
CTABLESTYLE
350
89
  3
CVIEWDETAILSTYLE
350
1B7
  3
CVIEWSECTIONSTYLE
350
1B8
  3
DIMASSOC
350
67
  3
HIDETEXT
350
6B
  3
LAYEREVAL
350
14D
  3
LAYERNOTIFY
350
14E
  0
DICTIONARY
  5
268B
102
{ACAD_REACTORS
330
C
102
}
330
C
100
AcDbDictionary
281
     1
  0
DICTIONARY
  5
18F
102
{ACAD_REACTORS
330
18E
102
}
330
18E
100
AcDbDictionary
281
     1
  0
SORTENTSTABLE
  5
28E
102
{ACAD_REACTORS
330
15D
102
}
330
15D
100
AcDbSortentsTable
330
1F
  0
ACDBDETAILVIEWSTYLE
  5
1AC
102
{ACAD_REACTORS
330
1AB
102
}
330
1AB
100
AcDbModelDocViewStyle
 70
     0
  3
Imperial24
290
     0
300
Imperial24
 90
        0
100
AcDbDetailViewStyle
 70
     0
 71
     0
 90
        3
 71
     1
340
11
 62
   256
 40
0.24
340
0
 62
   256
 40
0.24
300

 40
0.36
280
     3
 71
     2
340
16
 90
       25
 62
   256
 71
     3
340
11
 62
   256
 40
0.24
 90
        1
 40
0.75
 90
        1
300
%<\AcVar ViewType \f "%tc1">% %<\AcVar ViewDetailId>%\PSCALE %<\AcVar ViewScale \f "%sn">%
 71
     4
340
16
 90
       25
 62
   256
340
16
 90
       25
 62
   256
280
     0
  0
ACDBDETAILVIEWSTYLE
  5
224
102
{ACAD_REACTORS
330
1AB
102
}
330
1AB
100
AcDbModelDocViewStyle
 70
     0
  3
Metric50
290
     0
300
Metric50
 90
        0
100
AcDbDetailViewStyle
 70
     0
 71
     0
 90
        3
 71
     1
340
11
 62
   256
 40
5.0
340
0
 62
   256
 40
5.0
300

 40
0.0
280
     1
 71
     2
340
16
 90
       25
 62
   256
 71
     3
340
11
 62
   256
 40
5.0
 90
        0
 40
15.0
 90
        1
300
%<\AcVar ViewDetailId>% (%<\AcVar ViewScale \f "%sn">%)
 71
     4
340
16
 90
       25
 62
   256
340
16
 90
       25
 62
   256
280
     0
  0
LAYOUT
  5
59
102
{ACAD_REACTORS
330
1A
102
}
330
1A
100
AcDbPlotSettings
  1

  2
None
  4

  6

 40
0.0
 41
0.0
 42
0.0
 43
0.0
 44
0.0
 45
0.0
 46
0.0
 47
0.0
 48
0.0
 49
0.0
140
0.0
141
0.0
142
1.0
143
1.0
 70
   688
 72
     0
 73
     0
 74
     5
  7

 75
    16
147
1.0
 76
     0
 77
     2
 78
   300
148
0.0
149
0.0
100
AcDbLayout
  1
Layout1
 70
     1
 71
     1
 10
0.0
 20
0.0
 11
12.0
 21
9.0
 12
0.0
 22
0.0
 32
0.0
 14
0.0
 24
0.0
 34
0.0
 15
0.0
 25
0.0
 35
0.0
146
0.0
 13
0.0
 23
0.0
 33
0.0
 16
1.0
 26
0.0
 36
0.0
 17
0.0
 27
1.0
 37
0.0
 76
     0
330
58
  0
LAYOUT
  5
5E
102
{ACAD_REACTORS
330
1A
102
}
330
1A
100
AcDbPlotSettings
  1

  2
None
  4

  6

 40
0.0
 41
0.0
 42
0.0
 43
0.0
 44
0.0
 45
0.0
 46
0.0
 47
0.0
 48
0.0
 49
0.0
140
0.0
141
0.0
142
1.0
143
1.0
 70
   688
 72
     0
 73
     0
 74
     5
  7

 75
    16
147
1.0
 76
     0
 77
     2
 78
   300
148
0.0
149
0.0
100
AcDbLayout
  1
Layout2
 70
     1
 71
     2
 10
0.0
 20
0.0
 11
12.0
 21
9.0
 12
0.0
 22
0.0
 32
0.0
 14
0.0
 24
0.0
 34
0.0
 15
0.0
 25
0.0
 35
0.0
146
0.0
 13
0.0
 23
0.0
 33
0.0
 16
1.0
 26
0.0
 36
0.0
 17
0.0
 27
1.0
 37
0.0
 76
     0
330
5D
  0
LAYOUT
  5
22
102
{ACAD_XDICTIONARY
360
194
102
}
102
{ACAD_REACTORS
330
1A
102
}
330
1A
100
AcDbPlotSettings
  1

  2
none_device
  4
ANSI_A_(8.50_x_11.00_Inches)
  6

 40
6.349999904632568
 41
19.04999923706055
 42
6.350006103515625
 43
19.04998779296875
 44
215.8999938964844
 45
279.3999938964844
 46
0.0
 47
0.0
 48
0.0
 49
0.0
140
0.0
141
0.0
142
1.0
143
2.584895464708373
 70
 11952
 72
     0
 73
     1
 74
     0
  7

 75
     0
147
0.3868628397755418
 76
     0
 77
     2
 78
   300
148
0.0
149
0.0
100
AcDbLayout
  1
Model
 70
     1
 71
     0
 10
0.0
 20
0.0
 11
12.0
 21
9.0
 12
0.0
 22
0.0
 32
0.0
 14
0.0
 24
0.0
 34
0.0
 15
0.0
 25
0.0
 35
0.0
146
0.0
 13
0.0
 23
0.0
 33
0.0
 16
1.0
 26
0.0
 36
0.0
 17
0.0
 27
1.0
 37
0.0
 76
     0
330
1F
331
94
  0
MATERIAL
  5
97
102
{ACAD_XDICTIONARY
360
188
102
}
102
{ACAD_REACTORS
330
72
102
}
330
72
100
AcDbMaterial
  1
ByBlock
 94
       63
  0
MATERIAL
  5
96
102
{ACAD_XDICTIONARY
360
186
102
}
102
{ACAD_REACTORS
330
72
102
}
330
72
100
AcDbMaterial
  1
ByLayer
 94
       63
  0
MATERIAL
  5
98
102
{ACAD_XDICTIONARY
360
110
102
}
102
{ACAD_REACTORS
330
72
102
}
330
72
100
AcDbMaterial
  1
Global
 43
0.0208000000566244
 43
0.0
 43
0.0
 43
0.0
 43
0.0
 43
0.0208000000566244
 43
0.0
 43
0.0
 43
0.0
 43
0.0
 43
1.0
 43
0.0
 43
0.0
 43
0.0
 43
0.0
 43
1.0
 49
0.0208000000566244
 49
0.0
 49
0.0
 49
0.0
 49
0.0
 49
0.0208000000566244
 49
0.0
 49
0.0
 49
0.0
 49
0.0
 49
1.0
 49
0.0
 49
0.0
 49
0.0
 49
0.0
 49
1.0
142
0.0208000000566244
142
0.0
142
0.0
142
0.0
142
0.0
142
0.0208000000566244
142
0.0
142
0.0
142
0.0
142
0.0
142
1.0
142
0.0
142
0.0
142
0.0
142
0.0
142
1.0
144
0.0208000000566244
144
0.0
144
0.0
144
0.0
144
0.0
144
0.0208000000566244
144
0.0
144
0.0
144
0.0
144
0.0
144
1.0
144
0.0
144
0.0
144
0.0
144
0.0
144
1.0
 94
       63
1001
ACAD
1070
    -1
1070
     3
1070
     0
1000

1071
        0
1070
     0
  0
MLEADERSTYLE
  5
D8
102
{ACAD_REACTORS
330
D7
102
}
330
D7
100
AcDbMLeaderStyle
179
     2
170
     2
171
     1
172
     0
 90
        2
 40
0.0
 41
0.0
173
     1
 91
-1056964608
340
14
 92
       -2
290
     1
 42
0.09
291
     1
 43
0.36
  3
Standard
 44
0.18
300

342
11
174
     1
178
     1
175
     1
176
     0
 93
-1056964608
 45
0.18
292
     0
297
     0
 46
0.18
 94
-1056964608
 47
1.0
 49
1.0
140
1.0
293
     1
141
0.0
294
     1
177
     0
142
1.0
295
     0
296
     0
143
0.125
271
     0
272
     9
273
     9
298
     0
  0
MLINESTYLE
  5
18
102
{ACAD_REACTORS
330
17
102
}
330
17
100
AcDbMlineStyle
  2
STANDARD
 70
     0
  3

 62
   256
 51
90.0
 52
90.0
 71
     2
 49
0.5
 62
   256
  6
BYLAYER
 49
-0.5
 62
   256
  6
BYLAYER
  0
ACDBPLACEHOLDER
  5
F
102
{ACAD_REACTORS
330
E
102
}
330
E
  0
SCALE
  5
47D1
102
{ACAD_REACTORS
330
B6
102
}
330
B6
100
AcDbScale
 70
     0
300
1:100_1_XREF_XREF_XREF_XREF
140
1.0
141
0.1
290
     0
  0
SCALE
  5
8BD6
102
{ACAD_REACTORS
330
B6
102
}
330
B6
100
AcDbScale
 70
     0
300
1:100_1_XREF_XREF_XREF_XREF_XREF_XREF_XREF_XREF_XREF
140
1.0
141
0.1
290
     0
1001
ACAD
1000
AcRTDxfName
1000
SCALE
1000
AcRTDxfName
1000
SCALE
1000
AcRTDxfName
1000
SCALE
1000
AcRTDxfName
1000
SCALE
  0
SCALE
  5
B7
102
{ACAD_REACTORS
330
B6
102
}
330
B6
100
AcDbScale
 70
     0
300
1:1
140
1.0
141
1.0
290
     1
  0
SCALE
  5
124
102
{ACAD_REACTORS
330
B6
102
}
330
B6
100
AcDbScale
 70
     0
300
1:2
140
1.0
141
2.0
290
     0
  0
SCALE
  5
125
102
{ACAD_REACTORS
330
B6
102
}
330
B6
100
AcDbScale
 70
     0
300
1:4
140
1.0
141
4.0
290
     0
  0
SCALE
  5
126
102
{ACAD_REACTORS
330
B6
102
}
330
B6
100
AcDbScale
 70
     0
300
1:5
140
1.0
141
5.0
290
     0
  0
SCALE
  5
127
102
{ACAD_REACTORS
330
B6
102
}
330
B6
100
AcDbScale
 70
     0
300
1:8
140
1.0
141
8.0
290
     0
  0
SCALE
  5
128
102
{ACAD_REACTORS
330
B6
102
}
330
B6
100
AcDbScale
 70
     0
300
1:10
140
1.0
141
10.0
290
     0
  0
SCALE
  5
129
102
{ACAD_REACTORS
330
B6
102
}
330
B6
100
AcDbScale
 70
     0
300
1:16
140
1.0
141
16.0
290
     0
  0
SCALE
  5
12A
102
{ACAD_REACTORS
330
B6
102
}
330
B6
100
AcDbScale
 70
     0
300
1:20
140
1.0
141
20.0
290
     0
  0
SCALE
  5
12B
102
{ACAD_REACTORS
330
B6
102
}
330
B6
100
AcDbScale
 70
     0
300
1:30
140
1.0
141
30.0
290
     0
  0
SCALE
  5
12C
102
{ACAD_REACTORS
330
B6
102
}
330
B6
100
AcDbScale
 70
     0
300
1:40
140
1.0
141
40.0
290
     0
  0
SCALE
  5
12D
102
{ACAD_REACTORS
330
B6
102
}
330
B6
100
AcDbScale
 70
     0
300
1:50
140
1.0
141
50.0
290
     0
  0
SCALE
  5
12E
102
{ACAD_REACTORS
330
B6
102
}
330
B6
100
AcDbScale
 70
     0
300
1:100
140
1.0
141
100.0
290
     0
  0
SCALE
  5
12F
102
{ACAD_REACTORS
330
B6
102
}
330
B6
100
AcDbScale
 70
     0
300
2:1
140
2.0
141
1.0
290
     0
  0
SCALE
  5
130
102
{ACAD_REACTORS
330
B6
102
}
330
B6
100
AcDbScale
 70
     0
300
4:1
140
4.0
141
1.0
290
     0
  0
SCALE
  5
131
102
{ACAD_REACTORS
330
B6
102
}
330
B6
100
AcDbScale
 70
     0
300
8:1
140
8.0
141
1.0
290
     0
  0
SCALE
  5
132
102
{ACAD_REACTORS
330
B6
102
}
330
B6
100
AcDbScale
 70
     0
300
10:1
140
10.0
141
1.0
290
     0
  0
SCALE
  5
133
102
{ACAD_REACTORS
330
B6
102
}
330
B6
100
AcDbScale
 70
     0
300
100:1
140
100.0
141
1.0
290
     0
  0
SCALE
  5
134
102
{ACAD_REACTORS
330
B6
102
}
330
B6
100
AcDbScale
 70
     0
300
1/128" = 1'-0"
140
0.0078125
141
12.0
290
     0
  0
SCALE
  5
135
102
{ACAD_REACTORS
330
B6
102
}
330
B6
100
AcDbScale
 70
     0
300
1/64" = 1'-0"
140
0.015625
141
12.0
290
     0
  0
SCALE
  5
136
102
{ACAD_REACTORS
330
B6
102
}
330
B6
100
AcDbScale
 70
     0
300
1/32" = 1'-0"
140
0.03125
141
12.0
290
     0
  0
SCALE
  5
137
102
{ACAD_REACTORS
330
B6
102
}
330
B6
100
AcDbScale
 70
     0
300
1/16" = 1'-0"
140
0.0625
141
12.0
290
     0
  0
SCALE
  5
138
102
{ACAD_REACTORS
330
B6
102
}
330
B6
100
AcDbScale
 70
     0
300
3/32" = 1'-0"
140
0.09375
141
12.0
290
     0
  0
SCALE
  5
139
102
{ACAD_REACTORS
330
B6
102
}
330
B6
100
AcDbScale
 70
     0
300
1/8" = 1'-0"
140
0.125
141
12.0
290
     0
  0
SCALE
  5
13A
102
{ACAD_REACTORS
330
B6
102
}
330
B6
100
AcDbScale
 70
     0
300
3/16" = 1'-0"
140
0.1875
141
12.0
290
     0
  0
SCALE
  5
13B
102
{ACAD_REACTORS
330
B6
102
}
330
B6
100
AcDbScale
 70
     0
300
1/4" = 1'-0"
140
0.25
141
12.0
290
     0
  0
SCALE
  5
13C
102
{ACAD_REACTORS
330
B6
102
}
330
B6
100
AcDbScale
 70
     0
300
3/8" = 1'-0"
140
0.375
141
12.0
290
     0
  0
SCALE
  5
13D
102
{ACAD_REACTORS
330
B6
102
}
330
B6
100
AcDbScale
 70
     0
300
1/2" = 1'-0"
140
0.5
141
12.0
290
     0
  0
SCALE
  5
13E
102
{ACAD_REACTORS
330
B6
102
}
330
B6
100
AcDbScale
 70
     0
300
3/4" = 1'-0"
140
0.75
141
12.0
290
     0
  0
SCALE
  5
13F
102
{ACAD_REACTORS
330
B6
102
}
330
B6
100
AcDbScale
 70
     0
300
1" = 1'-0"
140
1.0
141
12.0
290
     0
  0
SCALE
  5
140
102
{ACAD_REACTORS
330
B6
102
}
330
B6
100
AcDbScale
 70
     0
300
1-1/2" = 1'-0"
140
1.5
141
12.0
290
     0
  0
SCALE
  5
141
102
{ACAD_REACTORS
330
B6
102
}
330
B6
100
AcDbScale
 70
     0
300
3" = 1'-0"
140
3.0
141
12.0
290
     0
  0
SCALE
  5
142
102
{ACAD_REACTORS
330
B6
102
}
330
B6
100
AcDbScale
 70
     0
300
6" = 1'-0"
140
6.0
141
12.0
290
     0
  0
SCALE
  5
143
102
{ACAD_REACTORS
330
B6
102
}
330
B6
100
AcDbScale
 70
     0
300
1'-0" = 1'-0"
140
12.0
141
12.0
290
     0
  0
ACDBSECTIONVIEWSTYLE
  5
1AA
102
{ACAD_REACTORS
330
1A8
102
}
330
1A8
100
AcDbModelDocViewStyle
 70
     0
  3
Imperial24
290
     0
300
Imperial24
 90
        0
100
AcDbSectionViewStyle
 70
     0
 71
     0
 90
       78
 71
     1
340
11
 62
   256
 40
0.24
340
0
340
0
 62
   256
 40
0.24
300
I, O, Q, S, X, Z
 40
0.48
 90
        3
 40
0.18
 90
        1
 71
     2
340
16
 90
       25
 62
   256
340
16
 90
       50
 62
   256
 40
0.24
 40
0.0
 40
0.24
 71
     3
340
11
 62
   256
 40
0.24
 90
        1
 40
0.75
 90
        1
300
%<\AcVar ViewType \f "%tc1">% %<\AcVar ViewSectionStartId>%-%<\AcVar ViewSectionEndId>%\PSCALE %<\AcVar ViewScale \f "%sn">%
 71
     4
 62
   256
 62
   257
300
ANSI31
 40
1.0
 90
        0
290
     0
290
     0
 90
        6
 40
0.0
 40
1.570796326794896
 40
0.2617993877991494
 40
1.308996938995747
 40
-0.2617993877991494
 40
1.832595714594046
  0
ACDBSECTIONVIEWSTYLE
  5
223
102
{ACAD_REACTORS
330
1A8
102
}
330
1A8
100
AcDbModelDocViewStyle
 70
     0
  3
Metric50
290
     0
300
Metric50
 90
        0
100
AcDbSectionViewStyle
 70
     0
 71
     0
 90
      102
 71
     1
340
11
 62
   256
 40
5.0
340
0
340
0
 62
   256
 40
5.0
300
I, O, Q, S, X, Z
 40
10.0
 90
        0
 40
2.5
 90
        0
 71
     2
340
16
 90
       25
 62
   256
340
16
 90
       50
 62
   256
 40
5.0
 40
2.5
 40
5.0
 71
     3
340
11
 62
   256
 40
5.0
 90
        0
 40
15.0
 90
        1
300
%<\AcVar ViewSectionStartId>%-%<\AcVar ViewSectionEndId>% (%<\AcVar ViewScale \f "%sn">%)
 71
     4
 62
   256
 62
   257
300
ANSI31
 40
1.0
 90
        0
290
     0
290
     0
 90
        6
 40
0.0
 40
1.570796326794896
 40
0.2617993877991494
 40
1.308996938995747
 40
-0.2617993877991494
 40
1.832595714594046
  0
TABLESTYLE
  5
87
102
{ACAD_XDICTIONARY
360
104
102
}
102
{ACAD_REACTORS
330
86
102
}
330
86
100
AcDbTableStyle
280
     0
  3
Standard
 70
     0
 71
     0
 40
0.06
 41
0.06
280
     0
281
     0
  7
Standard
140
0.18
170
     2
 62
     0
 63
     7
283
     0
 90
      512
 91
        0
  1

274
    -2
284
     1
 64
     0
275
    -2
285
     1
 65
     0
276
    -2
286
     1
 66
     0
277
    -2
287
     1
 67
     0
278
    -2
288
     1
 68
     0
279
    -2
289
     1
 69
     0
  7
Standard
140
0.25
170
     5
 62
     0
 63
     7
283
     0
 90
      512
 91
        0
  1

274
    -2
284
     1
 64
     0
275
    -2
285
     1
 65
     0
276
    -2
286
     1
 66
     0
277
    -2
287
     1
 67
     0
278
    -2
288
     1
 68
     0
279
    -2
289
     1
 69
     0
  7
Standard
140
0.18
170
     5
 62
     0
 63
     7
283
     0
 90
      512
 91
        0
  1

274
    -2
284
     1
 64
     0
275
    -2
285
     1
 65
     0
276
    -2
286
     1
 66
     0
277
    -2
287
     1
 67
     0
278
    -2
288
     1
 68
     0
279
    -2
289
     1
 69
     0
  0
VISUALSTYLE
  5
9F
102
{ACAD_REACTORS
330
99
102
}
330
99
100
AcDbVisualStyle
  2
2dWireframe
 70
     4
177
     3
291
     0
 70
    58
 90
        0
176
     1
 90
        2
176
     1
 90
        1
176
     1
 90
        0
176
     1
 40
0.6
176
     1
 40
30.0
176
     1
 62
     7
420
 16777215
176
     1
 90
        1
176
     1
 90
        4
176
     1
 62
     7
176
     1
 62
   257
176
     1
 90
        1
176
     1
 90
        1
176
     1
 40
1.0
176
     1
 90
        0
176
     1
 62
   257
176
     1
 40
1.0
176
     1
 90
        1
176
     1
 90
        6
176
     1
 90
        2
176
     1
 62
     7
176
     1
 90
        5
176
     1
 90
        0
176
     1
 90
        0
176
     1
290
     0
176
     1
 90
        1
176
     1
 40
0.0
176
     1
 90
        0
176
     1
290
     1
176
     1
290
     1
176
     1
290
     0
176
     1
290
     0
176
     1
290
     0
176
     1
290
     0
176
     1
290
     0
176
     1
290
     0
176
     1
290
     0
176
     1
 90
       50
176
     1
 40
0.0
176
     1
 40
1.0
176
     1
 90
        0
176
     1
 62
    18
420
        0
176
     1
 90
       50
176
     1
 90
        3
176
     1
 62
     5
420
      255
176
     1
290
     0
176
     1
 90
       50
176
     1
 90
       50
176
     1
 90
       50
176
     1
290
     0
176
     1
 90
       50
176
     1
 62
   256
176
     0
 40
1.0
176
     0
 90
        2
176
     1
  1
strokes_ogs.tif
176
     1
290
     0
176
     1
 40
1.0
176
     1
 40
1.0
176
     1
  0
VISUALSTYLE
  5
2684
102
{ACAD_REACTORS
330
99
102
}
330
99
100
AcDbVisualStyle
  2
3dWireframe
 70
     5
177
     3
291
     0
 70
    58
 90
        0
176
     1
 90
        2
176
     1
 90
        0
176
     1
 90
        0
176
     1
 40
0.6
176
     1
 40
30.0
176
     1
 62
     7
176
     1
 90
        1
176
     1
 90
        4
176
     1
 62
     7
176
     1
 62
   257
176
     1
 90
        1
176
     1
 90
        1
176
     1
 40
1.0
176
     1
 90
        0
176
     1
 62
   257
176
     1
 40
1.0
176
     1
 90
        1
176
     1
 90
        6
176
     1
 90
        2
176
     1
 62
     7
176
     1
 90
        5
176
     1
 90
        0
176
     1
 90
        0
176
     1
290
     0
176
     1
 90
        1
176
     1
 40
0.0
176
     1
 90
        0
176
     1
290
     0
176
     1
290
     1
176
     1
290
     1
176
     1
290
     0
176
     1
290
     0
176
     1
290
     0
176
     1
290
     0
176
     1
290
     0
176
     1
290
     0
176
     1
 90
       50
176
     1
 40
0.0
176
     1
 40
1.0
176
     1
 90
        0
176
     1
 62
    18
420
        0
176
     1
 90
       50
176
     1
 90
        3
176
     1
 62
     5
420
      255
176
     1
290
     0
176
     1
 90
       50
176
     1
 90
       50
176
     1
 90
       50
176
     1
290
     0
176
     1
 90
       50
176
     1
 62
   256
176
     0
 40
1.0
176
     0
 90
        2
176
     1
  1
strokes_ogs.tif
176
     1
290
     0
176
     1
 40
1.0
176
     1
 40
1.0
176
     1
1001
ACAD
1000
AcRTDxfName
1000
VISUALSTYLE
  0
VISUALSTYLE
  5
9E
102
{ACAD_REACTORS
330
99
102
}
330
99
100
AcDbVisualStyle
  2
Basic
 70
     7
177
     3
291
     1
 70
    58
 90
        1
176
     1
 90
        0
176
     1
 90
        1
176
     1
 90
        0
176
     1
 40
0.6
176
     1
 40
30.0
176
     1
 62
     7
420
 16777215
176
     1
 90
        0
176
     1
 90
        4
176
     1
 62
     7
176
     1
 62
   257
176
     1
 90
        1
176
     1
 90
        1
176
     1
 40
1.0
176
     1
 90
        8
176
     1
 62
     7
176
     1
 40
1.0
176
     1
 90
        1
176
     1
 90
        6
176
     1
 90
        2
176
     1
 62
     7
176
     1
 90
        5
176
     1
 90
        0
176
     1
 90
        0
176
     1
290
     0
176
     1
 90
        1
176
     1
 40
0.0
176
     1
 90
        0
176
     1
290
     0
176
     1
290
     1
176
     1
290
     1
176
     1
290
     0
176
     1
290
     0
176
     1
290
     0
176
     1
290
     0
176
     1
290
     0
176
     1
290
     0
176
     1
 90
       50
176
     1
 40
0.0
176
     1
 40
1.0
176
     1
 90
        0
176
     1
 62
    18
420
        0
176
     1
 90
       50
176
     1
 90
        3
176
     1
 62
     5
420
      255
176
     1
290
     0
176
     1
 90
       50
176
     1
 90
       50
176
     1
 90
       50
176
     1
290
     0
176
     1
 90
       50
176
     1
 62
   256
176
     0
 40
1.0
176
     0
 90
        2
176
     1
  1
strokes_ogs.tif
176
     1
290
     0
176
     1
 40
1.0
176
     1
 40
1.0
176
     1
  0
VISUALSTYLE
  5
A5
102
{ACAD_REACTORS
330
99
102
}
330
99
100
AcDbVisualStyle
  2
Brighten
 70
    12
177
     3
291
     1
 70
    58
 90
        2
176
     1
 90
        2
176
     1
 90
        1
176
     1
 90
        0
176
     1
 40
0.6
176
     1
 40
30.0
176
     1
 62
     7
420
 16777215
176
     1
 90
        1
176
     1
 90
        4
176
     1
 62
     7
176
     1
 62
   257
176
     1
 90
        1
176
     1
 90
        1
176
     1
 40
1.0
176
     1
 90
        8
176
     1
 62
     7
176
     1
 40
1.0
176
     1
 90
        1
176
     1
 90
        6
176
     1
 90
        2
176
     1
 62
     7
176
     1
 90
        5
176
     1
 90
        0
176
     1
 90
        0
176
     1
290
     0
176
     1
 90
        1
176
     1
 40
50.0
176
     1
 90
        0
176
     1
290
     0
176
     1
290
     1
176
     1
290
     1
176
     1
290
     0
176
     1
290
     0
176
     1
290
     0
176
     1
290
     0
176
     1
290
     0
176
     1
290
     0
176
     1
 90
       50
176
     1
 40
0.0
176
     1
 40
1.0
176
     1
 90
        0
176
     1
 62
    18
420
        0
176
     1
 90
       50
176
     1
 90
        3
176
     1
 62
     5
420
      255
176
     1
290
     0
176
     1
 90
       50
176
     1
 90
       50
176
     1
 90
       50
176
     1
290
     0
176
     1
 90
       50
176
     1
 62
   256
176
     0
 40
1.0
176
     0
 90
        2
176
     1
  1
strokes_ogs.tif
176
     1
290
     0
176
     1
 40
1.0
176
     1
 40
1.0
176
     1
  0
VISUALSTYLE
  5
A9
102
{ACAD_REACTORS
330
99
102
}
330
99
100
AcDbVisualStyle
  2
ColorChange
 70
    16
177
     3
291
     1
 70
    58
 90
        2
176
     1
 90
        2
176
     1
 90
        3
176
     1
 90
        0
176
     1
 40
0.6
176
     1
 40
30.0
176
     1
 62
     8
420
  8421504
176
     1
 90
        1
176
     1
 90
        4
176
     1
 62
     7
176
     1
 62
   257
176
     1
 90
        1
176
     1
 90
        1
176
     1
 40
1.0
176
     1
 90
        8
176
     1
 62
     8
420
  8421504
176
     1
 40
1.0
176
     1
 90
        1
176
     1
 90
        6
176
     1
 90
        2
176
     1
 62
     7
176
     1
 90
        5
176
     1
 90
        0
176
     1
 90
        0
176
     1
290
     0
176
     1
 90
        1
176
     1
 40
0.0
176
     1
 90
        0
176
     1
290
     0
176
     1
290
     1
176
     1
290
     1
176
     1
290
     0
176
     1
290
     0
176
     1
290
     0
176
     1
290
     0
176
     1
290
     0
176
     1
290
     0
176
     1
 90
       50
176
     1
 40
0.0
176
     1
 40
1.0
176
     1
 90
        0
176
     1
 62
    18
420
        0
176
     1
 90
       50
176
     1
 90
        3
176
     1
 62
     5
420
      255
176
     1
290
     0
176
     1
 90
       50
176
     1
 90
       50
176
     1
 90
       50
176
     1
290
     0
176
     1
 90
       50
176
     1
 62
   256
176
     0
 40
1.0
176
     0
 90
        2
176
     1
  1
strokes_ogs.tif
176
     1
290
     0
176
     1
 40
1.0
176
     1
 40
1.0
176
     1
  0
VISUALSTYLE
  5
A2
102
{ACAD_REACTORS
330
99
102
}
330
99
100
AcDbVisualStyle
  2
Conceptual
 70
     9
177
     3
291
     0
 70
    58
 90
        3
176
     1
 90
        2
176
     1
 90
        1
176
     1
 90
        0
176
     1
 40
0.6
176
     1
 40
30.0
176
     1
 62
     7
420
 16777215
176
     1
 90
        2
176
     1
 90
        2
176
     1
 62
     7
176
     1
 62
   257
176
     1
 90
        1
176
     1
 90
        1
176
     1
 40
40.0
176
     1
 90
        8
176
     1
 62
     7
176
     1
 40
1.0
176
     1
 90
        1
176
     1
 90
        6
176
     1
 90
        2
176
     1
 62
     7
176
     1
 90
        3
176
     1
 90
        0
176
     1
 90
        0
176
     1
290
     0
176
     1
 90
        1
176
     1
 40
0.0
176
     1
 90
        0
176
     1
290
     0
176
     1
290
     1
176
     1
290
     1
176
     1
290
     0
176
     1
290
     0
176
     1
290
     0
176
     1
290
     0
176
     1
290
     0
176
     1
290
     0
176
     1
 90
       50
176
     1
 40
0.0
176
     1
 40
1.0
176
     1
 90
        0
176
     1
 62
    18
420
        0
176
     1
 90
       50
176
     1
 90
        3
176
     1
 62
     5
420
      255
176
     1
290
     0
176
     1
 90
       50
176
     1
 90
       50
176
     1
 90
       50
176
     1
290
     0
176
     1
 90
       50
176
     1
 62
   256
176
     0
 40
1.0
176
     0
 90
        2
176
     1
  1
strokes_ogs.tif
176
     1
290
     0
176
     1
 40
1.0
176
     1
 40
1.0
176
     1
  0
VISUALSTYLE
  5
A4
102
{ACAD_REACTORS
330
99
102
}
330
99
100
AcDbVisualStyle
  2
Dim
 70
    11
177
     3
291
     1
 70
    58
 90
        2
176
     1
 90
        2
176
     1
 90
        1
176
     1
 90
        0
176
     1
 40
0.6
176
     1
 40
30.0
176
     1
 62
     7
420
 16777215
176
     1
 90
        1
176
     1
 90
        4
176
     1
 62
     7
176
     1
 62
   257
176
     1
 90
        1
176
     1
 90
        1
176
     1
 40
1.0
176
     1
 90
        8
176
     1
 62
     7
176
     1
 40
1.0
176
     1
 90
        1
176
     1
 90
        6
176
     1
 90
        2
176
     1
 62
     7
176
     1
 90
        5
176
     1
 90
        0
176
     1
 90
        0
176
     1
290
     0
176
     1
 90
        1
176
     1
 40
-50.0
176
     1
 90
        0
176
     1
290
     0
176
     1
290
     1
176
     1
290
     1
176
     1
290
     0
176
     1
290
     0
176
     1
290
     0
176
     1
290
     0
176
     1
290
     0
176
     1
290
     0
176
     1
 90
       50
176
     1
 40
0.0
176
     1
 40
1.0
176
     1
 90
        0
176
     1
 62
    18
420
        0
176
     1
 90
       50
176
     1
 90
        3
176
     1
 62
     5
420
      255
176
     1
290
     0
176
     1
 90
       50
176
     1
 90
       50
176
     1
 90
       50
176
     1
290
     0
176
     1
 90
       50
176
     1
 62
   256
176
     0
 40
1.0
176
     0
 90
        2
176
     1
  1
strokes_ogs.tif
176
     1
290
     0
176
     1
 40
1.0
176
     1
 40
1.0
176
     1
  0
VISUALSTYLE
  5
175
102
{ACAD_REACTORS
330
99
102
}
330
99
100
AcDbVisualStyle
  2
EdgeColorOff
 70
    22
177
     3
291
     1
 70
    58
 90
        2
176
     0
 90
        2
176
     0
 90
        0
176
     0
 90
        0
176
     0
 40
0.6
176
     0
 40
30.0
176
     0
 62
     7
420
 16777215
176
     0
 90
        1
176
     0
 90
        4
176
     0
 62
     7
176
     0
 62
   257
176
     0
 90
        1
176
     0
 90
        1
176
     0
 40
1.0
176
     0
 90
        8
176
     2
 62
     7
176
     0
 40
1.0
176
     0
 90
        1
176
     0
 90
        6
176
     0
 90
        2
176
     0
 62
     7
176
     0
 90
        5
176
     0
 90
        0
176
     0
 90
        0
176
     0
290
     0
176
     0
 90
        1
176
     0
 40
0.0
176
     0
 90
        0
176
     0
290
     0
176
     1
290
     1
176
     1
290
     1
176
     1
290
     0
176
     1
290
     0
176
     1
290
     0
176
     1
290
     0
176
     1
290
     0
176
     1
290
     0
176
     1
 90
       50
176
     1
 40
0.0
176
     1
 40
1.0
176
     1
 90
        0
176
     1
 62
    18
420
        0
176
     1
 90
       50
176
     1
 90
        3
176
     1
 62
     5
420
      255
176
     1
290
     0
176
     1
 90
       50
176
     1
 90
       50
176
     1
 90
       50
176
     1
290
     0
176
     1
 90
       50
176
     1
 62
   256
176
     0
 40
1.0
176
     0
 90
        2
176
     1
  1
strokes_ogs.tif
176
     1
290
     0
176
     1
 40
1.0
176
     1
 40
1.0
176
     1
  0
VISUALSTYLE
  5
A8
102
{ACAD_REACTORS
330
99
102
}
330
99
100
AcDbVisualStyle
  2
Facepattern
 70
    15
177
     3
291
     1
 70
    58
 90
        2
176
     1
 90
        2
176
     1
 90
        1
176
     1
 90
        0
176
     1
 40
0.6
176
     1
 40
30.0
176
     1
 62
     7
420
 16777215
176
     1
 90
        1
176
     1
 90
        4
176
     1
 62
     7
176
     1
 62
   257
176
     1
 90
        1
176
     1
 90
        1
176
     1
 40
1.0
176
     1
 90
        8
176
     1
 62
     7
176
     1
 40
1.0
176
     1
 90
        1
176
     1
 90
        6
176
     1
 90
        2
176
     1
 62
     7
176
     1
 90
        5
176
     1
 90
        0
176
     1
 90
        0
176
     1
290
     0
176
     1
 90
        1
176
     1
 40
0.0
176
     1
 90
        0
176
     1
290
     0
176
     1
290
     1
176
     1
290
     1
176
     1
290
     0
176
     1
290
     0
176
     1
290
     0
176
     1
290
     0
176
     1
290
     0
176
     1
290
     0
176
     1
 90
       50
176
     1
 40
0.0
176
     1
 40
1.0
176
     1
 90
        0
176
     1
 62
    18
420
        0
176
     1
 90
       50
176
     1
 90
        3
176
     1
 62
     5
420
      255
176
     1
290
     0
176
     1
 90
       50
176
     1
 90
       50
176
     1
 90
       50
176
     1
290
     0
176
     1
 90
       50
176
     1
 62
   256
176
     0
 40
1.0
176
     0
 90
        2
176
     1
  1
strokes_ogs.tif
176
     1
290
     0
176
     1
 40
1.0
176
     1
 40
1.0
176
     1
  0
VISUALSTYLE
  5
9A
102
{ACAD_REACTORS
330
99
102
}
330
99
100
AcDbVisualStyle
  2
Flat
 70
     0
177
     3
291
     1
 70
    58
 90
        2
176
     1
 90
        1
176
     1
 90
        1
176
     1
 90
        2
176
     1
 40
0.6
176
     1
 40
30.0
176
     1
 62
     7
420
 16777215
176
     1
 90
        0
176
     1
 90
        0
176
     1
 62
     7
176
     1
 62
   257
176
     1
 90
        1
176
     1
 90
        1
176
     1
 40
1.0
176
     1
 90
        8
176
     1
 62
     7
176
     1
 40
1.0
176
     1
 90
        1
176
     1
 90
        6
176
     1
 90
        2
176
     1
 62
     7
176
     1
 90
        5
176
     1
 90
        0
176
     1
 90
        0
176
     1
290
     0
176
     1
 90
       13
176
     1
 40
0.0
176
     1
 90
        0
176
     1
290
     0
176
     1
290
     1
176
     1
290
     1
176
     1
290
     0
176
     1
290
     0
176
     1
290
     0
176
     1
290
     0
176
     1
290
     0
176
     1
290
     0
176
     1
 90
       50
176
     1
 40
0.0
176
     1
 40
1.0
176
     1
 90
        0
176
     1
 62
    18
420
        0
176
     1
 90
       50
176
     1
 90
        3
176
     1
 62
     5
420
      255
176
     1
290
     0
176
     1
 90
       50
176
     1
 90
       50
176
     1
 90
       50
176
     1
290
     0
176
     1
 90
       50
176
     1
 62
   256
176
     0
 40
1.0
176
     0
 90
        2
176
     1
  1
strokes_ogs.tif
176
     1
290
     0
176
     1
 40
1.0
176
     1
 40
1.0
176
     1
  0
VISUALSTYLE
  5
9B
102
{ACAD_REACTORS
330
99
102
}
330
99
100
AcDbVisualStyle
  2
FlatWithEdges
 70
     1
177
     3
291
     1
 70
    58
 90
        2
176
     1
 90
        1
176
     1
 90
        1
176
     1
 90
        2
176
     1
 40
0.6
176
     1
 40
30.0
176
     1
 62
     7
420
 16777215
176
     1
 90
        1
176
     1
 90
        0
176
     1
 62
     7
176
     1
 62
   257
176
     1
 90
        1
176
     1
 90
        1
176
     1
 40
1.0
176
     1
 90
        0
176
     1
 62
   257
176
     1
 40
1.0
176
     1
 90
        1
176
     1
 90
        6
176
     1
 90
        2
176
     1
 62
     7
176
     1
 90
        5
176
     1
 90
        0
176
     1
 90
        0
176
     1
290
     0
176
     1
 90
       13
176
     1
 40
0.0
176
     1
 90
        0
176
     1
290
     0
176
     1
290
     1
176
     1
290
     1
176
     1
290
     0
176
     1
290
     0
176
     1
290
     0
176
     1
290
     0
176
     1
290
     0
176
     1
290
     0
176
     1
 90
       50
176
     1
 40
0.0
176
     1
 40
1.0
176
     1
 90
        0
176
     1
 62
    18
420
        0
176
     1
 90
       50
176
     1
 90
        3
176
     1
 62
     5
420
      255
176
     1
290
     0
176
     1
 90
       50
176
     1
 90
       50
176
     1
 90
       50
176
     1
290
     0
176
     1
 90
       50
176
     1
 62
   256
176
     0
 40
1.0
176
     0
 90
        2
176
     1
  1
strokes_ogs.tif
176
     1
290
     0
176
     1
 40
1.0
176
     1
 40
1.0
176
     1
  0
VISUALSTYLE
  5
9C
102
{ACAD_REACTORS
330
99
102
}
330
99
100
AcDbVisualStyle
  2
Gouraud
 70
     2
177
     3
291
     1
 70
    58
 90
        2
176
     1
 90
        2
176
     1
 90
        1
176
     1
 90
        2
176
     1
 40
0.6
176
     1
 40
30.0
176
     1
 62
     7
420
 16777215
176
     1
 90
        0
176
     1
 90
        0
176
     1
 62
     7
176
     1
 62
   257
176
     1
 90
        1
176
     1
 90
        1
176
     1
 40
1.0
176
     1
 90
        0
176
     1
 62
     7
176
     1
 40
1.0
176
     1
 90
        1
176
     1
 90
        6
176
     1
 90
        2
176
     1
 62
     7
176
     1
 90
        5
176
     1
 90
        0
176
     1
 90
        0
176
     1
290
     0
176
     1
 90
       13
176
     1
 40
0.0
176
     1
 90
        0
176
     1
290
     0
176
     1
290
     1
176
     1
290
     1
176
     1
290
     0
176
     1
290
     0
176
     1
290
     0
176
     1
290
     0
176
     1
290
     0
176
     1
290
     0
176
     1
 90
       50
176
     1
 40
0.0
176
     1
 40
1.0
176
     1
 90
        0
176
     1
 62
    18
420
        0
176
     1
 90
       50
176
     1
 90
        3
176
     1
 62
     5
420
      255
176
     1
290
     0
176
     1
 90
       50
176
     1
 90
       50
176
     1
 90
       50
176
     1
290
     0
176
     1
 90
       50
176
     1
 62
   256
176
     0
 40
1.0
176
     0
 90
        2
176
     1
  1
strokes_ogs.tif
176
     1
290
     0
176
     1
 40
1.0
176
     1
 40
1.0
176
     1
  0
VISUALSTYLE
  5
9D
102
{ACAD_REACTORS
330
99
102
}
330
99
100
AcDbVisualStyle
  2
GouraudWithEdges
 70
     3
177
     3
291
     1
 70
    58
 90
        2
176
     1
 90
        2
176
     1
 90
        1
176
     1
 90
        2
176
     1
 40
0.6
176
     1
 40
30.0
176
     1
 62
     7
420
 16777215
176
     1
 90
        1
176
     1
 90
        0
176
     1
 62
     7
176
     1
 62
   257
176
     1
 90
        1
176
     1
 90
        1
176
     1
 40
1.0
176
     1
 90
        0
176
     1
 62
   257
176
     1
 40
1.0
176
     1
 90
        1
176
     1
 90
        6
176
     1
 90
        2
176
     1
 62
     7
176
     1
 90
        5
176
     1
 90
        0
176
     1
 90
        0
176
     1
290
     0
176
     1
 90
       13
176
     1
 40
0.0
176
     1
 90
        0
176
     1
290
     0
176
     1
290
     1
176
     1
290
     1
176
     1
290
     0
176
     1
290
     0
176
     1
290
     0
176
     1
290
     0
176
     1
290
     0
176
     1
290
     0
176
     1
 90
       50
176
     1
 40
0.0
176
     1
 40
1.0
176
     1
 90
        0
176
     1
 62
    18
420
        0
176
     1
 90
       50
176
     1
 90
        3
176
     1
 62
     5
420
      255
176
     1
290
     0
176
     1
 90
       50
176
     1
 90
       50
176
     1
 90
       50
176
     1
290
     0
176
     1
 90
       50
176
     1
 62
   256
176
     0
 40
1.0
176
     0
 90
        2
176
     1
  1
strokes_ogs.tif
176
     1
290
     0
176
     1
 40
1.0
176
     1
 40
1.0
176
     1
  0
VISUALSTYLE
  5
A1
102
{ACAD_REACTORS
330
99
102
}
330
99
100
AcDbVisualStyle
  2
Hidden
 70
     6
177
     3
291
     0
 70
    58
 90
        1
176
     1
 90
        2
176
     1
 90
        2
176
     1
 90
        0
176
     1
 40
0.6
176
     1
 40
30.0
176
     1
 62
     7
420
 16777215
176
     1
 90
        2
176
     1
 90
        2
176
     1
 62
     7
176
     1
 62
   257
176
     1
 90
        2
176
     1
 90
        1
176
     1
 40
40.0
176
     1
 90
        0
176
     1
 62
   257
176
     1
 40
1.0
176
     1
 90
        1
176
     1
 90
        6
176
     1
 90
        2
176
     1
 62
     7
176
     1
 90
        3
176
     1
 90
        0
176
     1
 90
        0
176
     1
290
     0
176
     1
 90
        1
176
     1
 40
0.0
176
     1
 90
        0
176
     1
290
     0
176
     1
290
     1
176
     1
290
     1
176
     1
290
     0
176
     1
290
     0
176
     1
290
     0
176
     1
290
     0
176
     1
290
     0
176
     1
290
     0
176
     1
 90
       50
176
     1
 40
0.0
176
     1
 40
1.0
176
     1
 90
        0
176
     1
 62
    18
420
        0
176
     1
 90
       50
176
     1
 90
        3
176
     1
 62
     5
420
      255
176
     1
290
     0
176
     1
 90
       50
176
     1
 90
       50
176
     1
 90
       50
176
     1
290
     0
176
     1
 90
       50
176
     1
 62
   256
176
     0
 40
1.0
176
     0
 90
        2
176
     1
  1
strokes_ogs.tif
176
     1
290
     0
176
     1
 40
1.0
176
     1
 40
1.0
176
     1
  0
VISUALSTYLE
  5
173
102
{ACAD_REACTORS
330
99
102
}
330
99
100
AcDbVisualStyle
  2
JitterOff
 70
    20
177
     3
291
     1
 70
    58
 90
        2
176
     0
 90
        2
176
     0
 90
        0
176
     0
 90
        0
176
     0
 40
0.6
176
     0
 40
30.0
176
     0
 62
     7
420
 16777215
176
     0
 90
        1
176
     0
 90
        4
176
     0
 62
     7
176
     0
 62
   257
176
     0
 90
        1
176
     0
 90
        1
176
     0
 40
1.0
176
     0
 90
       10
176
     2
 62
     7
176
     0
 40
1.0
176
     0
 90
        1
176
     0
 90
        6
176
     0
 90
        2
176
     0
 62
     7
176
     0
 90
        5
176
     0
 90
        0
176
     0
 90
        0
176
     0
290
     0
176
     0
 90
        1
176
     0
 40
0.0
176
     0
 90
        0
176
     0
290
     0
176
     1
290
     1
176
     1
290
     1
176
     1
290
     0
176
     1
290
     0
176
     1
290
     0
176
     1
290
     0
176
     1
290
     0
176
     1
290
     0
176
     1
 90
       50
176
     1
 40
0.0
176
     1
 40
1.0
176
     1
 90
        0
176
     1
 62
    18
420
        0
176
     1
 90
       50
176
     1
 90
        3
176
     1
 62
     5
420
      255
176
     1
290
     0
176
     1
 90
       50
176
     1
 90
       50
176
     1
 90
       50
176
     1
290
     0
176
     1
 90
       50
176
     1
 62
   256
176
     0
 40
1.0
176
     0
 90
        2
176
     1
  1
strokes_ogs.tif
176
     1
290
     0
176
     1
 40
1.0
176
     1
 40
1.0
176
     1
  0
VISUALSTYLE
  5
A7
102
{ACAD_REACTORS
330
99
102
}
330
99
100
AcDbVisualStyle
  2
Linepattern
 70
    14
177
     3
291
     1
 70
    58
 90
        2
176
     1
 90
        2
176
     1
 90
        1
176
     1
 90
        0
176
     1
 40
0.6
176
     1
 40
30.0
176
     1
 62
     7
420
 16777215
176
     1
 90
        1
176
     1
 90
        4
176
     1
 62
     7
176
     1
 62
   257
176
     1
 90
        7
176
     1
 90
        7
176
     1
 40
1.0
176
     1
 90
        8
176
     1
 62
     7
176
     1
 40
1.0
176
     1
 90
        1
176
     1
 90
        6
176
     1
 90
        2
176
     1
 62
     7
176
     1
 90
        5
176
     1
 90
        0
176
     1
 90
        0
176
     1
290
     0
176
     1
 90
        1
176
     1
 40
0.0
176
     1
 90
        0
176
     1
290
     0
176
     1
290
     1
176
     1
290
     1
176
     1
290
     0
176
     1
290
     0
176
     1
290
     0
176
     1
290
     0
176
     1
290
     0
176
     1
290
     0
176
     1
 90
       50
176
     1
 40
0.0
176
     1
 40
1.0
176
     1
 90
        0
176
     1
 62
    18
420
        0
176
     1
 90
       50
176
     1
 90
        3
176
     1
 62
     5
420
      255
176
     1
290
     0
176
     1
 90
       50
176
     1
 90
       50
176
     1
 90
       50
176
     1
290
     0
176
     1
 90
       50
176
     1
 62
   256
176
     0
 40
1.0
176
     0
 90
        2
176
     1
  1
strokes_ogs.tif
176
     1
290
     0
176
     1
 40
1.0
176
     1
 40
1.0
176
     1
  0
VISUALSTYLE
  5
174
102
{ACAD_REACTORS
330
99
102
}
330
99
100
AcDbVisualStyle
  2
OverhangOff
 70
    21
177
     3
291
     1
 70
    58
 90
        2
176
     0
 90
        2
176
     0
 90
        0
176
     0
 90
        0
176
     0
 40
0.6
176
     0
 40
30.0
176
     0
 62
     7
420
 16777215
176
     0
 90
        1
176
     0
 90
        4
176
     0
 62
     7
176
     0
 62
   257
176
     0
 90
        1
176
     0
 90
        1
176
     0
 40
1.0
176
     0
 90
        9
176
     2
 62
     7
176
     0
 40
1.0
176
     0
 90
        1
176
     0
 90
        6
176
     0
 90
        2
176
     0
 62
     7
176
     0
 90
        5
176
     0
 90
        0
176
     0
 90
        0
176
     0
290
     0
176
     0
 90
        1
176
     0
 40
0.0
176
     0
 90
        0
176
     0
290
     0
176
     1
290
     1
176
     1
290
     1
176
     1
290
     0
176
     1
290
     0
176
     1
290
     0
176
     1
290
     0
176
     1
290
     0
176
     1
290
     0
176
     1
 90
       50
176
     1
 40
0.0
176
     1
 40
1.0
176
     1
 90
        0
176
     1
 62
    18
420
        0
176
     1
 90
       50
176
     1
 90
        3
176
     1
 62
     5
420
      255
176
     1
290
     0
176
     1
 90
       50
176
     1
 90
       50
176
     1
 90
       50
176
     1
290
     0
176
     1
 90
       50
176
     1
 62
   256
176
     0
 40
1.0
176
     0
 90
        2
176
     1
  1
strokes_ogs.tif
176
     1
290
     0
176
     1
 40
1.0
176
     1
 40
1.0
176
     1
  0
VISUALSTYLE
  5
A3
102
{ACAD_REACTORS
330
99
102
}
330
99
100
AcDbVisualStyle
  2
Realistic
 70
     8
177
     3
291
     0
 70
    58
 90
        2
176
     1
 90
        2
176
     1
 90
        0
176
     1
 90
        2
176
     1
 40
0.6
176
     1
 40
30.0
176
     1
 62
     7
420
 16777215
176
     1
 90
        0
176
     1
 90
        0
176
     1
 62
     7
176
     1
 62
   257
176
     1
 90
        1
176
     1
 90
        1
176
     1
 40
1.0
176
     1
 90
        8
176
     1
 62
   257
176
     1
 40
1.0
176
     1
 90
        1
176
     1
 90
        6
176
     1
 90
        2
176
     1
 62
     7
176
     1
 90
        3
176
     1
 90
        0
176
     1
 90
        0
176
     1
290
     0
176
     1
 90
       13
176
     1
 40
0.0
176
     1
 90
        0
176
     1
290
     0
176
     1
290
     1
176
     1
290
     1
176
     1
290
     0
176
     1
290
     0
176
     1
290
     0
176
     1
290
     0
176
     1
290
     0
176
     1
290
     0
176
     1
 90
       50
176
     1
 40
0.0
176
     1
 40
1.0
176
     1
 90
        0
176
     1
 62
    18
420
        0
176
     1
 90
       50
176
     1
 90
        3
176
     1
 62
     5
420
      255
176
     1
290
     0
176
     1
 90
       50
176
     1
 90
       50
176
     1
 90
       50
176
     1
290
     0
176
     1
 90
       50
176
     1
 62
   256
176
     0
 40
1.0
176
     0
 90
        2
176
     1
  1
strokes_ogs.tif
176
     1
290
     0
176
     1
 40
1.0
176
     1
 40
1.0
176
     1
  0
VISUALSTYLE
  5
182
102
{ACAD_REACTORS
330
99
102
}
330
99
100
AcDbVisualStyle
  2
Shaded
 70
    27
177
     3
291
     0
 70
    58
 90
        2
176
     1
 90
        2
176
     1
 90
        1
176
     1
 90
        2
176
     1
 40
0.6
176
     1
 40
30.0
176
     1
 62
     7
420
 16777215
176
     1
 90
        0
176
     1
 90
        4
176
     1
 62
     7
176
     1
 62
   257
176
     1
 90
        1
176
     1
 90
        1
176
     1
 40
1.0
176
     1
 90
        8
176
     1
 62
   257
176
     1
 40
1.0
176
     1
 90
        1
176
     1
 90
        6
176
     1
 90
        2
176
     1
 62
     8
420
  7895160
176
     1
 90
        3
176
     1
 90
        0
176
     1
 90
        0
176
     1
290
     0
176
     1
 90
        5
176
     1
 40
0.0
176
     1
 90
        0
176
     1
290
     0
176
     1
290
     1
176
     1
290
     1
176
     1
290
     0
176
     1
290
     0
176
     1
290
     0
176
     1
290
     0
176
     1
290
     0
176
     1
290
     0
176
     1
 90
       50
176
     1
 40
0.0
176
     1
 40
1.0
176
     1
 90
        0
176
     1
 62
    18
420
        0
176
     1
 90
       50
176
     1
 90
        3
176
     1
 62
     5
420
      255
176
     1
290
     0
176
     1
 90
       50
176
     1
 90
       50
176
     1
 90
       50
176
     1
290
     0
176
     1
 90
       50
176
     1
 62
   256
176
     0
 40
1.0
176
     0
 90
        2
176
     1
  1
strokes_ogs.tif
176
     1
290
     0
176
     1
 40
1.0
176
     1
 40
1.0
176
     1
  0
VISUALSTYLE
  5
181
102
{ACAD_REACTORS
330
99
102
}
330
99
100
AcDbVisualStyle
  2
Shaded with edges
 70
    26
177
     3
291
     0
 70
    58
 90
        2
176
     1
 90
        2
176
     1
 90
        1
176
     1
 90
        2
176
     1
 40
0.6
176
     1
 40
30.0
176
     1
 62
     7
420
 16777215
176
     1
 90
        1
176
     1
 90
        2
176
     1
 62
     7
176
     1
 62
   257
176
     1
 90
        2
176
     1
 90
        1
176
     1
 40
1.0
176
     1
 90
        8
176
     1
 62
   257
176
     1
 40
1.0
176
     1
 90
        1
176
     1
 90
        6
176
     1
 90
        2
176
     1
 62
     7
176
     1
 90
        3
176
     1
 90
        0
176
     1
 90
        0
176
     1
290
     0
176
     1
 90
        5
176
     1
 40
0.0
176
     1
 90
        0
176
     1
290
     0
176
     1
290
     1
176
     1
290
     1
176
     1
290
     0
176
     1
290
     0
176
     1
290
     0
176
     1
290
     0
176
     1
290
     0
176
     1
290
     0
176
     1
 90
       50
176
     1
 40
0.0
176
     1
 40
1.0
176
     1
 90
        0
176
     1
 62
    18
420
        0
176
     1
 90
       50
176
     1
 90
        3
176
     1
 62
     5
420
      255
176
     1
290
     0
176
     1
 90
       50
176
     1
 90
       50
176
     1
 90
       50
176
     1
290
     0
176
     1
 90
       50
176
     1
 62
   256
176
     0
 40
1.0
176
     0
 90
        2
176
     1
  1
strokes_ogs.tif
176
     1
290
     0
176
     1
 40
1.0
176
     1
 40
1.0
176
     1
  0
VISUALSTYLE
  5
17E
102
{ACAD_REACTORS
330
99
102
}
330
99
100
AcDbVisualStyle
  2
Shades of Gray
 70
    23
177
     3
291
     0
 70
    58
 90
        2
176
     1
 90
        2
176
     1
 90
        3
176
     1
 90
        0
176
     1
 40
0.6
176
     1
 40
30.0
176
     1
 62
     7
420
 16777215
176
     1
 90
        2
176
     1
 90
        2
176
     1
 62
     7
176
     1
 62
     7
176
     1
 90
        1
176
     1
 90
        1
176
     1
 40
40.0
176
     1
 90
        8
176
     1
 62
     7
176
     1
 40
1.0
176
     1
 90
        1
176
     1
 90
        6
176
     1
 90
        2
176
     1
 62
     7
176
     1
 90
        3
176
     1
 90
        0
176
     1
 90
        0
176
     1
290
     0
176
     1
 90
        1
176
     1
 40
0.0
176
     1
 90
        0
176
     1
290
     0
176
     1
290
     1
176
     1
290
     1
176
     1
290
     0
176
     1
290
     0
176
     1
290
     0
176
     1
290
     0
176
     1
290
     0
176
     1
290
     0
176
     1
 90
       50
176
     1
 40
0.0
176
     1
 40
1.0
176
     1
 90
        0
176
     1
 62
    18
420
        0
176
     1
 90
       50
176
     1
 90
        3
176
     1
 62
     5
420
      255
176
     1
290
     0
176
     1
 90
       50
176
     1
 90
       50
176
     1
 90
       50
176
     1
290
     0
176
     1
 90
       50
176
     1
 62
   256
176
     0
 40
1.0
176
     0
 90
        2
176
     1
  1
strokes_ogs.tif
176
     1
290
     0
176
     1
 40
1.0
176
     1
 40
1.0
176
     1
  0
VISUALSTYLE
  5
17F
102
{ACAD_REACTORS
330
99
102
}
330
99
100
AcDbVisualStyle
  2
Sketchy
 70
    24
177
     3
291
     0
 70
    58
 90
        1
176
     1
 90
        2
176
     1
 90
        2
176
     1
 90
        0
176
     1
 40
0.6
176
     1
 40
30.0
176
     1
 62
     7
420
 16777215
176
     1
 90
        2
176
     1
 90
        2
176
     1
 62
     7
176
     1
 62
     7
176
     1
 90
        1
176
     1
 90
        1
176
     1
 40
40.0
176
     1
 90
       11
176
     1
 62
     7
176
     1
 40
1.0
176
     1
 90
        1
176
     1
 90
        6
176
     1
 90
        2
176
     1
 62
     7
176
     1
 90
        6
176
     1
 90
        0
176
     1
 90
        0
176
     1
290
     0
176
     1
 90
        1
176
     1
 40
0.0
176
     1
 90
        0
176
     1
290
     0
176
     1
290
     1
176
     1
290
     1
176
     1
290
     0
176
     1
290
     0
176
     1
290
     0
176
     1
290
     0
176
     1
290
     0
176
     1
290
     0
176
     1
 90
       50
176
     1
 40
0.0
176
     1
 40
1.0
176
     1
 90
        0
176
     1
 62
    18
420
        0
176
     1
 90
       50
176
     1
 90
        3
176
     1
 62
     5
420
      255
176
     1
290
     0
176
     1
 90
       50
176
     1
 90
       50
176
     1
 90
       50
176
     1
290
     0
176
     1
 90
       50
176
     1
 62
   256
176
     0
 40
1.0
176
     0
 90
        2
176
     1
  1
strokes_ogs.tif
176
     1
290
     0
176
     1
 40
1.0
176
     1
 40
1.0
176
     1
  0
VISUALSTYLE
  5
A6
102
{ACAD_REACTORS
330
99
102
}
330
99
100
AcDbVisualStyle
  2
Thicken
 70
    13
177
     3
291
     1
 70
    58
 90
        2
176
     1
 90
        2
176
     1
 90
        1
176
     1
 90
        0
176
     1
 40
0.6
176
     1
 40
30.0
176
     1
 62
     7
420
 16777215
176
     1
 90
        1
176
     1
 90
        4
176
     1
 62
     7
176
     1
 62
   257
176
     1
 90
        1
176
     1
 90
        1
176
     1
 40
1.0
176
     1
 90
       12
176
     1
 62
     7
176
     1
 40
1.0
176
     1
 90
        1
176
     1
 90
        6
176
     1
 90
        2
176
     1
 62
     7
176
     1
 90
        5
176
     1
 90
        0
176
     1
 90
        0
176
     1
290
     0
176
     1
 90
        1
176
     1
 40
0.0
176
     1
 90
        0
176
     1
290
     0
176
     1
290
     1
176
     1
290
     1
176
     1
290
     0
176
     1
290
     0
176
     1
290
     0
176
     1
290
     0
176
     1
290
     0
176
     1
290
     0
176
     1
 90
       50
176
     1
 40
0.0
176
     1
 40
1.0
176
     1
 90
        0
176
     1
 62
    18
420
        0
176
     1
 90
       50
176
     1
 90
        3
176
     1
 62
     5
420
      255
176
     1
290
     0
176
     1
 90
       50
176
     1
 90
       50
176
     1
 90
       50
176
     1
290
     0
176
     1
 90
       50
176
     1
 62
   256
176
     0
 40
1.0
176
     0
 90
        2
176
     1
  1
strokes_ogs.tif
176
     1
290
     0
176
     1
 40
1.0
176
     1
 40
1.0
176
     1
  0
VISUALSTYLE
  5
A0
102
{ACAD_REACTORS
330
99
102
}
330
99
100
AcDbVisualStyle
  2
Wireframe
 70
     5
177
     3
291
     0
 70
    58
 90
        0
176
     1
 90
        2
176
     1
 90
        0
176
     1
 90
        0
176
     1
 40
0.6
176
     1
 40
30.0
176
     1
 62
     7
420
 16777215
176
     1
 90
        1
176
     1
 90
        4
176
     1
 62
     7
176
     1
 62
   257
176
     1
 90
        1
176
     1
 90
        1
176
     1
 40
1.0
176
     1
 90
        0
176
     1
 62
   257
176
     1
 40
1.0
176
     1
 90
        1
176
     1
 90
        6
176
     1
 90
        2
176
     1
 62
     7
176
     1
 90
        3
176
     1
 90
        0
176
     1
 90
        0
176
     1
290
     0
176
     1
 90
        1
176
     1
 40
0.0
176
     1
 90
        0
176
     1
290
     0
176
     1
290
     1
176
     1
290
     1
176
     1
290
     0
176
     1
290
     0
176
     1
290
     0
176
     1
290
     0
176
     1
290
     0
176
     1
290
     0
176
     1
 90
       50
176
     1
 40
0.0
176
     1
 40
1.0
176
     1
 90
        0
176
     1
 62
    18
420
        0
176
     1
 90
       50
176
     1
 90
        3
176
     1
 62
     5
420
      255
176
     1
290
     0
176
     1
 90
       50
176
     1
 90
       50
176
     1
 90
       50
176
     1
290
     0
176
     1
 90
       50
176
     1
 62
   256
176
     0
 40
1.0
176
     0
 90
        2
176
     1
  1
strokes_ogs.tif
176
     1
290
     0
176
     1
 40
1.0
176
     1
 40
1.0
176
     1
  0
VISUALSTYLE
  5
180
102
{ACAD_REACTORS
330
99
102
}
330
99
100
AcDbVisualStyle
  2
X-Ray
 70
    25
177
     3
291
     0
 70
    58
 90
        2
176
     1
 90
        2
176
     1
 90
        1
176
     1
 90
        1
176
     1
 40
0.5
176
     1
 40
30.0
176
     1
 62
     7
420
 16777215
176
     1
 90
        1
176
     1
 90
        0
176
     1
 62
     7
176
     1
 62
   257
176
     1
 90
        1
176
     1
 90
        1
176
     1
 40
1.0
176
     1
 90
        8
176
     1
 62
     7
176
     1
 40
1.0
176
     1
 90
        1
176
     1
 90
        6
176
     1
 90
        2
176
     1
 62
     7
176
     1
 90
        3
176
     1
 90
        0
176
     1
 90
        0
176
     1
290
     0
176
     1
 90
       13
176
     1
 40
0.0
176
     1
 90
        0
176
     1
290
     0
176
     1
290
     1
176
     1
290
     1
176
     1
290
     0
176
     1
290
     0
176
     1
290
     0
176
     1
290
     0
176
     1
290
     0
176
     1
290
     0
176
     1
 90
       50
176
     1
 40
0.0
176
     1
 40
1.0
176
     1
 90
        0
176
     1
 62
    18
420
        0
176
     1
 90
       50
176
     1
 90
        3
176
     1
 62
     5
420
      255
176
     1
290
     0
176
     1
 90
       50
176
     1
 90
       50
176
     1
 90
       50
176
     1
290
     0
176
     1
 90
       50
176
     1
 62
   256
176
     0
 40
1.0
176
     0
 90
        2
176
     1
  1
strokes_ogs.tif
176
     1
290
     0
176
     1
 40
1.0
176
     1
 40
1.0
176
     1
  0
DICTIONARYVAR
  5
F0
102
{ACAD_REACTORS
330
66
102
}
330
66
100
DictionaryVariables
280
     0
  1
1:1
  0
DICTIONARYVAR
  5
EF
102
{ACAD_REACTORS
330
66
102
}
330
66
100
DictionaryVariables
280
     0
  1
STANDARD
  0
DICTIONARYVAR
  5
89
102
{ACAD_REACTORS
330
66
102
}
330
66
100
DictionaryVariables
280
     0
  1
STANDARD
  0
DICTIONARYVAR
  5
1B7
102
{ACAD_REACTORS
330
66
102
}
330
66
100
DictionaryVariables
280
     0
  1
Imperial24
  0
DICTIONARYVAR
  5
1B8
102
{ACAD_REACTORS
330
66
102
}
330
66
100
DictionaryVariables
280
     0
  1
Imperial24
  0
DICTIONARYVAR
  5
67
102
{ACAD_REACTORS
330
66
102
}
330
66
100
DictionaryVariables
280
     0
  1
2
  0
DICTIONARYVAR
  5
6B
102
{ACAD_REACTORS
330
66
102
}
330
66
100
DictionaryVariables
280
     0
  1
1
  0
DICTIONARYVAR
  5
14D
102
{ACAD_REACTORS
330
66
102
}
330
66
100
DictionaryVariables
280
     0
  1
0
  0
DICTIONARYVAR
  5
14E
102
{ACAD_REACTORS
330
66
102
}
330
66
100
DictionaryVariables
280
     0
  1
0
  0
DICTIONARY
  5
194
330
22
100
AcDbDictionary
280
     1
281
     1
  0
DICTIONARY
  5
188
330
97
100
AcDbDictionary
280
     1
281
     1
  3
FBXASSET
360
189
  0
DICTIONARY
  5
186
330
96
100
AcDbDictionary
280
     1
281
     1
  3
FBXASSET
360
187
  0
DICTIONARY
  5
110
330
98
100
AcDbDictionary
280
     1
281
     1
  3
BUMPTILE
360
112
  3
DIFFUSETILE
360
111
  3
FBXASSET
360
18A
  3
OPACITYTILE
360
113
  3
REFLECTIONTILE
360
114
  0
DICTIONARY
  5
104
330
87
100
AcDbDictionary
280
     1
281
     1
  3
ACAD_ROUNDTRIP_2008_TABLESTYLE_CELLSTYLEMAP
360
DFAB
  0
XRECORD
  5
189
102
{ACAD_REACTORS
330
188
102
}
330
188
100
AcDbXrecord
280
     1
 70
     1
 90
429727718
  1
508B35C9-AEE7-456F-BE74-D52651303AC6
310
504B03040A0000080000B670623B3DEE336E79000000790000001B0000006175746F6465736B2D64657369676E2D7061636B6167652E786D6C3C3F786D6C2076657273696F6E3D22312E302220656E636F64696E673D227574662D3822203F3E3C666F726D6174733E3C666F726D61743E687474703A2F2F736368656D612E
310
6175746F6465736B2E636F6D2F64657369676E2D7061636B6167652F323030393C2F666F726D61743E3C2F666F726D6174733E504B0304140006080800B670623BD486FD9CA0000000F4000000130000005B436F6E74656E745F54797065735D2E786D6C7D8EC10E82300C865F65E91D8A1E8C310C0EEA1BF002731658846E
310
D98AC1B77784ABF1D8FE5FBFBF75BBCE937A534CCEB38643598122B6FEE978D0B0485F9C41B54DDD7D022595594E1A469170414C76A4D9A4D207E29CF43ECE46F218070CC6BECC4078ACAA135ACF422C856C0E68EA1BF5669944DDD7BCDE7B1F8E415D77AECB980613C2E4AC91FC167A2B244592486606FC29C8FD7F045B9A
310
EF7053A7E60B504B0304140006080800B670623B28ED286BEB0000007C01000008000000636F72652E786D6C8D90416EC3201045AF82665B6183218D6D61A254764FD00B204C5C94182C03558F5F9C3852BBEB6A467FFE9B197D71FA9E6FE8CBACC17AD7012D0820E3B41FAD9B3A48F1826B40272956EFE32F1B20A766D3C1
310
268314D3EAD3B24BDABB685CCCAAF3A3D94515828980F42D371D04FD696655A814B3235C8B45E9AB9A4C419F5D8653B2237A1CB163DE672FD6AC209BF3C08E0D1B30EB19C3FC9D72FCC6EB231EFA33EDE96BDD341517E5064B11EDFCBCAF57A3A2194156843498524CAA0FCA5B7268F9E185D42D21A2DCEC7FA0B48CFF8492
310
759155FBBB0F2C80A4F991FB408A72CB22977B50B96EB9C91F504B0304140006080800B670623B55019EA25F0000007C00000007000000636E782E786D6C4DCB3B0E80201045D1AD90E915ED2CF8AC45050C11660C8261F98AB1B07AC9C97D42D718D865D3E909258CFD00CCE24AC6E326A164D74DC0B4128928FF32603847
310
2BA13128B1252AC747C6BAB984FC68F0B87FE8960A5C09FE86CFB69FBA01504B0304140006080800B670623B7BC41AC871010000D40300000C0000006662782F636F72652E786D6CC553ED6E8320147D15C2DF4501B56B6D90A64BBB27D80B50A5CE54C120983EFEAE1F4DD7A56BBA5FF3879273EEE59E7310BE393735EA95
310
ED2AA333CC428A91D2B9292A5D66D8BB63B0C26823B835C67D2BC348CB46657880B1E0A535BE9DA1DC68A7B403549B42CDA0EC3AE530CA6B5864B8CB3F552343E91D5474A7B095F949962A6421D0502778E72C0840D390E18DC5F170E664C205F7BE2A66B62A605A75AC94C522DDEEE3651AEF837817C741F2CE92E02D592D
310
83FD6ECB76EC7595A651C2C9D02CB8AB9A8BBADC2AE954814544691A3016D0E883256BBA58278B17BA5A53CAC9507ED3E4DBE2C9265F691747B3DCA9ADC382819091F8E1162272A8933DE82182932144F88C09DF060D8140C84E1EEA8B8F1340BDCA9DB1093085F157AA97B557309586747CD0EF0B4EA64E983A6E0EAEEFCE
310
889E9EF17847386AA94B30211D2C0FDE0D3AF9A4610EAD5536E8DD1969631B593F67E381C33F5157F17725E5A636F6BF1491F980C8FC7B90E13E8A2F504B0304140006080800B670623B70102A487D0000009D0000000B0000006662782F636E782E786D6C4DCCD10A83201886E15B91FFDC95A5C30335ACCDFB886521330D
310
A76397BF1A1DECE883878F57749FD5A3B74D2F17830472A901D9F088930B8B849267CC01754AA418F3DF0D5018572BE160506249B16C274D761E8BCFBB7A179E27F65CB39A0F14D396184C9921B81F34C3ACA1B4B99ABB6E6F062A25AA5F69DF23ACBE504B0304140006080800B670623B3610CA3329010000120200003100
310
00006662782F42384135303843342D343331462D343546312D424341352D3532343432364645413344462F636F72652E786D6C8D515B6EC32010BC0AE22B55850D0E446E848992B43E412FE000495162B07854397EA176A4F62F3F2C9A9D991D58BEBB8F37F0AD7D30CE76905418026DA553C65E3A98E219B510EC04F7CEC5
310
3F3408EC30EA0E16180A7EF12E4D0B249D8DDAC68C5AA7F4020E21E80881BCE54B0783FCD2E3500D296646B856D320AFC34557A4CAEDCC133C449F0380794839A138B47B86DB2345744D7A44594FD0E1B867883594369BFE63BF7EEF793D0B054FC9A8456E548E63CE46FB674D8A58F068C6477CE9F510B582A2C1F80D1182
310
70F349E816B32D65AFB8DD62CCEB42FF274A937A52948C8DEB66893BCB021484D7734370E5D2E9F608A3EF93F3119479ABA0E50B14B8C298119A43CCC4FCFCECB8A18B6388CEE7EF5D5D4F994BD86CBBA182D76543B9FCAE2FD7B24DF103504B0304140006080800B670623B1B8617914E0100003303000030000000666278
310
2F42384135303843342D343331462D343546312D424341352D3532343432364645413344462F636E782E786D6CD593C16EC32010447F0571AD6CE3D489D20813A9877E410FBD62D82434182CC055F3F75D1292E692438FBD206B7698593D61BEFD1E2DF982108D773D6D6B460938E5B571FB9ECE6957AD29D90A1EBC4F7736
310
4A9C1CA1A759A682EF839FA72269D8C9D92654AD71C72206887E0E0A22CAF926B15E498B01E0AA19451807D01A34B919F16B070157417138917400F2F6FA41FCF0092A45DEE414C19BDC21783E4BD39D891265658C3D8DEA00A3ACE59CBC8678ACB54CB26EEB6BD7839D7E9348BE70AD9C8321B9BCA7F9A4A26C542347DEE0
310
50F09802D22BA6749A800A394DD62899107273365E3C82CFC6A55557BC06C10774B7ABE7AEC3B0F34CF06446280E154026D0542C187BA9DAB6628BF7B6DBB0E5A65B3EB1F58631DE64BBE083F7B65CC218087E22CABB042E51D1F2268F1FE12B3EA24D40D63E9CFE00120194D60B9D5BC67FE6D39CDF37E20AF817881F504B
310
0304140006080800B670623BBFEF2E3B690500003C100000340000006662782F42384135303843342D343331462D343546312D424341352D3532343432364645413344462F6F626A656374732E786D6CAD575D739B3814FD2B0CFB0C98D84E931D4227B6938EA793B6534F3BFB90198F0099B001899144EAECAFDF231018B0
310
D37A3FFC609090EEE7B94757C1FB7D915B2F54C88CB31BDB7727B64559CC938CA53776A576CE956DBD0F03C1B9EA2DB32D460A7A63EB693B0C52C1ABD24C257447AA5C8D66EF177F5832A68CDA569C13296F6C193FD182B8A4523CA1F2D94D88226EBADBBBBEDB2C1C8A4D05299F46424B222853B014F30C52ACC6287F389C
310
D85E1878FA7B18E87FB36AFAF62AAFF667A83F635211161F291B8999FAB3D5DDC5FCDA99CF6653677679E13B8BFBC5CAF1DF4D27CBCBE5F2FAF6EE1A8AA51290642C117467871F101B91C581D77CEA2C36869F3229E68CD1B8F61F1ED6361B89092D294B90C78C4A68EB793D190E7D1D9BDEE7A91E1B95FDE9F3BCEAEFE809
310
6A6D6F9F7D4B79F4275C90E7A04248AA51D5C4C738DAE06F72885AC4796EBE65D22A88A22223B995679120E2D50EB1542F098381188D4EA111AE3DB043FF20AF6F2B4AE3D7D83D65E5AECA730D4D3BAC91BD05FEA992B565D95F549CD6069B90AB2A63EACA38A45E4B6A87D781574F86817E4C2FCCC72690D62E2729520E37
310
9BAF234797BAF6D62B3BFC781FED37BA1E4F2B2F052FA9501A3E80569BB8F6A9A364D4FA67654E6F803383981F82F21591FF84F23D9882BC896C3FDBCF8C162508933B2E0AE4C69DD43F6BD2BE38DDDBF10BF86CB4FA784D37F3AF16075E67EC9030DECA1FC0A55373F5DFF3378C591FA9BDF485C10B0A8C8BA909E5262639
310
A8E72163488806A595734C81CB77D1DE0ED7604A303B76913CEC0272F412782FF88EFF4636D8AA56DF7B322474C4B767303F625997056C7B032C473C592B36CEBD15F3F9FF5233B7ABCDC74D257624A60F8658567497B14CE1EC3C80B76FD02011038F9EE9EB0F2E12387A9C844D3F09855125116D1D731DF8B43D2CF4E0A0
310
79A020C6BE946BCE0B7EA1E1219331CD73C228AF5A2DDD31A4B1DA918CE91350854D40A71723140BFA92E94E62B0626016CEFA5864A50E5977E8753CEDBEE1CBB7F52780D20E17AF0BA0F5F9B02A3AD07DCC732EB6D1EBB661421BE0C39E21BABF0FE16D22EA6929407C8DE596724C88B749B6DB5512BC7B228ADFD7CB7EA6
310
3A22397E690BA8D5D8D4E40CEC8CDA23C2C0B7D5898640101CEC9C6D331CE328CB93CAFBBAC70A642DF70DF95155945B52F08AA973C23469FD69ADEF84F7BB18F983A8F8C90E37F5D35980B2139A1C523540813E824EF83448CF7C72B598CE97D7CEEDDDDD3B6736BFBC771677EF66CE6A7E7139F7A793E9EDF2B2B3A8B624
310
0CDA13AA5F8388264EC4A0129909F3B7F5A16CEDF08128E97D680ACA4B9BE7B7B58BB638F0B00700EF36AE8B32A705658A68F83EE897FC2B41573190D1CCAF0B92D233A47CFEB019D9809933F67DD1A5467F8CF69AD9A5AE859342D45355448C64F968A371DC2D596ADC6E43D93D1B466F877A64E2893E54F23C4B40388995
310
525E5005DA3983ED45412510D3EFCA13737B3863F74BD30F2A12E5B4B5E489A025CE25500DB855B11ACE5BBFA185D35DD48D8DC3CE7DC69F2944DB42AA6F6CF09BCA622ADD08C7A36E7C6AE18000BAB08E040135C2D21C9D75B3A91B77BB746C403F38018DFE6EC939DD92F16B40BC05294B9CDA035AAD6D330AE27FE4786B
310
8E45145EA34A75BE1C263A676A35A8ACC6297337400BF16C54EF515F3F77CB77EB3583889C754FFA29081AA98E2222ADEF05DA3E63D2EDEA8B8756C05A7FB6CABC4A91CBF325398202CC952E70A008A830324BA200D5E5EF8F5F04C75DB4B0EE3340E071C98B823333B83577596BF3849B69F2085AA0FAFA212F26BEFF5877
310
FDE622B28D88A42E49E43326DA82D31E8CB006401E1DA726059ECEC168F97A6599036306A135688F9AD2E61A6EA178F4CD51974A9F2CCB9F36FE5EBD14601068D9C3BF01504B0304140006080000B670623B000000000000000000000000350000006662782F42384135303843342D343331462D343546312D424341352D35
310
32343432364645413344462F76657274696365732E62696E504B0304140006080800B670623BF270F1330600000004000000360000006662782F42384135303843342D343331462D343546312D424341352D3532343432364645413344462F747269616E676C65732E62696E636660600000504B0304140006080000B67062
310
3B000000000000000000000000370000006662782F42384135303843342D343331462D343546312D424341352D3532343432364645413344462F617474726962757465732E62696E504B0304140006080800B670623B08DA0BD19000000041010000360000006662782F42384135303843342D343331462D343546312D4243
310
41352D3532343432364645413344462F6469726563746F72792E786D6C858F410AC3201045AF22B36F53E9A60B35CBEEBAE80D244E44489C6234F4F835464A48035D0DF398FF9F8AF63D0E6CC63039F212F8F9020C7D47C6792B21C5FE7403D62A1188E2E60C98D7234A5830286103A55745067B9D86B8A3CF9C7F90C11DE6
310
07FB144396D7B6A82D282E9A152AD114D5EF2CB866EEE831B8EEA07A7BB5A8D7D61A2BAAEB7FD5F70921FF497D00504B0304140006080800B670623B3B4606F3FE000000A00100003B0000006662782F42384135303843342D343331462D343546312D424341352D3532343432364645413344462F7265736F75726365732F
310
636F72652E786D6C8D504B6E833010BD0A9A6D65B08134808CA354A427E8052C332156828DFCA97AFC9A40A576D7CDCCE87D344F8F9FBEE647F689CE6B6B7A6039850C8DB2A336530F315C4903D94970676DF82583CCC8197B5861107C72362E3BA4AC096842428D1D7107A5F71820538F74F4E0D50D6799CB1892C2DFF345
310
AABB9C306779A2934E701F5C0A906D4FD609C2A1B7D129F4BCD858C163D4E3AED163FAA9AF1A1D88F67CA98E6D35906AA82A52BFB39ABCD5CD915C86331BD86BD3B665CD8BD52C78D0F34F46E550061C419494B6843142CB0F5677F4D0D58717DA7494F26295FF31C565FCA7296A13AA728FBBD93C0896823C09C18BB5AFB4
310
9E65A6BD762BBE01504B010214000A0000080000B670623B3DEE336E79000000790000001B00000000000000000000000000000000006175746F6465736B2D64657369676E2D7061636B6167652E786D6C504B01021400140006080800B670623BD486FD9CA0000000F40000001300000000000000000000000000B2000000
310
5B436F6E74656E745F54797065735D2E786D6C504B01021400140006080800B670623B28ED286BEB0000007C010000080000000000000000000000000083010000636F72652E786D6C504B01021400140006080800B670623B55019EA25F0000007C000000070000000000000000000000000094020000636E782E786D6C50
310
4B01021400140006080800B670623B7BC41AC871010000D40300000C00000000000000000000000000180300006662782F636F72652E786D6C504B01021400140006080800B670623B70102A487D0000009D0000000B00000000000000000000000000B30400006662782F636E782E786D6C504B01021400140006080800B6
310
70623B3610CA3329010000120200003100000000000000000000000000590500006662782F42384135303843342D343331462D343546312D424341352D3532343432364645413344462F636F72652E786D6C504B01021400140006080800B670623B1B8617914E010000330300003000000000000000000000000000D10600
310
006662782F42384135303843342D343331462D343546312D424341352D3532343432364645413344462F636E782E786D6C504B01021400140006080800B670623BBFEF2E3B690500003C10000034000000000000000000000000006D0800006662782F42384135303843342D343331462D343546312D424341352D35323434
310
32364645413344462F6F626A656374732E786D6C504B01021400140006080000B670623B0000000000000000000000003500000000000000000000000000280E00006662782F42384135303843342D343331462D343546312D424341352D3532343432364645413344462F76657274696365732E62696E504B010214001400
310
06080800B670623BF270F133060000000400000036000000000000000000000000007B0E00006662782F42384135303843342D343331462D343546312D424341352D3532343432364645413344462F747269616E676C65732E62696E504B01021400140006080000B670623B00000000000000000000000037000000000000
310
00000000000000D50E00006662782F42384135303843342D343331462D343546312D424341352D3532343432364645413344462F617474726962757465732E62696E504B01021400140006080800B670623B08DA0BD1900000004101000036000000000000000000000000002A0F00006662782F42384135303843342D3433
310
31462D343546312D424341352D3532343432364645413344462F6469726563746F72792E786D6C504B01021400140006080800B670623B3B4606F3FE000000A00100003B000000000000000000000000000E1000006662782F42384135303843342D343331462D343546312D424341352D3532343432364645413344462F72
310
65736F75726365732F636F72652E786D6C504B0506000000000E000E0080040000651100000000
  0
XRECORD
  5
187
102
{ACAD_REACTORS
330
186
102
}
330
186
100
AcDbXrecord
280
     1
 70
     1
 90
429727718
  1
887D55A9-D0DD-414E-B741-A7DCD4DA2B4C
310
504B03040A0000080000B670623B3DEE336E79000000790000001B0000006175746F6465736B2D64657369676E2D7061636B6167652E786D6C3C3F786D6C2076657273696F6E3D22312E302220656E636F64696E673D227574662D3822203F3E3C666F726D6174733E3C666F726D61743E687474703A2F2F736368656D612E
310
6175746F6465736B2E636F6D2F64657369676E2D7061636B6167652F323030393C2F666F726D61743E3C2F666F726D6174733E504B0304140006080800B670623BD486FD9CA0000000F4000000130000005B436F6E74656E745F54797065735D2E786D6C7D8EC10E82300C865F65E91D8A1E8C310C0EEA1BF002731658846E
310
D98AC1B77784ABF1D8FE5FBFBF75BBCE937A534CCEB38643598122B6FEE978D0B0485F9C41B54DDD7D022595594E1A469170414C76A4D9A4D207E29CF43ECE46F218070CC6BECC4078ACAA135ACF422C856C0E68EA1BF5669944DDD7BCDE7B1F8E415D77AECB980613C2E4AC91FC167A2B244592486606FC29C8FD7F045B9A
310
EF7053A7E60B504B0304140006080800B670623BBC1638F5EC0000007C01000008000000636F72652E786D6C8D90416EC3201045AF82665B61836BE2D8C24471DB9CA01740401C94182C03558F5F9C3852BBEB6A467FFE9B197D7EF89E6EE8CB2CC17AD7032D0820E394D7D68D3DA478C67B4007C117EFE32F1B202727D3C3
310
2A83E0E3E2D3BC49CABB685CCCAAF3DA6CA20CC14440EA969B1E82BA98491632C5EC08D76296EA2A4753D06797E194AC468F2356E77DF66CCD02825543D50CACC62D39ED70FDC68EB8FD68F6F8787A6784342D1DDA1D2F5758F068A7E77DB518198D065111D2624A31A93E69DD11D6D5EC85EC3B4278B9DAFF4069D6FF8492
310
75F1B5DADE7D600104CD8FDC0782976B16B9DC83CA75CD4DFC00504B0304140006080800B670623B55019EA25F0000007C00000007000000636E782E786D6C4DCB3B0E80201045D1AD90E915ED2CF8AC45050C11660C8261F98AB1B07AC9C97D42D718D865D3E909258CFD00CCE24AC6E326A164D74DC0B4128928FF326038
310
472BA13128B1252AC747C6BAB984FC68F0B87FE8960A5C09FE86CFB69FBA01504B0304140006080800B670623B3586FFB671010000D40300000C0000006662782F636F72652E786D6CC553ED6E8320147D15C2DF4541A76D6D90A6DDD627D80B50A4CE54C120983EFEAE1F4DD7A55BBA5FF3879273EEE59E7310B6393735EA
310
95ED2AA3731C851423A5A5292A5DE6D8BB63B0C268C39935C67D29C3488B46E578803167A535BE9D2169B453DA01AA4DA16650749D7218C91A1639EEE4876A4428BC838AEE14B6429E44A9C228041AEA38EB9C0501681A32BC313F1ECE8C4C3867DE57C5CC56054CAB8E95B298A7F12E5EEED224C8E87E11242FE936C8DE96
310
AB60BB7F4D295D66D12E5B30323473E6AAE6A24E5A259C2A308F29CD82280A68FC1E256B9AAE93F489AED694323294DF34F9B678B0C957DA3DC7B3DCA9ADC33C022123F1CD2D44E450277AD04338234388F01913BE0D1A0281909D38D4171F27807A259DB1093085F157AA17B557309586747CD0CF0B46A64E983A6E0EAEEF
310
CE881F9EF1FB8E70D44297604238581EBC1B74B249C31C5AAB6CD0BB33D2C636A27ECCC62F0EFF445DC5DF95244D6DEC7F2922F30191F9F720C37DE49F504B0304140006080800B670623B4220A0FF7D0000009D0000000B0000006662782F636E782E786D6C4DCCD10A83201886E15B91FFDCE542CB0335D0EC3E6259C84A
310
C3E9D8E5AF46073BFAE0E1E315DD675BD1DBA5978F41C2FD4600B9F088930F8B849267CC01754AA418F3DF0D50183727E164506249B1EC174D6E1ECB9A0F5D7D785E68DB8151CD286E5A5363CA6B8A39E90D36D40E96B086F55A43A544F52B1D7B86D517504B0304140006080800B670623B2FA3FEDE290100001202000031
310
0000006662782F45374635344235342D363743322D343832342D383044432D4334454645303536354442422F636F72652E786D6C8D515B6EC32010BC0AE22B55850D2E386E848994D7097A0117488A1283C5A3CAF10BB523B57FF961D1ECCCECC0F2ED7DBC816FED8371B687A4C210682B9D32F6D2C314CFA883602BB8772E
310
FEA141608751F7B0C050F08B77695A20E96CD43666D43AA5177008414708E42D5F7A18E4971E876A483133C2B59A06791D2EBA22556E679EE021FA1C00CC43CA09C5717D6274C7286AD7FB06D1AEA1A8C3873DDAD3E3E98859CB0EBB1DAF67A1E02919B5C88DCA71CCD968FFAC49110B1ECDF8882FBD1EA256503418BF2342
310
106E3E08DD60B6A1EC15771B8C795DE8FF4469524F8A92B1F1AD59E2CEB20005E1F5DC105CB9F4797B84D1F7C9F908CABC55D0F2050A5C61CC1AD2F27A26E6E767C7962E8E213A9FBF7775FDCC5CC266DB960A5E970DE5F2BBBE5CCB36C50F504B0304140006080800B670623B1B8617914E01000033030000300000006662
310
782F45374635344235342D363743322D343832342D383044432D4334454645303536354442422F636E782E786D6CD593C16EC32010447F0571AD6CE3D489D20813A9877E410FBD62D82434182CC055F3F75D1292E692438FBD206B7698593D61BEFD1E2DF982108D773D6D6B460938E5B571FB9ECE6957AD29D90A1EBC4F77
310
364A9C1CA1A759A682EF839FA72269D8C9D92654AD71C72206887E0E0A22CAF926B15E498B01E0AA19451807D01A34B919F16B070157417138917400F2F6FA41FCF0092A45DEE414C19BDC21783E4BD39D891265658C3D8DEA00A3ACE59CBC8678ACB54CB26EEB6BD7839D7E9348BE70AD9C8321B9BCA7F9A4A26C542347DE
310
E050F09802D22BA6749A800A394DD62899107273365E3C82CFC6A55557BC06C10774B7ABE7AEC3B0F34CF06446280E154026D0542C187BA9DAB6628BF7B6DBB0E5A65B3EB1F58631DE64BBE083F7B65CC218087E22CABB042E51D1F2268F1FE12B3EA24D40D63E9CFE00120194D60B9D5BC67FE6D39CDF37E20AF817881F50
310
4B0304140006080800B670623B29652116630500003C100000340000006662782F45374635344235342D363743322D343832342D383044432D4334454645303536354442422F6F626A656374732E786D6CAD575D739B3814FD2B0CFB0C989834C90EA1639B24E3E9A6EDD4D3CE3E64C623834CD8006224913AFDF57B040203
310
B65BEF871F0C12D2FD3CF7E8CA7FBFCB33E3957291B2E2D674ED8969D02262715A24B76625B7D6B569BC0F7CCE98EC2D338D82E4F4D654D366E0279C55A59E8AE99654991CCDDECFFF3444440B6A1A514684B83545F44C7362934AB2988A173B2692D8C97667BB76B3702836E1A47C1E092D09A78584A5982F20C5688C7287
310
C389E904BEA3BE07BEFAD7ABA6A75739B53F43FD69212429A20365233153D70BEF2E2E6FAC4BCF9B5ADEBB0BD79ADFCF43CBBD9A4E16EF168B9BD9DD0D140BC921495BC2E9D60C1E101B9E46BED37CEA2CD6861F3329624541A3DA7F7858DBAC25C6B4A4458C3CA654405BCFEBC970E8AAD8F43E4FD558ABEC4F9FE7557F47
310
4F506B7BFBEC5BCA367FC105710E2AB8A00A554D7CB4A30DFE26FBA86D18CBF4B75418399194A72433B274C3097F33032C554B027F2046A1932B842B0FCCC0DDCBEBDB8AD2F835768F59B9ADB24C41D30C6A64AF817F2A456D59FA83F2E3DA60137255A585BCD60EC9B7929AC18DEFD49381AF1ED30BFDB109A4B1CD488294
310
C3CDE6EBC8D185AABD6568061FEE37BB95AAC7E3CA4BCE4ACAA5820FA0D526AE7DAA2869B5EE5999531BE0CC20E6FBA07C41E43FA27CF7A6206F3CDD793B4F6B919C1462CB788EDCD893FA674CDA17AB7B3B7C019F8D561FAEE966FED562DFE98C1D12C6A9FC015C2A35D7FF3D7FC398F591DA4B5FE0BFA2C0189FEA50AE22
310
92817A1ED3020951A03432862970F976B33383259812CC8E5D240BBA801CBCF8CE2BBEE3BF910DB6AAD5F79E05123AE2DB33981FB1ACCB02B69D00CB014FD68AB573A7627EF9BFD4CC2C5C7D58557C4B22FAA88925A4DBB44825CECE3D78FB060D1231F0E885BE7D673C86A3874958F593906B5502D1563157814FDAC3420D
310
F69A070A22EC4B98E23CFF171A1E5311D12C23056555ABA53B8614563B92D17D02AAB009E8F46284624E5F53D5490C560CCCC2591FF1B45421EB0EBD8EA7ED13BE7C5D7E0428CD60FEF60779EB13E6664FF711CB185F6FDED60D139A001FF60CD1FD6D086F1D51474901E26B2CB794A343BC8ED3EDB612E0DD2351FCB65CF4
310
33D511C9E14B5B40ADC6A6263DB0336A8F700DDF56271A024E70B0B3629DE21847591E55DED73D56206AB927E46FAABC5C939C55853C274C93D69FD6FA4E78BF8B11DF898C9ECD60553FAD39283BA6F18984AA23E8884F83F45C5F5F859797B31B2B9C84A1E5B9DE9D35BFF25C6B76152E422F9C5DCC3D847F5801ED09D5AF
310
41441327A25FF15487F9EB725FB666F048A4701E9A827292E6F97569A32DF61DEC01C0BB8DCBBCCC684E0B49147C1FD54BF685A0AB18C868E6973949E819523E3DAC463660E68C7D9F55A9D1EFA3BD7A76A16AE1A810F95CE59B82A4D968A376DC2E8B44BBDD86B27B368CDE0ED548C7137DA860591A83706223A12CA712B4
310
7306DBF39C0A20A6DF95C7FAF670C6EED7A61F946493D1D6926782963813403548A78AE470DEF80D2D9CEAA26E4D1C76F60BFE74219A06527D6B82DF641A51616F703CAAC6A7160E08A00BEB4810A0274592A1B36E3675E36E978A0DE80727A0D6DF2D39A75BD27E0D8837276589537B40ABB56D5A41F48F1C6FCD3188C4EB
310
A6929D2FFB89CE995A4D00AE813BDD032DC48B56BD437DFDDC2DD7AED70C2272D63DE9A72068A45A92F0A4BE17A8A06B9366E16707AD80B1FC649459952097E74BB23805982B55E0401150A165964402AA8BDF9F3E7386BB686EDCA780C0D382E5392BF460A6EFB2C6EA1937D3F809B440D5F5435C4C5CF7A9EEFAF54564BD
310
2182DA24162F98680B4E7930C21A0079709CEAEB99A372305ABE0C0D7D6078105A83F6A0296DAEE1068A47DD1C55A9F4C9B2FC69E3EFD44B81028E963DF81B504B0304140006080000B670623B000000000000000000000000350000006662782F45374635344235342D363743322D343832342D383044432D433445464530
310
3536354442422F76657274696365732E62696E504B0304140006080800B670623BF270F1330600000004000000360000006662782F45374635344235342D363743322D343832342D383044432D4334454645303536354442422F747269616E676C65732E62696E636660600000504B0304140006080000B670623B00000000
310
0000000000000000370000006662782F45374635344235342D363743322D343832342D383044432D4334454645303536354442422F617474726962757465732E62696E504B0304140006080800B670623B08DA0BD19000000041010000360000006662782F45374635344235342D363743322D343832342D383044432D4334
310
454645303536354442422F6469726563746F72792E786D6C858F410AC3201045AF22B36F53E9A60B35CBEEBAE80D244E44489C6234F4F835464A48035D0DF398FF9F8AF63D0E6CC63039F212F8F9020C7D47C6792B21C5FE7403D62A1188E2E60C98D7234A5830286103A55745067B9D86B8A3CF9C7F90C11DE607FB144396
310
D7B6A82D282E9A152AD114D5EF2CB866EEE831B8EEA07A7BB5A8D7D61A2BAAEB7FD5F70921FF497D00504B0304140006080800B670623B6378F24DFF000000A00100003B0000006662782F45374635344235342D363743322D343832342D383044432D4334454645303536354442422F7265736F75726365732F636F72652E
310
786D6C8D504B6E833010BD0A9A6D65B0094E42641C85B639412F6099496225D8C89FAAC7AF09546A77DDCC8CDE47F3F4C4F16B7C149FE88371B603565228D06A37187BED20C50BD9437194C23B177FC9A0B06AC40E6618A4B87A97A615D2CE46B431A3D60DB8822A048C50E8473E3A08FA86A32A558A5911EEE5A4F45D5DB1
310
6465A6B34E8A107D0E502C4FE609D26370C96B0CA25A58295232C3AA3143FE692E063D485EF7F5AEE71BD2D2F39634AFFC44DAF7DD9E9CCE6F9CD25DCBFA762BAAD92C4534E34F46ED51451C40D694B6843142EB0FD61C283F34FC85EE0F948A6A96FF31A569F8A729191B37F51A77B105902C0779125254735F793DCBCC7B
310
EE567E03504B010214000A0000080000B670623B3DEE336E79000000790000001B00000000000000000000000000000000006175746F6465736B2D64657369676E2D7061636B6167652E786D6C504B01021400140006080800B670623BD486FD9CA0000000F40000001300000000000000000000000000B20000005B436F6E
310
74656E745F54797065735D2E786D6C504B01021400140006080800B670623BBC1638F5EC0000007C010000080000000000000000000000000083010000636F72652E786D6C504B01021400140006080800B670623B55019EA25F0000007C000000070000000000000000000000000095020000636E782E786D6C504B010214
310
00140006080800B670623B3586FFB671010000D40300000C00000000000000000000000000190300006662782F636F72652E786D6C504B01021400140006080800B670623B4220A0FF7D0000009D0000000B00000000000000000000000000B40400006662782F636E782E786D6C504B01021400140006080800B670623B2F
310
A3FEDE290100001202000031000000000000000000000000005A0500006662782F45374635344235342D363743322D343832342D383044432D4334454645303536354442422F636F72652E786D6C504B01021400140006080800B670623B1B8617914E010000330300003000000000000000000000000000D2060000666278
310
2F45374635344235342D363743322D343832342D383044432D4334454645303536354442422F636E782E786D6C504B01021400140006080800B670623B29652116630500003C10000034000000000000000000000000006E0800006662782F45374635344235342D363743322D343832342D383044432D4334454645303536
310
354442422F6F626A656374732E786D6C504B01021400140006080000B670623B0000000000000000000000003500000000000000000000000000230E00006662782F45374635344235342D363743322D343832342D383044432D4334454645303536354442422F76657274696365732E62696E504B01021400140006080800
310
B670623BF270F13306000000040000003600000000000000000000000000760E00006662782F45374635344235342D363743322D343832342D383044432D4334454645303536354442422F747269616E676C65732E62696E504B01021400140006080000B670623B0000000000000000000000003700000000000000000000
310
000000D00E00006662782F45374635344235342D363743322D343832342D383044432D4334454645303536354442422F617474726962757465732E62696E504B01021400140006080800B670623B08DA0BD190000000410100003600000000000000000000000000250F00006662782F45374635344235342D363743322D34
310
3832342D383044432D4334454645303536354442422F6469726563746F72792E786D6C504B01021400140006080800B670623B6378F24DFF000000A00100003B00000000000000000000000000091000006662782F45374635344235342D363743322D343832342D383044432D4334454645303536354442422F7265736F75
310
726365732F636F72652E786D6C504B0506000000000E000E0080040000611100000000
  0
XRECORD
  5
112
102
{ACAD_REACTORS
330
110
102
}
330
110
100
AcDbXrecord
280
     1
270
     1
271
     1
  0
XRECORD
  5
111
102
{ACAD_REACTORS
330
110
102
}
330
110
100
AcDbXrecord
280
     1
270
     1
271
     1
  0
XRECORD
  5
18A
102
{ACAD_REACTORS
330
110
102
}
330
110
100
AcDbXrecord
280
     1
 70
     0
 90
1778669749
  1
9BF507EE-FAF7-4A99-A33D-4EE51894BC40
310
504B03040A0000080000B670623B3DEE336E79000000790000001B0000006175746F6465736B2D64657369676E2D7061636B6167652E786D6C3C3F786D6C2076657273696F6E3D22312E302220656E636F64696E673D227574662D3822203F3E3C666F726D6174733E3C666F726D61743E687474703A2F2F736368656D612E
310
6175746F6465736B2E636F6D2F64657369676E2D7061636B6167652F323030393C2F666F726D61743E3C2F666F726D6174733E504B0304140006080800B670623BD486FD9CA0000000F4000000130000005B436F6E74656E745F54797065735D2E786D6C7D8EC10E82300C865F65E91D8A1E8C310C0EEA1BF002731658846E
310
D98AC1B77784ABF1D8FE5FBFBF75BBCE937A534CCEB38643598122B6FEE978D0B0485F9C41B54DDD7D022595594E1A469170414C76A4D9A4D207E29CF43ECE46F218070CC6BECC4078ACAA135ACF422C856C0E68EA1BF5669944DDD7BCDE7B1F8E415D77AECB980613C2E4AC91FC167A2B244592486606FC29C8FD7F045B9A
310
EF7053A7E60B504B0304140006080800B670623BCA089DFFEC0000007C01000008000000636F72652E786D6C8D90416E83301045AF62CDB632D8402020E32882F604BD80653BC44AB011B6AB1EBF262152BBEB6A467FFE9B197D76FA9EEFE84BAFDE38DB03CD08206DA553C64E3DC470C1474027CE56E7C22F1B202B66DDC3
310
260367D3EAE2B24BD2D9A06D48AA754AEFA2F05E0740F29E9A1EBCBCEA59642286E4F0B76C11F226269DD15797E0188D42CF2346A57DE662F40ABCAEC77628C6120F654571D50C04B7F5B9C1E3997CD4F550BE3745C3F20DE62C98F9755FAE5A04AD801784B498524C8A4F5A75E4D055873772EC0861F966FF03C545FD138A
310
C686B2D8DF7D621E384D8F3C069CE55B16A93C824A75CB8DFF00504B0304140006080800B670623B55019EA25F0000007C00000007000000636E782E786D6C4DCB3B0E80201045D1AD90E915ED2CF8AC45050C11660C8261F98AB1B07AC9C97D42D718D865D3E909258CFD00CCE24AC6E326A164D74DC0B4128928FF326038
310
472BA13128B1252AC747C6BAB984FC68F0B87FE8960A5C09FE86CFB69FBA01504B0304140006080800B670623B68FC0B7272010000D40300000C0000006662782F636F72652E786D6CC5535B6E833010BC8AE5DF0A6C1E8124328E22D29EA01770C0A128602363A31CBFCB234A53A555FA553EC09AD9F5CE8C31DB5DDA060D
310
D2F4B556190E7C8A9154852E6B5565D8D993B7C668C799D1DA7E29C3488956667884316795D1AE5BA0422B2B950554E9522EA0E87B69312A1A5864B82F3E642B7CE12C54F467BF13C55954D20F7CA0A18EB3DE1A1080E621E31BF3D3F1C2C88C73E65C5D2E6C5DC2B4FA544B8379921C36797888BC3C8A032F4E73EA6D927D
310
EA1DF6F42D49F2E8350D5346C666CE6CDD5ED515460A2B4BCC434A375E1078347C0FE22D5D6DE3D50B5D6F2965642CBF6B725DF96493AB958DC245EEDCD6631E809089F8E61622B2A81703E8219C913144F84C09DF070D8140C8561C9BAB8F3340832CAC363130A576376A108D933095FA747AD0CF0B46E64E983A6D0EAE1F
310
CE089F9EF1FB8E70D44255604258581E9D1D75B259C3125A278D37D80B52DAB4A279CEC62F0EFF44DDC43F9454E8469BFF5244960322CBEF41C6FBC83F01504B0304140006080800B670623B0F71DDB67E0000009D0000000B0000006662782F636E782E786D6C4DCCD10A83201886E15B91FFDCA54DB73F502386BB8F5816
310
32D3703976F9ABD1C18E3E78F87855FB990379BBFCF2296AE02706C4C5471A7C9C349475A408A4352AA7B4FEDD80C47E761A7606A3A69CCA72D0E0C6BE8475D3E0E3F3409428EA6B27A84079A782899AA2EC1A7AE3ECCC2FD858CB2D544655BFD2B67BD87C01504B0304140006080800B670623BE134B4FB28010000120200
310
00310000006662782F38353834323741342D343835462D343034322D383541392D4331303331363839454531452F636F72652E786D6C8D515B6EC32010BC0AE22B55850D0EA424C24451959EA0172086A42831583CAA1CBF503B52FB971F16CDCECC0EACD8DFC71BF836215AEF7A481A0C817183D7D65D7A98D3197108F652
310
04EFD31F1A044E8DA6871586525C82CFD3020DDE25E352419DD76601558C264130DCCAA58771F832A36A544E8511AFCDA486ABBA988634A55D7852C4144A00300FA927949C71DABD1D28A29C7D208A6987383B6CD13BC16BB2E1DBE3911C453B0BA5C8D9EA456E758963CFD684674DAA588A64C747FC2118958C86B2C3788B
310
0841B8FB247487D98EB257CC77188BB6D2FF89F2A49F1465EBD2BA5BE2CEB2082511EDDC9042FB7CBA3DC298FBE4430275DE2A9AE1054ADC60CC08E3A29D89E5F9C5714317C7987C28DFBBBA9E0A97B0D97643A568EB864AF95D5FA9759BF207504B0304140006080800B670623B1B8617914E010000330300003000000066
310
62782F38353834323741342D343835462D343034322D383541392D4331303331363839454531452F636E782E786D6CD593C16EC32010447F0571AD6CE3D489D20813A9877E410FBD62D82434182CC055F3F75D1292E692438FBD206B7698593D61BEFD1E2DF982108D773D6D6B460938E5B571FB9ECE6957AD29D90A1EBC4F
310
77364A9C1CA1A759A682EF839FA72269D8C9D92654AD71C72206887E0E0A22CAF926B15E498B01E0AA19451807D01A34B919F16B070157417138917400F2F6FA41FCF0092A45DEE414C19BDC21783E4BD39D891265658C3D8DEA00A3ACE59CBC8678ACB54CB26EEB6BD7839D7E9348BE70AD9C8321B9BCA7F9A4A26C542347
310
DEE050F09802D22BA6749A800A394DD62899107273365E3C82CFC6A55557BC06C10774B7ABE7AEC3B0F34CF06446280E154026D0542C187BA9DAB6628BF7B6DBB0E5A65B3EB1F58631DE64BBE083F7B65CC218087E22CABB042E51D1F2268F1FE12B3EA24D40D63E9CFE00120194D60B9D5BC67FE6D39CDF37E20AF817881F
310
504B0304140006080800B670623B5933D422630500003B100000340000006662782F38353834323741342D343835462D343034322D383541392D4331303331363839454531452F6F626A656374732E786D6CAD575B6FA33814FE2B887D0642934E9B156594264D158D3A534DD4D13E548A0C38942D60649B4EBABF7E3F8321
310
40924EF6928780CDF1B97EE762EFF32E4B8D37CA45C2F21BD3B547A641F39045491EDF98A5DC5AD7A6F1D9F73863B243661A39C9E88DA9B64DDF8B392B0BBD15D12D295339D85DDEFE618890E6D434C2940871638AF08566C426A5641115AF764424B1E3EDCE76ED9AB0CF36E6A47819302D08A7B984A6D8CFC1C5A89572FB
310
CB91E9F89EA3BEFB9EFAD754E3D3544E654F5F7E920B49F2F040D880CDD89D2CEE2E2EA7D6E56432B6269F2E5CEB7679BBB0DCABF168FE693E9FCEEEA6102C240727AD09A75BD3BF876F78127A4EFDA9D5582B7E4CA590E5390D2BFB6161A5B3E618D182E611E2985001691DAB47FDA5AB7CD3F93C566B2DB2BB7D9E55DD13
310
1D468DEECDB3AB290BFE8409E21C54704115AA6AFF68436BFC8DF65E0B184BF5B74418199194272435D224E084BF9B3E481589EFF5D828747285706581E9BB7B7E5D5D911ABFC6EE312DB7659A2A689A7E85EC0DF04FA5A8344BFEA2FCB834E8845895492EAFB541F2BDA0A63FF59C6AD3F7D4637CA13FD68E34B629891172
310
98597F1D183A57B9B75A98FE9765B05BAB7C3C2EBCE0ACA05C2AF8005A4DE09AA7F29216EB9E15397500C6F47CBE77CA7778FE2BD277AF0AE2C693DD6437D1522427B9D8329E2136F6A8FA19A3E6C56ADF0E5F50CF06D48734EDCEBF22F69C56D97EC138153F804B85E6FABFC7AFEFB32E523BE1F3BD372418E363EDCA7548
310
52949E8724474014288D94610BB57C1BEC4C7F854A89CA8E5324F55B871CBC78CE1BBEE3BFE68D6A5589EF3C730474506FCFA8FCF0659516D0ED04580EEA6425581B77CAE797FF4BCECC16EB2FEB926F49481F746159D06D922712BD730FDEAE42BD40F42C7AA5EF3F198F60E86110D6DD20645A9480B795CF95E3E3A659A8
310
C55E724F408873315335CFFB8584874484344D494E59D94869DB90C26A5B64F49C802CAC1D3ABE18A098D3B7444D123D8A9E5AE8F5214F0AE5B2B6E9B575DA3E61CBD3EA2B4009FA940524DD1305FB6A1FB294F14DF0BEA90BA109ECE1481FDC3FFAE8D60E75141700BE82725371B4873751B2DD960265F788137FACE6DD40
310
B575E4F0A5C99F46629D92131467A41EE11ABD8D4CCC039CA0AFB37C93A08B232B8F0AEFCA1E0A1015DF13FC83322B362463652ECF71D3A8B1A7D1BE65DE1D62C44F22C317D35F574FEB16153BA2D13E543D10A80E74C4A65E78A6B7CBCBD1D5DD9DB59C2DAFACC96C3AB566E3F1C29ADCDD5DBAD7D3C9ED7C822ED74F80A6
310
41755310DE4443F44A9E68373FADF6596BFA0F440AE7BECE2727AE9F4F2B1B53B1E7E00CF0DD1E5C65454A339A4BA2D0FBA05ED2EF0443458F47BDBFCA484CCFE0F2ED7E3DD0013B679C7B5499467F0ECEEADDB9CA85A34CE44B99053949D2C1416DB85DE4B136BB7165FBAC0B7AB3542BED4F8CA182A549847A1319316519
310
95A83A67147B9E5101C47487F2485F1ECE38FD568F839204296D3479219888530154036E6528FBFBC66F98E0D4107563A2D7D9AFF8D389681A08F58D89F22693900A3B407754734FC51C10C010D6D640809EE4718AC1BA3ED4AEDB53CA37283F68805A7E4B72CEB0A4EDEAD5DD8C14059A76AFAA56BA6901E13F32BC51C720
310
12AF41295B5BF61BAD3195181FB506E6B40F4C10AF5AF40EF9F5B159AE5DD1F43C72D635E94310D45C2D49785C5D0B94D3B54AB3C5A38349C0587D338AB48C11CBF339599C02CCA54A70A008A8D03C0B2201D5F9EFCF8F9CE12A9A19CB0410789EB32C63B95ECCF455D658BFE0621A3DA32C5075FB101723D77DAE867E7D0F
310
D90444509B44E2151B4DC2290B065803200FBAA9BE9D392A0603F2D5C2D00D6302A615680F66D2FA166E2079D4C551A54AB758161FCEFD4E450A14704CECFEDF504B0304140006080000B670623B000000000000000000000000350000006662782F38353834323741342D343835462D343034322D383541392D4331303331
310
363839454531452F76657274696365732E62696E504B0304140006080800B670623BF270F1330600000004000000360000006662782F38353834323741342D343835462D343034322D383541392D4331303331363839454531452F747269616E676C65732E62696E636660600000504B0304140006080000B670623B000000
310
000000000000000000370000006662782F38353834323741342D343835462D343034322D383541392D4331303331363839454531452F617474726962757465732E62696E504B0304140006080800B670623B08DA0BD19000000041010000360000006662782F38353834323741342D343835462D343034322D383541392D43
310
31303331363839454531452F6469726563746F72792E786D6C858F410AC3201045AF22B36F53E9A60B35CBEEBAE80D244E44489C6234F4F835464A48035D0DF398FF9F8AF63D0E6CC63039F212F8F9020C7D47C6792B21C5FE7403D62A1188E2E60C98D7234A5830286103A55745067B9D86B8A3CF9C7F90C11DE607FB1443
310
96D7B6A82D282E9A152AD114D5EF2CB866EEE831B8EEA07A7BB5A8D7D61A2BAAEB7FD5F70921FF497D00504B0304140006080800B670623BD9A3B367FE000000A00100003B0000006662782F38353834323741342D343835462D343034322D383541392D4331303331363839454531452F7265736F75726365732F636F7265
310
2E786D6C8D504B6E833010BD0A9A6D65B01D0201194711694FD00B586642AD043BF2A7EAF16B122AB5BB6E6646EFA3797AE2F8B5DC8A4FF4C1383B002B291468B59B8C9D0748F1420E501CA5F0CEC55F3228AC5A708015062966EFD27D83B4B3116DCCA875136EA00A012314FA968F0182FEC045952AC5AC08D7F2AEF455CD
310
58B232D3592745883E07289E4FD609D26370C96B0CA27AB252A464A64D63A6FCD35C0C7A904D73EE467EE664DCD58CD4ED4849D79C5A723ED1B7A61977AF2D6F45B59AA58866F9C9A83DAA8813484E6947182394BFB3BAA7FBBEDEBFD0434FA9A856F91F53BA4FFF342563E38E6F719FB60092E5200F428A6AED2BAF479979
310
AFDDCA6F504B010214000A0000080000B670623B3DEE336E79000000790000001B00000000000000000000000000000000006175746F6465736B2D64657369676E2D7061636B6167652E786D6C504B01021400140006080800B670623BD486FD9CA0000000F40000001300000000000000000000000000B20000005B436F6E
310
74656E745F54797065735D2E786D6C504B01021400140006080800B670623BCA089DFFEC0000007C010000080000000000000000000000000083010000636F72652E786D6C504B01021400140006080800B670623B55019EA25F0000007C000000070000000000000000000000000095020000636E782E786D6C504B010214
310
00140006080800B670623B68FC0B7272010000D40300000C00000000000000000000000000190300006662782F636F72652E786D6C504B01021400140006080800B670623B0F71DDB67E0000009D0000000B00000000000000000000000000B50400006662782F636E782E786D6C504B01021400140006080800B670623BE1
310
34B4FB280100001202000031000000000000000000000000005C0500006662782F38353834323741342D343835462D343034322D383541392D4331303331363839454531452F636F72652E786D6C504B01021400140006080800B670623B1B8617914E010000330300003000000000000000000000000000D3060000666278
310
2F38353834323741342D343835462D343034322D383541392D4331303331363839454531452F636E782E786D6C504B01021400140006080800B670623B5933D422630500003B10000034000000000000000000000000006F0800006662782F38353834323741342D343835462D343034322D383541392D4331303331363839
310
454531452F6F626A656374732E786D6C504B01021400140006080000B670623B0000000000000000000000003500000000000000000000000000240E00006662782F38353834323741342D343835462D343034322D383541392D4331303331363839454531452F76657274696365732E62696E504B01021400140006080800
310
B670623BF270F13306000000040000003600000000000000000000000000770E00006662782F38353834323741342D343835462D343034322D383541392D4331303331363839454531452F747269616E676C65732E62696E504B01021400140006080000B670623B0000000000000000000000003700000000000000000000
310
000000D10E00006662782F38353834323741342D343835462D343034322D383541392D4331303331363839454531452F617474726962757465732E62696E504B01021400140006080800B670623B08DA0BD190000000410100003600000000000000000000000000260F00006662782F38353834323741342D343835462D34
310
3034322D383541392D4331303331363839454531452F6469726563746F72792E786D6C504B01021400140006080800B670623BD9A3B367FE000000A00100003B000000000000000000000000000A1000006662782F38353834323741342D343835462D343034322D383541392D4331303331363839454531452F7265736F75
310
726365732F636F72652E786D6C504B0506000000000E000E0080040000611100000000
  0
XRECORD
  5
113
102
{ACAD_REACTORS
330
110
102
}
330
110
100
AcDbXrecord
280
     1
270
     1
271
     1
  0
XRECORD
  5
114
102
{ACAD_REACTORS
330
110
102
}
330
110
100
AcDbXrecord
280
     1
270
     1
271
     1
  0
CELLSTYLEMAP
  5
DFAB
102
{ACAD_REACTORS
330
104
102
}
330
104
100
AcDbCellStyleMap
 90
        3
300
CELLSTYLE
  1
TABLEFORMAT_BEGIN
 90
        5
170
     1
 91
        0
 92
    32768
 62
   257
 93
        1
300
CONTENTFORMAT
  1
CONTENTFORMAT_BEGIN
 90
        0
 91
        0
 92
      512
 93
        0
300

 40
0.0
140
1.0
 94
        5
 62
     0
340
11
144
0.25
309
CONTENTFORMAT_END
171
     1
301
MARGIN
  1
CELLMARGIN_BEGIN
 40
0.06
 40
0.06
 40
0.06
 40
0.06
 40
0.18
 40
0.18
309
CELLMARGIN_END
 94
        6
 95
        1
302
GRIDFORMAT
  1
GRIDFORMAT_BEGIN
 90
        0
 91
        1
 62
     0
 92
       -2
340
0
 93
        0
 40
0.045
309
GRIDFORMAT_END
 95
        2
302
GRIDFORMAT
  1
GRIDFORMAT_BEGIN
 90
        0
 91
        1
 62
     0
 92
       -2
340
0
 93
        0
 40
0.045
309
GRIDFORMAT_END
 95
        4
302
GRIDFORMAT
  1
GRIDFORMAT_BEGIN
 90
        0
 91
        1
 62
     0
 92
       -2
340
0
 93
        0
 40
0.045
309
GRIDFORMAT_END
 95
        8
302
GRIDFORMAT
  1
GRIDFORMAT_BEGIN
 90
        0
 91
        1
 62
     0
 92
       -2
340
0
 93
        0
 40
0.045
309
GRIDFORMAT_END
 95
       16
302
GRIDFORMAT
  1
GRIDFORMAT_BEGIN
 90
        0
 91
        1
 62
     0
 92
       -2
340
0
 93
        0
 40
0.045
309
GRIDFORMAT_END
 95
       32
302
GRIDFORMAT
  1
GRIDFORMAT_BEGIN
 90
        0
 91
        1
 62
     0
 92
       -2
340
0
 93
        0
 40
0.045
309
GRIDFORMAT_END
309
TABLEFORMAT_END
  1
CELLSTYLE_BEGIN
 90
        1
 91
        1
300
_TITLE
309
CELLSTYLE_END
300
CELLSTYLE
  1
TABLEFORMAT_BEGIN
 90
        5
170
     1
 91
        0
 92
        0
 62
   257
 93
        1
300
CONTENTFORMAT
  1
CONTENTFORMAT_BEGIN
 90
        0
 91
        0
 92
      512
 93
        0
300

 40
0.0
140
1.0
 94
        5
 62
     0
340
11
144
0.18
309
CONTENTFORMAT_END
171
     1
301
MARGIN
  1
CELLMARGIN_BEGIN
 40
0.06
 40
0.06
 40
0.06
 40
0.06
 40
0.18
 40
0.18
309
CELLMARGIN_END
 94
        6
 95
        1
302
GRIDFORMAT
  1
GRIDFORMAT_BEGIN
 90
        0
 91
        1
 62
     0
 92
       -2
340
0
 93
        0
 40
0.045
309
GRIDFORMAT_END
 95
        2
302
GRIDFORMAT
  1
GRIDFORMAT_BEGIN
 90
        0
 91
        1
 62
     0
 92
       -2
340
0
 93
        0
 40
0.045
309
GRIDFORMAT_END
 95
        4
302
GRIDFORMAT
  1
GRIDFORMAT_BEGIN
 90
        0
 91
        1
 62
     0
 92
       -2
340
0
 93
        0
 40
0.045
309
GRIDFORMAT_END
 95
        8
302
GRIDFORMAT
  1
GRIDFORMAT_BEGIN
 90
        0
 91
        1
 62
     0
 92
       -2
340
0
 93
        0
 40
0.045
309
GRIDFORMAT_END
 95
       16
302
GRIDFORMAT
  1
GRIDFORMAT_BEGIN
 90
        0
 91
        1
 62
     0
 92
       -2
340
0
 93
        0
 40
0.045
309
GRIDFORMAT_END
 95
       32
302
GRIDFORMAT
  1
GRIDFORMAT_BEGIN
 90
        0
 91
        1
 62
     0
 92
       -2
340
0
 93
        0
 40
0.045
309
GRIDFORMAT_END
309
TABLEFORMAT_END
  1
CELLSTYLE_BEGIN
 90
        2
 91
        1
300
_HEADER
309
CELLSTYLE_END
300
CELLSTYLE
  1
TABLEFORMAT_BEGIN
 90
        5
170
     1
 91
        0
 92
        0
 62
   257
 93
        1
300
CONTENTFORMAT
  1
CONTENTFORMAT_BEGIN
 90
        0
 91
        0
 92
      512
 93
        0
300

 40
0.0
140
1.0
 94
        2
 62
     0
340
11
144
0.18
309
CONTENTFORMAT_END
171
     1
301
MARGIN
  1
CELLMARGIN_BEGIN
 40
0.06
 40
0.06
 40
0.06
 40
0.06
 40
0.18
 40
0.18
309
CELLMARGIN_END
 94
        6
 95
        1
302
GRIDFORMAT
  1
GRIDFORMAT_BEGIN
 90
        0
 91
        1
 62
     0
 92
       -2
340
0
 93
        0
 40
0.045
309
GRIDFORMAT_END
 95
        2
302
GRIDFORMAT
  1
GRIDFORMAT_BEGIN
 90
        0
 91
        1
 62
     0
 92
       -2
340
0
 93
        0
 40
0.045
309
GRIDFORMAT_END
 95
        4
302
GRIDFORMAT
  1
GRIDFORMAT_BEGIN
 90
        0
 91
        1
 62
     0
 92
       -2
340
0
 93
        0
 40
0.045
309
GRIDFORMAT_END
 95
        8
302
GRIDFORMAT
  1
GRIDFORMAT_BEGIN
 90
        0
 91
        1
 62
     0
 92
       -2
340
0
 93
        0
 40
0.045
309
GRIDFORMAT_END
 95
       16
302
GRIDFORMAT
  1
GRIDFORMAT_BEGIN
 90
        0
 91
        1
 62
     0
 92
       -2
340
0
 93
        0
 40
0.045
309
GRIDFORMAT_END
 95
       32
302
GRIDFORMAT
  1
GRIDFORMAT_BEGIN
 90
        0
 91
        1
 62
     0
 92
       -2
340
0
 93
        0
 40
0.045
309
GRIDFORMAT_END
309
TABLEFORMAT_END
  1
CELLSTYLE_BEGIN
 90
        3
 91
        2
300
_DATA
309
CELLSTYLE_END
  0
ENDSEC
  0
SECTION
  2
ACDSDATA
 70
     2
 71
     8
  0
ACDSSCHEMA
 90
        0
  1
AcDb_Thumbnail_Schema
  2
AcDbDs::ID
280
    10
 91
        8
  2
Thumbnail_Data
280
    15
 91
        0
101
ACDSRECORD
 95
        0
 90
        1
  2
AcDbDs::TreatedAsObjectData
280
     1
291
     1
101
ACDSRECORD
 95
        0
 90
        2
  2
AcDbDs::Legacy
280
     1
291
     1
101
ACDSRECORD
  1
AcDbDs::ID
 90
        3
  2
AcDs:Indexable
280
     1
291
     1
101
ACDSRECORD
  1
AcDbDs::ID
 90
        4
  2
AcDbDs::HandleAttribute
280
     7
282
     1
  0
ACDSSCHEMA
 90
        1
  1
AcDbDs::TreatedAsObjectDataSchema
  2
AcDbDs::TreatedAsObjectData
280
     1
 91
        0
  0
ACDSSCHEMA
 90
        2
  1
AcDbDs::LegacySchema
  2
AcDbDs::Legacy
280
     1
 91
        0
  0
ACDSSCHEMA
 90
        3
  1
AcDbDs::IndexedPropertySchema
  2
AcDs:Indexable
280
     1
 91
        0
  0
ACDSSCHEMA
 90
        4
  1
AcDbDs::HandleAttributeSchema
  2
AcDbDs::HandleAttribute
280
     7
 91
        1
284
     1
  0
ACDSRECORD
 90
        0
  2
AcDbDs::ID
280
    10
320
22
  2
Thumbnail_Data
280
    15
 94
     1803
310
89504E470D0A1A0A0000000D49484452000001000000006D080300000079B14F6400000300504C5445212830FFFFFF2128300000000000000000000000000000000000000000000000000000330000660000990000CC0000FF0033000033330033660033990033CC0033FF0066000066330066660066990066CC0066FF0099
310
000099330099660099990099CC0099FF00CC0000CC3300CC6600CC9900CCCC00CCFF00FF0000FF3300FF6600FF9900FFCC00FFFF3300003300333300663300993300CC3300FF3333003333333333663333993333CC3333FF3366003366333366663366993366CC3366FF3399003399333399663399993399CC3399FF33CC00
310
33CC3333CC6633CC9933CCCC33CCFF33FF0033FF3333FF6633FF9933FFCC33FFFF6600006600336600666600996600CC6600FF6633006633336633666633996633CC6633FF6666006666336666666666996666CC6666FF6699006699336699666699996699CC6699FF66CC0066CC3366CC6666CC9966CCCC66CCFF66FF0066
310
FF3366FF6666FF9966FFCC66FFFF9900009900339900669900999900CC9900FF9933009933339933669933999933CC9933FF9966009966339966669966999966CC9966FF9999009999339999669999999999CC9999FF99CC0099CC3399CC6699CC9999CCCC99CCFF99FF0099FF3399FF6699FF9999FFCC99FFFFCC0000CC00
310
33CC0066CC0099CC00CCCC00FFCC3300CC3333CC3366CC3399CC33CCCC33FFCC6600CC6633CC6666CC6699CC66CCCC66FFCC9900CC9933CC9966CC9999CC99CCCC99FFCCCC00CCCC33CCCC66CCCC99CCCCCCCCCCFFCCFF00CCFF33CCFF66CCFF99CCFFCCCCFFFFFF0000FF0033FF0066FF0099FF00CCFF00FFFF3300FF3333
310
FF3366FF3399FF33CCFF33FFFF6600FF6633FF6666FF6699FF66CCFF66FFFF9900FF9933FF9966FF9999FF99CCFF99FFFFCC00FFCC33FFCC66FFCC99FFCCCCFFCCFFFFFF00FFFF33FFFF66FFFF99FFFFCCFFFFFF0000000D0D0D1A1A1A2828283535354343435050505D5D5D6B6B6B787878868686939393A1A1A1AEAEAEBB
310
BBBBC9C9C9D6D6D6E4E4E4F1F1F1FFFFFF0000000000000000000000000000000000000000000000000000000000002E4550F1000003C64944415478DAED9DD96EE3300C45F9FFFF7BDE6730D96C898BEC6600916C9ED21A29CAE3CBD59222F2FBDAE605DDCD87C60C1EA6FF85D05DFE5D3580F2AEFA2DC700D043030CA672
310
BC44178F3F98DA4C01B3DDF40A0278B1AF8102F0635F4F000702F4B15F7F5BDE0774006A402CDFF4D1B11CB6001CC360E562C0AE80071A3410801FFAE92081C7BDD66F7751115C318BE6F657047051D59473FFAB6E4D35FBAF3A05B5ECB782828DA05222C034D11982D5B75FF0EDA4BE077401E0D8DF230AEA779AC8488AD9
310
8F96021B01806B11A00E8097A174758157ACD301940F821FA563870662FBC9EE00F334E460BF3E14B9DD4A6FE90093D83916031100D20E0A3FA6EB001ED1614901E4F6002CFB220060A591641E6002304CFBE8E65FD39875F1049600247C22CC59054925B00280C8FE0F01FA28604C1CC901B851DE24C0BC7E8A9400F02B3D
310
F3F2F9097A0E0028E9DE71F22008A45380F2AC8FBB0A18019003C05CC2B961CE4D849CD3400200287EC0C2D89BB010780F9048E1FDB0B4F8F15A22DC5E0067007245022B0A88FED866009646192B00128D45CCF59E7013C06B6490662E642DFA819B0A98E708BB67C1EF02502649BB1782E8FFE67D00ACC693AD7C80450012
310
2E91C698A3ED5E0962EE0AD2D74A629ABC8A72BF4C00C66A700200BE8D64B15F44DF0A5315C063B039F681CA62588C55F2D614200900CC35AF0C911C35209C4B28AFF6DB1780D9F43346033C05240630076CE2F6861000597A817912F49C6477012073D1F6F4FEA37B605405580DE058166C9D06D1FCF5C9E55B0072B402CA
310
4F7701484500CA30106B025052010A011B806406C06500CAF58CE300BB073424EF5EEF0EA0460C300D1C9C5E0350520163DE33AF5775012BF12B00122BC0CDF77AF5AF01909200CEBFC2E98FF302E02700D407CDE900C8570024B2FF42101C6A1D9600500B80268100805402A096BBC500F00300C7C5E469ECFF05805FF1DF
310
0220F900A0B4F5787912374BA48B01EF0139EEFDD4EADD28E2A548837C96345E07206ED2872402B0173719C767094125990B802C02983B9E0A0A38F4F7EB3140052011BF5D43801C0E4E75B2BA961D6D0064D000C32651220078517ED82C91E1B8BDC36DC769FD1C02560C383C78DD79FFE477018C1F4F2001CEA940ED05EE
310
01305AE63D93C0A88353A60F5691289BA464E4B9AF02986E53BCE589F071EA9404F7B67FD0E9D40DE196F7B80076DF33A400984E0DD58A3BE281122EC26DEC67CAF7D3261AD4CF41E40FE629147B01C001E09D80F05E4F66F68A0CC5C0E610E4BD8112D65A19D4230618AAC054674870079EB6D184D6DF4004EDED97DEDF40
310
F59F5F7F00680ABEB6366C4CD50000000049454E44AE426082
  0
ENDSEC
  0
EOF
