  0
SECTION
  2
HEADER
  9
$ACADVER
  1
AC1032
  9
$ACADMAINTVER
 90
      197
  9
$DWGCODEPAGE
  3
ANSI_1252
  9
$LASTSAVEDBY
  1
gregb
  9
$REQUIREDVERSIONS
160
                 0
  9
$INSBASE
 10
0.0
 20
0.0
 30
0.0
  9
$EXTMIN
 10
10618.30855670312
 20
30026.16542749659
 30
0.0
  9
$EXTMAX
 10
10822.64434017501
 20
30189.97594692107
 30
0.0
  9
$LIMMIN
 10
0.0
 20
0.0
  9
$LIMMAX
 10
12.0
 20
9.0
  9
$ORTHOMODE
 70
     1
  9
$REGENMODE
 70
     1
  9
$FILLMODE
 70
     1
  9
$QTEXTMODE
 70
     0
  9
$MIRRTEXT
 70
     0
  9
$LTSCALE
 40
1.0
  9
$ATTMODE
 70
     1
  9
$TEXTSIZE
 40
0.2
  9
$TRACEWID
 40
0.05
  9
$TEXTSTYLE
  7
Standard
  9
$CLAYER
  8
freecads.com
  9
$CELTYPE
  6
ByLayer
  9
$CECOLOR
 62
   256
  9
$CELTSCALE
 40
1.0
  9
$DISPSILH
 70
     1
  9
$DIMSCALE
 40
1.0
  9
$DIMASZ
 40
0.18
  9
$DIMEXO
 40
0.0625
  9
$DIMDLI
 40
0.38
  9
$DIMRND
 40
0.0
  9
$DIMDLE
 40
0.0
  9
$DIMEXE
 40
0.18
  9
$DIMTP
 40
0.0
  9
$DIMTM
 40
0.0
  9
$DIMTXT
 40
0.18
  9
$DIMCEN
 40
0.09
  9
$DIMTSZ
 40
0.0
  9
$DIMTOL
 70
     0
  9
$DIMLIM
 70
     0
  9
$DIMTIH
 70
     1
  9
$DIMTOH
 70
     1
  9
$DIMSE1
 70
     0
  9
$DIMSE2
 70
     0
  9
$DIMTAD
 70
     0
  9
$DIMZIN
 70
     0
  9
$DIMBLK
  1

  9
$DIMASO
 70
     1
  9
$DIMSHO
 70
     1
  9
$DIMPOST
  1

  9
$DIMAPOST
  1

  9
$DIMALT
 70
     0
  9
$DIMALTD
 70
     2
  9
$DIMALTF
 40
25.4
  9
$DIMLFAC
 40
1.0
  9
$DIMTOFL
 70
     0
  9
$DIMTVP
 40
0.0
  9
$DIMTIX
 70
     0
  9
$DIMSOXD
 70
     0
  9
$DIMSAH
 70
     0
  9
$DIMBLK1
  1

  9
$DIMBLK2
  1

  9
$DIMSTYLE
  2
Standard
  9
$DIMCLRD
 70
     0
  9
$DIMCLRE
 70
     0
  9
$DIMCLRT
 70
     0
  9
$DIMTFAC
 40
1.0
  9
$DIMGAP
 40
0.09
  9
$DIMJUST
 70
     0
  9
$DIMSD1
 70
     0
  9
$DIMSD2
 70
     0
  9
$DIMTOLJ
 70
     1
  9
$DIMTZIN
 70
     0
  9
$DIMALTZ
 70
     0
  9
$DIMALTTZ
 70
     0
  9
$DIMUPT
 70
     0
  9
$DIMDEC
 70
     4
  9
$DIMTDEC
 70
     4
  9
$DIMALTU
 70
     2
  9
$DIMALTTD
 70
     2
  9
$DIMTXSTY
  7
Standard
  9
$DIMAUNIT
 70
     0
  9
$DIMADEC
 70
     0
  9
$DIMALTRND
 40
0.0
  9
$DIMAZIN
 70
     0
  9
$DIMDSEP
 70
    46
  9
$DIMATFIT
 70
     3
  9
$DIMFRAC
 70
     0
  9
$DIMLDRBLK
  1

  9
$DIMLUNIT
 70
     2
  9
$DIMLWD
 70
    -2
  9
$DIMLWE
 70
    -2
  9
$DIMTMOVE
 70
     0
  9
$DIMFXL
 40
1.0
  9
$DIMFXLON
 70
     0
  9
$DIMJOGANG
 40
0.7853981633974483
  9
$DIMTFILL
 70
     0
  9
$DIMTFILLCLR
 70
     0
  9
$DIMARCSYM
 70
     0
  9
$DIMLTYPE
  6

  9
$DIMLTEX1
  6

  9
$DIMLTEX2
  6

  9
$DIMTXTDIRECTION
 70
     0
  9
$LUNITS
 70
     2
  9
$LUPREC
 70
     4
  9
$SKETCHINC
 40
0.1
  9
$FILLETRAD
 40
0.0
  9
$AUNITS
 70
     0
  9
$AUPREC
 70
     0
  9
$MENU
  1
.
  9
$ELEVATION
 40
0.0
  9
$PELEVATION
 40
0.0
  9
$THICKNESS
 40
0.0
  9
$LIMCHECK
 70
     0
  9
$CHAMFERA
 40
0.0
  9
$CHAMFERB
 40
0.0
  9
$CHAMFERC
 40
0.0
  9
$CHAMFERD
 40
0.0
  9
$SKPOLY
 70
     0
  9
$TDCREATE
 40
2458157.371250000
  9
$TDUCREATE
 40
2458157.287916667
  9
$TDUPDATE
 40
2461016.545312500
  9
$TDUUPDATE
 40
2461016.461979167
  9
$TDINDWG
 40
0.1085185185
  9
$TDUSRTIMER
 40
0.1085185185
  9
$USRTIMER
 70
     1
  9
$ANGBASE
 50
0.0
  9
$ANGDIR
 70
     0
  9
$PDMODE
 70
     0
  9
$PDSIZE
 40
0.0
  9
$PLINEWID
 40
0.0
  9
$SPLFRAME
 70
     0
  9
$SPLINETYPE
 70
     6
  9
$SPLINESEGS
 70
     8
  9
$HANDSEED
  5
BB85
  9
$SURFTAB1
 70
     6
  9
$SURFTAB2
 70
     6
  9
$SURFTYPE
 70
     6
  9
$SURFU
 70
     6
  9
$SURFV
 70
     6
  9
$UCSBASE
  2

  9
$UCSNAME
  2

  9
$UCSORG
 10
0.0
 20
0.0
 30
0.0
  9
$UCSXDIR
 10
1.0
 20
0.0
 30
0.0
  9
$UCSYDIR
 10
0.0
 20
1.0
 30
0.0
  9
$UCSORTHOREF
  2

  9
$UCSORTHOVIEW
 70
     0
  9
$UCSORGTOP
 10
0.0
 20
0.0
 30
0.0
  9
$UCSORGBOTTOM
 10
0.0
 20
0.0
 30
0.0
  9
$UCSORGLEFT
 10
0.0
 20
0.0
 30
0.0
  9
$UCSORGRIGHT
 10
0.0
 20
0.0
 30
0.0
  9
$UCSORGFRONT
 10
0.0
 20
0.0
 30
0.0
  9
$UCSORGBACK
 10
0.0
 20
0.0
 30
0.0
  9
$PUCSBASE
  2

  9
$PUCSNAME
  2

  9
$PUCSORG
 10
0.0
 20
0.0
 30
0.0
  9
$PUCSXDIR
 10
1.0
 20
0.0
 30
0.0
  9
$PUCSYDIR
 10
0.0
 20
1.0
 30
0.0
  9
$PUCSORTHOREF
  2

  9
$PUCSORTHOVIEW
 70
     0
  9
$PUCSORGTOP
 10
0.0
 20
0.0
 30
0.0
  9
$PUCSORGBOTTOM
 10
0.0
 20
0.0
 30
0.0
  9
$PUCSORGLEFT
 10
0.0
 20
0.0
 30
0.0
  9
$PUCSORGRIGHT
 10
0.0
 20
0.0
 30
0.0
  9
$PUCSORGFRONT
 10
0.0
 20
0.0
 30
0.0
  9
$PUCSORGBACK
 10
0.0
 20
0.0
 30
0.0
  9
$USERI1
 70
     0
  9
$USERI2
 70
     0
  9
$USERI3
 70
     0
  9
$USERI4
 70
     0
  9
$USERI5
 70
     0
  9
$USERR1
 40
0.0
  9
$USERR2
 40
0.0
  9
$USERR3
 40
0.0
  9
$USERR4
 40
0.0
  9
$USERR5
 40
0.0
  9
$WORLDVIEW
 70
     1
  9
$SHADEDGE
 70
     3
  9
$SHADEDIF
 70
    70
  9
$TILEMODE
 70
     1
  9
$MAXACTVP
 70
    64
  9
$PINSBASE
 10
0.0
 20
0.0
 30
0.0
  9
$PLIMCHECK
 70
     0
  9
$PEXTMIN
 10
0.0
 20
0.0
 30
0.0
  9
$PEXTMAX
 10
0.0
 20
0.0
 30
0.0
  9
$PLIMMIN
 10
0.0
 20
0.0
  9
$PLIMMAX
 10
12.0
 20
9.0
  9
$UNITMODE
 70
     0
  9
$VISRETAIN
 70
     1
  9
$PLINEGEN
 70
     0
  9
$PSLTSCALE
 70
     1
  9
$TREEDEPTH
 70
  3020
  9
$CMLSTYLE
  2
Standard
  9
$CMLJUST
 70
     0
  9
$CMLSCALE
 40
1.0
  9
$PROXYGRAPHICS
 70
     1
  9
$MEASUREMENT
 70
     0
  9
$CELWEIGHT
370
    -1
  9
$ENDCAPS
280
     0
  9
$JOINSTYLE
280
     0
  9
$LWDISPLAY
290
     0
  9
$INSUNITS
 70
     1
  9
$HYPERLINKBASE
  1

  9
$STYLESHEET
  1
monochrome.ctb
  9
$XEDIT
290
     1
  9
$CEPSNTYPE
380
     0
  9
$PSTYLEMODE
290
     1
  9
$FINGERPRINTGUID
  2
{358EB121-6EE0-9143-8A3E-6E8E8869FDA6}
  9
$VERSIONGUID
  2
{5D080B58-5CEE-CE49-988F-571768E573CA}
  9
$EXTNAMES
290
     1
  9
$PSVPSCALE
 40
0.0
  9
$OLESTARTUP
290
     0
  9
$SORTENTS
280
   127
  9
$INDEXCTL
280
     0
  9
$HIDETEXT
280
     1
  9
$XCLIPFRAME
280
     2
  9
$HALOGAP
280
     0
  9
$OBSCOLOR
 70
   257
  9
$OBSLTYPE
280
     0
  9
$INTERSECTIONDISPLAY
280
     0
  9
$INTERSECTIONCOLOR
 70
   257
  9
$DIMASSOC
280
     2
  9
$PROJECTNAME
  1

  9
$CAMERADISPLAY
290
     0
  9
$LENSLENGTH
 40
50.0
  9
$CAMERAHEIGHT
 40
0.0
  9
$STEPSPERSEC
 40
2.0
  9
$STEPSIZE
 40
6.0
  9
$3DDWFPREC
 40
2.0
  9
$PSOLWIDTH
 40
0.25
  9
$PSOLHEIGHT
 40
4.0
  9
$LOFTANG1
 40
1.570796326794896
  9
$LOFTANG2
 40
1.570796326794896
  9
$LOFTMAG1
 40
0.0
  9
$LOFTMAG2
 40
0.0
  9
$LOFTPARAM
 70
     7
  9
$LOFTNORMALS
280
     1
  9
$LATITUDE
 40
37.795
  9
$LONGITUDE
 40
-122.394
  9
$NORTHDIRECTION
 40
0.0
  9
$TIMEZONE
 70
 -8000
  9
$LIGHTGLYPHDISPLAY
280
     1
  9
$TILEMODELIGHTSYNCH
280
     1
  9
$CMATERIAL
347
96
  9
$SOLIDHIST
280
     0
  9
$SHOWHIST
280
     1
  9
$DWFFRAME
280
     2
  9
$DGNFRAME
280
     0
  9
$REALWORLDSCALE
290
     1
  9
$INTERFERECOLOR
 62
     1
  9
$INTERFEREOBJVS
345
A3
  9
$INTERFEREVPVS
346
A0
  9
$CSHADOW
280
     0
  9
$SHADOWPLANELOCATION
 40
0.0
  0
ENDSEC
  0
SECTION
  2
CLASSES
  0
CLASS
  1
ACDBDICTIONARYWDFLT
  2
AcDbDictionaryWithDefault
  3
ObjectDBX Classes
 90
        0
 91
        1
280
     0
281
     0
  0
CLASS
  1
DICTIONARYVAR
  2
AcDbDictionaryVar
  3
ObjectDBX Classes
 90
        0
 91
        9
280
     0
281
     0
  0
CLASS
  1
TABLESTYLE
  2
AcDbTableStyle
  3
ObjectDBX Classes
 90
     4095
 91
        1
280
     0
281
     0
  0
CLASS
  1
MATERIAL
  2
AcDbMaterial
  3
ObjectDBX Classes
 90
     1153
 91
        3
280
     0
281
     0
  0
CLASS
  1
VISUALSTYLE
  2
AcDbVisualStyle
  3
ObjectDBX Classes
 90
     4095
 91
       25
280
     0
281
     0
  0
CLASS
  1
SCALE
  2
AcDbScale
  3
ObjectDBX Classes
 90
     1153
 91
       35
280
     0
281
     0
  0
CLASS
  1
MLEADERSTYLE
  2
AcDbMLeaderStyle
  3
ACDB_MLEADERSTYLE_CLASS
 90
     4095
 91
        1
280
     0
281
     0
  0
CLASS
  1
CELLSTYLEMAP
  2
AcDbCellStyleMap
  3
ObjectDBX Classes
 90
     1152
 91
        1
280
     0
281
     0
  0
CLASS
  1
EXACXREFPANELOBJECT
  2
ExAcXREFPanelObject
  3
EXAC_ESW
 90
     1025
 91
        0
280
     0
281
     0
  0
CLASS
  1
NPOCOLLECTION
  2
AcDbImpNonPersistentObjectsCollection
  3
ObjectDBX Classes
 90
     1153
 91
        0
280
     0
281
     0
  0
CLASS
  1
LAYER_INDEX
  2
AcDbLayerIndex
  3
ObjectDBX Classes
 90
        0
 91
        0
280
     0
281
     0
  0
CLASS
  1
SPATIAL_INDEX
  2
AcDbSpatialIndex
  3
ObjectDBX Classes
 90
        0
 91
        0
280
     0
281
     0
  0
CLASS
  1
IDBUFFER
  2
AcDbIdBuffer
  3
ObjectDBX Classes
 90
        0
 91
        0
280
     0
281
     0
  0
CLASS
  1
ACDBSECTIONVIEWSTYLE
  2
AcDbSectionViewStyle
  3
ObjectDBX Classes
 90
     1025
 91
        2
280
     0
281
     0
  0
CLASS
  1
ACDBDETAILVIEWSTYLE
  2
AcDbDetailViewStyle
  3
ObjectDBX Classes
 90
     1025
 91
        2
280
     0
281
     0
  0
CLASS
  1
SORTENTSTABLE
  2
AcDbSortentsTable
  3
ObjectDBX Classes
 90
        0
 91
        1
280
     0
281
     0
  0
CLASS
  1
SPATIAL_FILTER
  2
AcDbSpatialFilter
  3
ObjectDBX Classes
 90
        0
 91
        0
280
     0
281
     0
  0
CLASS
  1
SOLID_BACKGROUND
  2
AcDbSolidBackground
  3
SCENEOE
 90
     4095
 91
        0
280
     0
281
     0
  0
ENDSEC
  0
SECTION
  2
TABLES
  0
TABLE
  2
VPORT
  5
8
330
0
100
AcDbSymbolTable
 70
     1
  0
VPORT
  5
94
330
8
100
AcDbSymbolTableRecord
100
AcDbViewportTableRecord
  2
*Active
 70
     0
 10
0.0
 20
0.0
 11
1.0
 21
1.0
 12
10720.20535346006
 22
30121.62136325133
 13
0.0
 23
0.0
 14
0.5
 24
0.5
 15
0.5
 25
0.5
 16
0.0
 26
0.0
 36
1.0
 17
0.0
 27
0.0
 37
0.0
 40
185.9954529007297
 41
2.066284779050736
 42
50.0
 43
0.0
 44
0.0
 50
0.0
 51
0.0
 71
     0
 72
  1000
 73
     1
 74
     3
 75
     0
 76
     0
 77
     0
 78
     0
281
     0
 65
     1
110
0.0
120
0.0
130
0.0
111
1.0
121
0.0
131
0.0
112
0.0
122
1.0
132
0.0
 79
     0
146
0.0
348
9F
 60
     3
 61
     5
292
     1
282
     1
141
0.0
142
0.0
 63
   250
421
  3355443
1001
ACAD_NAV_VCDISPLAY
1070
     3
  0
ENDTAB
  0
TABLE
  2
LTYPE
  5
5
330
0
100
AcDbSymbolTable
 70
     1
  0
LTYPE
  5
14
330
5
100
AcDbSymbolTableRecord
100
AcDbLinetypeTableRecord
  2
ByBlock
 70
     0
  3

 72
    65
 73
     0
 40
0.0
  0
LTYPE
  5
15
330
5
100
AcDbSymbolTableRecord
100
AcDbLinetypeTableRecord
  2
ByLayer
 70
     0
  3

 72
    65
 73
     0
 40
0.0
  0
LTYPE
  5
16
330
5
100
AcDbSymbolTableRecord
100
AcDbLinetypeTableRecord
  2
Continuous
 70
     0
  3
Solid line
 72
    65
 73
     0
 40
0.0
  0
ENDTAB
  0
TABLE
  2
LAYER
  5
2
102
{ACAD_XDICTIONARY
360
18E
102
}
330
0
100
AcDbSymbolTable
 70
     2
  0
LAYER
  5
10
102
{ACAD_XDICTIONARY
360
E6
102
}
330
2
100
AcDbSymbolTableRecord
100
AcDbLayerTableRecord
  2
0
 70
     0
 62
     7
  6
Continuous
370
    -3
390
F
347
98
348
0
  0
LAYER
  5
204
330
2
100
AcDbSymbolTableRecord
100
AcDbLayerTableRecord
  2
freecads.com
 70
     0
 62
     7
  6
Continuous
370
    -3
390
F
347
98
348
0
1001
AcAecLayerStandard
1000

1000

1001
AcCmTransparency
1071
        0
  0
ENDTAB
  0
TABLE
  2
STYLE
  5
3
330
0
100
AcDbSymbolTable
 70
     1
  0
STYLE
  5
11
330
3
100
AcDbSymbolTableRecord
100
AcDbTextStyleTableRecord
  2
Standard
 70
     0
 40
0.0
 41
1.0
 50
0.0
 71
     0
 42
0.2
  3
arial.ttf
  4

1001
ACAD
1000
Arial
1071
       34
  0
ENDTAB
  0
TABLE
  2
VIEW
  5
6
330
0
100
AcDbSymbolTable
 70
     0
  0
ENDTAB
  0
TABLE
  2
UCS
  5
7
330
0
100
AcDbSymbolTable
 70
     0
  0
ENDTAB
  0
TABLE
  2
APPID
  5
9
330
0
100
AcDbSymbolTable
 70
    23
  0
APPID
  5
12
330
9
100
AcDbSymbolTableRecord
100
AcDbRegAppTableRecord
  2
ACAD
 70
     0
  0
APPID
  5
DD
330
9
100
AcDbSymbolTableRecord
100
AcDbRegAppTableRecord
  2
AcadAnnoPO
 70
     0
  0
APPID
  5
DE
330
9
100
AcDbSymbolTableRecord
100
AcDbRegAppTableRecord
  2
AcadAnnotative
 70
     0
  0
APPID
  5
DF
330
9
100
AcDbSymbolTableRecord
100
AcDbRegAppTableRecord
  2
ACAD_DSTYLE_DIMJAG
 70
     0
  0
APPID
  5
E0
330
9
100
AcDbSymbolTableRecord
100
AcDbRegAppTableRecord
  2
ACAD_DSTYLE_DIMTALN
 70
     0
  0
APPID
  5
107
330
9
100
AcDbSymbolTableRecord
100
AcDbRegAppTableRecord
  2
ACAD_MLEADERVER
 70
     0
  0
APPID
  5
1A6
330
9
100
AcDbSymbolTableRecord
100
AcDbRegAppTableRecord
  2
ACAD_NAV_VCDISPLAY
 70
     0
  0
APPID
  5
205
330
9
100
AcDbSymbolTableRecord
100
AcDbRegAppTableRecord
  2
AcAecLayerStandard
 70
     0
  0
APPID
  5
206
330
9
100
AcDbSymbolTableRecord
100
AcDbRegAppTableRecord
  2
AcCmTransparency
 70
     0
  0
APPID
  5
222
330
9
100
AcDbSymbolTableRecord
100
AcDbRegAppTableRecord
  2
ACAD_PSEXT
 70
     0
  0
APPID
  5
2DA
330
9
100
AcDbSymbolTableRecord
100
AcDbRegAppTableRecord
  2
GradientColor1ACI
 70
     0
  0
APPID
  5
2DB
330
9
100
AcDbSymbolTableRecord
100
AcDbRegAppTableRecord
  2
GradientColor2ACI
 70
     0
  0
APPID
  5
2F3
330
9
100
AcDbSymbolTableRecord
100
AcDbRegAppTableRecord
  2
ACAD_EXEMPT_FROM_CAD_STANDARDS
 70
     0
  0
APPID
  5
A1A
330
9
100
AcDbSymbolTableRecord
100
AcDbRegAppTableRecord
  2
AcDbBlockRepETag
 70
     0
  0
APPID
  5
228C
330
9
100
AcDbSymbolTableRecord
100
AcDbRegAppTableRecord
  2
RAK
 70
     0
  0
APPID
  5
2683
330
9
100
AcDbSymbolTableRecord
100
AcDbRegAppTableRecord
  2
ACAD_DSTYLE_DIMJOGGED_JOGANGLE_SYMBOL
 70
     0
  0
APPID
  5
47CF
330
9
100
AcDbSymbolTableRecord
100
AcDbRegAppTableRecord
  2
ACAD_DSTYLE_DIMBREAK
 70
     0
  0
APPID
  5
47D0
330
9
100
AcDbSymbolTableRecord
100
AcDbRegAppTableRecord
  2
AcDbDynamicBlockGUID
 70
     0
  0
APPID
  5
8BD5
330
9
100
AcDbSymbolTableRecord
100
AcDbRegAppTableRecord
  2
AcLayerTools
 70
     0
  0
APPID
  5
92D9
330
9
100
AcDbSymbolTableRecord
100
AcDbRegAppTableRecord
  2
AutoGrph01
 70
     0
  0
APPID
  5
92DA
330
9
100
AcDbSymbolTableRecord
100
AcDbRegAppTableRecord
  2
AutoGrphVars
 70
     0
  0
APPID
  5
92DB
330
9
100
AcDbSymbolTableRecord
100
AcDbRegAppTableRecord
  2
AutoGrphZ
 70
     0
  0
APPID
  5
92DC
330
9
100
AcDbSymbolTableRecord
100
AcDbRegAppTableRecord
  2
AutoGrph05
 70
     0
  0
ENDTAB
  0
TABLE
  2
DIMSTYLE
  5
A
330
0
100
AcDbSymbolTable
 70
     1
100
AcDbDimStyleTable
 71
     1
340
27
  0
DIMSTYLE
105
27
330
A
100
AcDbSymbolTableRecord
100
AcDbDimStyleTableRecord
  2
Standard
 70
     0
340
11
  0
ENDTAB
  0
TABLE
  2
BLOCK_RECORD
  5
1
330
0
100
AcDbSymbolTable
 70
     1
  0
BLOCK_RECORD
  5
1F
102
{ACAD_XDICTIONARY
360
15D
102
}
330
1
100
AcDbSymbolTableRecord
100
AcDbBlockTableRecord
  2
*Model_Space
340
22
 70
     0
280
     1
281
     0
  0
BLOCK_RECORD
  5
58
330
1
100
AcDbSymbolTableRecord
100
AcDbBlockTableRecord
  2
*Paper_Space
340
59
 70
     0
280
     1
281
     0
  0
BLOCK_RECORD
  5
5D
330
1
100
AcDbSymbolTableRecord
100
AcDbBlockTableRecord
  2
*Paper_Space0
340
5E
 70
     0
280
     1
281
     0
  0
ENDTAB
  0
ENDSEC
  0
SECTION
  2
BLOCKS
  0
BLOCK
  5
20
330
1F
100
AcDbEntity
  8
0
100
AcDbBlockBegin
  2
*Model_Space
 70
     0
 10
0.0
 20
0.0
 30
0.0
  3
*Model_Space
  1

  0
ENDBLK
  5
21
330
1F
100
AcDbEntity
  8
0
100
AcDbBlockEnd
  0
BLOCK
  5
5A
330
58
100
AcDbEntity
 67
     1
  8
0
100
AcDbBlockBegin
  2
*Paper_Space
 70
     0
 10
0.0
 20
0.0
 30
0.0
  3
*Paper_Space
  1

  0
ENDBLK
  5
5B
330
58
100
AcDbEntity
 67
     1
  8
0
100
AcDbBlockEnd
  0
BLOCK
  5
5F
330
5D
100
AcDbEntity
 67
     1
  8
0
100
AcDbBlockBegin
  2
*Paper_Space0
 70
     0
 10
0.0
 20
0.0
 30
0.0
  3
*Paper_Space0
  1

  0
ENDBLK
  5
60
330
5D
100
AcDbEntity
 67
     1
  8
0
100
AcDbBlockEnd
  0
ENDSEC
  0
SECTION
  2
ENTITIES
  0
ARC
  5
B837
330
1F
100
AcDbEntity
  8
freecads.com
100
AcDbCircle
 10
10729.44655970903
 20
30184.27964118817
 30
0.0
 40
5.135225574636559
100
AcDbArc
 50
111.8822672818948
 51
123.4404761105824
  0
ARC
  5
B838
330
1F
100
AcDbEntity
  8
freecads.com
100
AcDbCircle
 10
10730.37026997122
 20
30182.88093575653
 30
0.0
 40
6.811416951794127
100
AcDbArc
 50
123.4405855185787
 51
132.7929374696402
  0
ARC
  5
B839
330
1F
100
AcDbEntity
  8
freecads.com
100
AcDbCircle
 10
10729.96013777456
 20
30183.32393731425
 30
0.0
 40
6.207712720550896
100
AcDbArc
 50
132.7928719369315
 51
142.4858886699005
  0
ARC
  5
B83A
330
1F
100
AcDbEntity
  8
freecads.com
100
AcDbCircle
 10
10727.19241351028
 20
30185.44876676872
 30
0.0
 40
2.718415110183925
100
AcDbArc
 50
142.4858336763558
 51
160.4535564285566
  0
ARC
  5
B83B
330
1F
100
AcDbEntity
  8
freecads.com
100
AcDbCircle
 10
10715.3276874759
 20
30189.66110860019
 30
0.0
 40
9.87188065980956
100
AcDbArc
 50
327.4325910398442
 51
340.4535817087634
  0
ARC
  5
B83C
330
1F
100
AcDbEntity
  8
freecads.com
100
AcDbCircle
 10
10715.74569490417
 20
30189.39410018562
 30
0.0
 40
9.375872894409203
100
AcDbArc
 50
313.8984371570276
 51
327.4326755436701
  0
ARC
  5
B83D
330
1F
100
AcDbEntity
  8
freecads.com
100
AcDbCircle
 10
10717.05493901976
 20
30188.03351895946
 30
0.0
 40
7.48767231524104
100
AcDbArc
 50
298.8266657534666
 51
313.8984425350271
  0
ARC
  5
B83E
330
1F
100
AcDbEntity
  8
freecads.com
100
AcDbCircle
 10
10719.14983816188
 20
30184.22710278454
 30
0.0
 40
3.142858566367542
100
AcDbArc
 50
269.9999611757065
 51
298.826719788391
  0
ARC
  5
B83F
330
1F
100
AcDbEntity
  8
freecads.com
100
AcDbCircle
 10
10719.14983819532
 20
30176.80049965461
 30
0.0
 40
4.283744563564005
100
AcDbArc
 50
90.00002893158741
 51
99.49148884274137
  0
ARC
  5
B840
330
1F
100
AcDbEntity
  8
freecads.com
100
AcDbCircle
 10
10718.86586770074
 20
30178.49898714983
 30
0.0
 40
2.561682133446918
100
AcDbArc
 50
99.49147712604357
 51
113.4415591481172
  0
ARC
  5
B841
330
1F
100
AcDbEntity
  8
freecads.com
100
AcDbCircle
 10
10718.4474243561
 20
30179.46403301618
 30
0.0
 40
1.50982265764232
100
AcDbArc
 50
113.4415809656653
 51
131.7623156103064
  0
ARC
  5
B842
330
1F
100
AcDbEntity
  8
freecads.com
100
AcDbCircle
 10
10717.71504081298
 20
30180.28424483656
 30
0.0
 40
0.4102167807406669
100
AcDbArc
 50
131.762347418374
 51
180.0000863718358
  0
ARC
  5
B843
330
1F
100
AcDbEntity
  8
freecads.com
100
AcDbCircle
 10
10719.03524115183
 20
30180.284244584
 30
0.0
 40
1.730417119589371
100
AcDbArc
 50
180.0000121129136
 51
216.1420931477121
  0
ARC
  5
B844
330
1F
100
AcDbEntity
  8
freecads.com
100
AcDbCircle
 10
10722.3513771863
 20
30182.7061474836
 30
0.0
 40
5.836798964256942
100
AcDbArc
 50
216.1421025708738
 51
230.7629113812343
  0
ARC
  5
B845
330
1F
100
AcDbEntity
  8
freecads.com
100
AcDbCircle
 10
10722.67659043621
 20
30183.10438378462
 30
0.0
 40
6.350954397283882
100
AcDbArc
 50
230.7629801102191
 51
244.9290546120683
  0
ARC
  5
B846
330
1F
100
AcDbEntity
  8
freecads.com
100
AcDbCircle
 10
10721.30671386422
 20
30180.17615436884
 30
0.0
 40
3.118139937106518
100
AcDbArc
 50
244.9291209458758
 51
269.0464810201001
  0
ARC
  5
B847
330
1F
100
AcDbEntity
  8
freecads.com
100
AcDbCircle
 10
10721.23583987824
 20
30175.91796743134
 30
0.0
 40
1.140636778874926
100
AcDbArc
 50
49.72930628306619
 51
89.04635538229005
  0
ARC
  5
B848
330
1F
100
AcDbEntity
  8
freecads.com
100
AcDbCircle
 10
10716.9286793755
 20
30170.83385687004
 30
0.0
 40
7.803955156067218
100
AcDbArc
 50
40.21754001852653
 51
49.72936218775276
  0
ARC
  5
B849
330
1F
100
AcDbEntity
  8
freecads.com
100
AcDbCircle
 10
10714.82852024944
 20
30169.05800555727
 30
0.0
 40
10.55428536163028
100
AcDbArc
 50
31.55821610465697
 51
40.21744428524176
  0
ARC
  5
B84A
330
1F
100
AcDbEntity
  8
freecads.com
100
AcDbCircle
 10
10711.41977557421
 20
30166.96436801175
 30
0.0
 40
14.55464264978009
100
AcDbArc
 50
24.75275406490746
 51
31.55817928750625
  0
ARC
  5
B84B
330
1F
100
AcDbEntity
  8
freecads.com
100
AcDbCircle
 10
10740.89045524186
 20
30180.55224884871
 30
0.0
 40
17.89765258049313
100
AcDbArc
 50
204.7527358605208
 51
211.0188739089389
  0
ARC
  5
B84C
330
1F
100
AcDbEntity
  8
freecads.com
100
AcDbCircle
 10
10731.75764906672
 20
30175.06061909927
 30
0.0
 40
7.24091077366429
100
AcDbArc
 50
211.0189365715676
 51
223.3373412631947
  0
ARC
  5
B84D
330
1F
100
AcDbEntity
  8
freecads.com
100
AcDbCircle
 10
10729.55394367835
 20
30172.98124966075
 30
0.0
 40
4.211043664289035
100
AcDbArc
 50
223.3374476410442
 51
239.8713095933797
  0
ARC
  5
B84E
330
1F
100
AcDbEntity
  8
freecads.com
100
AcDbCircle
 10
10728.38718020217
 20
30170.97079851597
 30
0.0
 40
1.886554297797377
100
AcDbArc
 50
239.8713179057256
 51
270.0000555804351
  0
ARC
  5
B84F
330
1F
100
AcDbEntity
  8
freecads.com
100
AcDbCircle
 10
10728.38718295692
 20
30163.46490052049
 30
0.0
 40
5.619343697686266
100
AcDbArc
 50
82.48870230457638
 51
90.00000942819571
  0
ARC
  5
B850
330
1F
100
AcDbEntity
  8
freecads.com
100
AcDbCircle
 10
10728.70765727103
 20
30165.89543012885
 30
0.0
 40
3.167777267194856
100
AcDbArc
 50
70.95155074519354
 51
82.48872821147388
  0
ARC
  5
B851
330
1F
100
AcDbEntity
  8
freecads.com
100
AcDbCircle
 10
10729.13973406777
 20
30167.14682483639
 30
0.0
 40
1.843889404748763
100
AcDbArc
 50
56.0494197961676
 51
70.9516406660486
  0
ARC
  5
B852
330
1F
100
AcDbEntity
  8
freecads.com
100
AcDbCircle
 10
10729.99834163786
 20
30168.42213395817
 30
0.0
 40
0.3064823943856973
100
AcDbArc
 50
0.0000486063175218
 51
56.04945664333964
  0
ARC
  5
B853
330
1F
100
AcDbEntity
  8
freecads.com
100
AcDbCircle
 10
10729.31697749954
 20
30168.42213437795
 30
0.0
 40
0.98784653270492
100
AcDbArc
 50
332.1346915162741
 51
359.9999907331375
  0
ARC
  5
B854
330
1F
100
AcDbEntity
  8
freecads.com
100
AcDbCircle
 10
10468.65900392172
 20
30306.23174373013
 30
0.0
 40
295.8336835721615
100
AcDbArc
 50
331.6361642733761
 51
332.1346367691038
  0
ARC
  5
B855
330
1F
100
AcDbEntity
  8
freecads.com
100
AcDbCircle
 10
10604.03886835299
 20
30233.14243127404
 30
0.0
 40
141.9839020035082
100
AcDbArc
 50
330.4201608168722
 51
331.6361950294515
  0
ARC
  5
B856
330
1F
100
AcDbEntity
  8
freecads.com
100
AcDbCircle
 10
10512.05491502465
 20
30285.35398880741
 30
0.0
 40
247.752963689583
100
AcDbArc
 50
329.618669978302
 51
330.4201200751143
  0
LINE
  5
B857
330
1F
100
AcDbEntity
  8
freecads.com
100
AcDbLine
 10
10725.78607403224
 20
30160.05226221817
 30
0.0
 11
10721.26732503224
 21
30152.34450121817
 31
0.0
  0
LINE
  5
B858
330
1F
100
AcDbEntity
  8
freecads.com
100
AcDbLine
 10
10721.26732503224
 20
30152.34450121817
 30
0.0
 11
10722.77129303224
 21
30145.96437321817
 31
0.0
  0
ARC
  5
B859
330
1F
100
AcDbEntity
  8
freecads.com
100
AcDbCircle
 10
10586.70505439268
 20
30113.88999879249
 30
0.0
 40
139.7955177833541
100
AcDbArc
 50
10.48320278330652
 51
13.26397426856237
  0
ARC
  5
B85A
330
1F
100
AcDbEntity
  8
freecads.com
100
AcDbCircle
 10
10714.78424883143
 20
30137.58924880792
 30
0.0
 40
9.542170419959628
100
AcDbArc
 50
350.7284960733742
 51
10.4831395671112
  0
ARC
  5
B85B
330
1F
100
AcDbEntity
  8
freecads.com
100
AcDbCircle
 10
10720.72293512622
 20
30136.61978371687
 30
0.0
 40
3.524873894877129
100
AcDbArc
 50
312.1213987049951
 51
350.7285037703513
  0
ARC
  5
B85C
330
1F
100
AcDbEntity
  8
freecads.com
100
AcDbCircle
 10
10717.00481933034
 20
30140.73160047401
 30
0.0
 40
9.068466783591734
100
AcDbArc
 50
293.0458058793553
 51
312.1214636496312
  0
ARC
  5
B85D
330
1F
100
AcDbEntity
  8
freecads.com
100
AcDbCircle
 10
10711.02390126251
 20
30154.79050503751
 30
0.0
 40
24.34669241551189
100
AcDbArc
 50
283.3704002447507
 51
293.0458013680589
  0
ARC
  5
B85E
330
1F
100
AcDbEntity
  8
freecads.com
100
AcDbCircle
 10
10708.68153996996
 20
30164.64539501218
 30
0.0
 40
34.47613034844894
100
AcDbArc
 50
275.9156002632522
 51
283.3703594844408
  0
ARC
  5
B85F
330
1F
100
AcDbEntity
  8
freecads.com
100
AcDbCircle
 10
10708.58190572101
 20
30165.60648714734
 30
0.0
 40
35.44237310954174
100
AcDbArc
 50
269.5526726231833
 51
275.9156815531565
  0
ARC
  5
B860
330
1F
100
AcDbEntity
  8
freecads.com
100
AcDbCircle
 10
10708.31843789393
 20
30131.86113454923
 30
0.0
 40
1.695992010725121
100
AcDbArc
 50
211.7174174257997
 51
269.5527125737548
  0
ARC
  5
B861
330
1F
100
AcDbEntity
  8
freecads.com
100
AcDbCircle
 10
10705.07927509912
 20
30129.85922309358
 30
0.0
 40
2.111871575007012
100
AcDbArc
 50
31.71749140464064
 51
80.23723973557848
  0
ARC
  5
B862
330
1F
100
AcDbEntity
  8
freecads.com
100
AcDbCircle
 10
10704.82111553994
 20
30128.358868765
 30
0.0
 40
3.634274106949344
100
AcDbArc
 50
80.23712300165929
 51
112.5950985084771
  0
ARC
  5
B863
330
1F
100
AcDbEntity
  8
freecads.com
100
AcDbCircle
 10
10707.2693564449
 20
30122.47589658086
 30
0.0
 40
10.00634168725625
100
AcDbArc
 50
112.5950265679233
 51
130.2007665011254
  0
ARC
  5
B864
330
1F
100
AcDbEntity
  8
freecads.com
100
AcDbCircle
 10
10725.70955339011
 20
30100.65544180747
 30
0.0
 40
38.57508526999062
100
AcDbArc
 50
130.2007467749376
 51
136.6555862853843
  0
ARC
  5
B865
330
1F
100
AcDbEntity
  8
freecads.com
100
AcDbCircle
 10
10669.56826034902
 20
30153.64251720089
 30
0.0
 40
38.62255033548196
100
AcDbArc
 50
312.6056844491744
 51
316.6556160845897
  0
ARC
  5
B866
330
1F
100
AcDbEntity
  8
freecads.com
100
AcDbCircle
 10
10674.76186763694
 20
30147.99562347463
 30
0.0
 40
30.95046030624417
100
AcDbArc
 50
307.8242593457616
 51
312.6057004370364
  0
ARC
  5
B867
330
1F
100
AcDbEntity
  8
freecads.com
100
AcDbCircle
 10
10677.38161201198
 20
30144.62119989848
 30
0.0
 40
26.67848241986915
100
AcDbArc
 50
303.1841916485321
 51
307.8242864950262
  0
ARC
  5
B868
330
1F
100
AcDbEntity
  8
freecads.com
100
AcDbCircle
 10
10690.51409899693
 20
30124.54056389781
 30
0.0
 40
2.684855003381016
100
AcDbArc
 50
278.1307318074912
 51
303.1842192612221
  0
ARC
  5
B869
330
1F
100
AcDbEntity
  8
freecads.com
100
AcDbCircle
 10
10691.3438053366
 20
30118.73307942078
 30
0.0
 40
3.181599510301552
100
AcDbArc
 50
98.13074244527063
 51
115.0582979883942
  0
ARC
  5
B86A
330
1F
100
AcDbEntity
  8
freecads.com
100
AcDbCircle
 10
10690.84991476341
 20
30119.78942788734
 30
0.0
 40
2.015494891884464
100
AcDbArc
 50
115.0583486476614
 51
138.8871392495826
  0
ARC
  5
B86B
330
1F
100
AcDbEntity
  8
freecads.com
100
AcDbCircle
 10
10690.86546226402
 20
30119.77585523307
 30
0.0
 40
2.036133247249197
100
AcDbArc
 50
138.8870638123387
 51
162.5723347838414
  0
ARC
  5
B86C
330
1F
100
AcDbEntity
  8
freecads.com
100
AcDbCircle
 10
10692.05612679167
 20
30119.40208893893
 30
0.0
 40
3.284084872926329
100
AcDbArc
 50
162.5722818279312
 51
179.1293988336386
  0
ARC
  5
B86D
330
1F
100
AcDbEntity
  8
freecads.com
100
AcDbCircle
 10
10683.37897388729
 20
30119.53395024489
 30
0.0
 40
5.39406988082016
100
AcDbArc
 50
332.3083429549466
 51
359.1293663149907
  0
ARC
  5
B86E
330
1F
100
AcDbEntity
  8
freecads.com
100
AcDbCircle
 10
10656.44391012873
 20
30133.67018712647
 30
0.0
 40
35.81332123337304
100
AcDbArc
 50
325.6805898458161
 51
332.3083216819864
  0
ARC
  5
B86F
330
1F
100
AcDbEntity
  8
freecads.com
100
AcDbCircle
 10
10650.04998897374
 20
30138.03500504133
 30
0.0
 40
43.55501763443071
100
AcDbArc
 50
319.2424610941256
 51
325.6805834701978
  0
ARC
  5
B870
330
1F
100
AcDbEntity
  8
freecads.com
100
AcDbCircle
 10
10644.97942272693
 20
30142.40535560602
 30
0.0
 40
50.24909009563
100
AcDbArc
 50
313.4587843408129
 51
319.242367376274
  0
ARC
  5
B871
330
1F
100
AcDbEntity
  8
freecads.com
100
AcDbCircle
 10
10648.62553496066
 20
30138.55770725501
 30
0.0
 40
44.94828522753568
100
AcDbArc
 50
309.5237872227248
 51
313.4587038454135
  0
ARC
  5
B872
330
1F
100
AcDbEntity
  8
freecads.com
100
AcDbCircle
 10
10673.82233681209
 20
30108.01739134628
 30
0.0
 40
5.355486395617572
100
AcDbArc
 50
290.6845782458188
 51
309.5237403273521
  0
ARC
  5
B873
330
1F
100
AcDbEntity
  8
freecads.com
100
AcDbCircle
 10
10674.29970719188
 20
30106.7530586319
 30
0.0
 40
4.0040354375426
100
AcDbArc
 50
267.7499790050475
 51
290.6844749220889
  0
ARC
  5
B874
330
1F
100
AcDbEntity
  8
freecads.com
100
AcDbCircle
 10
10674.87478524768
 20
30121.38997790178
 30
0.0
 40
18.65224763164128
100
AcDbArc
 50
260.4262175493519
 51
267.750020258944
  0
ARC
  5
B875
330
1F
100
AcDbEntity
  8
freecads.com
100
AcDbCircle
 10
10676.26183990306
 20
30129.61356357269
 30
0.0
 40
26.99198874894432
100
AcDbArc
 50
255.9778535228889
 51
260.4261975165219
  0
ARC
  5
B876
330
1F
100
AcDbEntity
  8
freecads.com
100
AcDbCircle
 10
10670.48947470292
 20
30106.49992242982
 30
0.0
 40
3.168458219555583
100
AcDbArc
 50
234.4529495912542
 51
255.977797841896
  0
ARC
  5
B877
330
1F
100
AcDbEntity
  8
freecads.com
100
AcDbCircle
 10
10669.39237710775
 20
30104.9645173574
 30
0.0
 40
1.281372670425275
100
AcDbArc
 50
195.6993090127036
 51
234.4529615880948
  0
ARC
  5
B878
330
1F
100
AcDbEntity
  8
freecads.com
100
AcDbCircle
 10
10670.48534272067
 20
30105.27171544644
 30
0.0
 40
2.416689585164926
100
AcDbArc
 50
171.5822546504577
 51
195.6991614154425
  0
ARC
  5
B879
330
1F
100
AcDbEntity
  8
freecads.com
100
AcDbCircle
 10
10548.15313549249
 20
30123.37504323169
 30
0.0
 40
121.2477733870928
100
AcDbArc
 50
351.5821784378217
 51
353.0344924167559
  0
ARC
  5
B87A
330
1F
100
AcDbEntity
  8
freecads.com
100
AcDbCircle
 10
10399.36854927337
 20
30141.55280662579
 30
0.0
 40
271.1386809778625
100
AcDbArc
 50
353.0344449706136
 51
353.8301655591455
  0
ARC
  5
B87B
330
1F
100
AcDbEntity
  8
freecads.com
100
AcDbCircle
 10
10282.45281770117
 20
30154.19151359401
 30
0.0
 40
388.735556798953
100
AcDbArc
 50
353.8301843641657
 51
354.4966469927967
  0
ARC
  5
B87C
330
1F
100
AcDbEntity
  8
freecads.com
100
AcDbCircle
 10
9873.211662121335
 20
30193.62025406844
 30
0.0
 40
799.8717252338788
100
AcDbArc
 50
354.4967091866094
 51
354.8851741996621
  0
ARC
  5
B87D
330
1F
100
AcDbEntity
  8
freecads.com
100
AcDbCircle
 10
10594.10090187852
 20
30129.09455489669
 30
0.0
 40
76.10044792917105
100
AcDbArc
 50
354.8851905458586
 51
359.9229698470523
  0
ARC
  5
B87E
330
1F
100
AcDbEntity
  8
freecads.com
100
AcDbCircle
 10
10666.53369684076
 20
30128.99717422432
 30
0.0
 40
3.667587506307922
100
AcDbArc
 50
359.9229668206972
 51
45.54402709631221
  0
ARC
  5
B87F
330
1F
100
AcDbEntity
  8
freecads.com
100
AcDbCircle
 10
10666.09509744452
 20
30128.55016490867
 30
0.0
 40
4.293835666909243
100
AcDbArc
 50
45.54403422197892
 51
86.16587978192352
  0
ARC
  5
B880
330
1F
100
AcDbEntity
  8
freecads.com
100
AcDbCircle
 10
10658.91754002951
 20
30021.45136120464
 30
0.0
 40
111.63288301353
100
AcDbArc
 50
86.1658795818961
 51
89.99998460101668
  0
ARC
  5
B881
330
1F
100
AcDbEntity
  8
freecads.com
100
AcDbCircle
 10
10658.91755734654
 20
30069.61676339522
 30
0.0
 40
63.46748082295712
100
AcDbArc
 50
89.99998854784383
 51
96.02359613251241
  0
ARC
  5
B882
330
1F
100
AcDbEntity
  8
freecads.com
100
AcDbCircle
 10
10654.73316595347
 20
30109.2715469369
 30
0.0
 40
23.59253895380319
100
AcDbArc
 50
96.02361174944999
 51
108.6313050506829
  0
ARC
  5
B883
330
1F
100
AcDbEntity
  8
freecads.com
100
AcDbCircle
 10
10652.49500433144
 20
30115.91009829917
 30
0.0
 40
16.58684615181804
100
AcDbArc
 50
108.6312933718997
 51
124.1094346800538
  0
ARC
  5
B884
330
1F
100
AcDbEntity
  8
freecads.com
100
AcDbCircle
 10
10653.00098406775
 20
30115.16302006219
 30
0.0
 40
17.48914398826725
100
AcDbArc
 50
124.1094084063221
 51
138.9846996420748
  0
ARC
  5
B885
330
1F
100
AcDbEntity
  8
freecads.com
100
AcDbCircle
 10
10630.09466059721
 20
30135.08592084054
 30
0.0
 40
12.86907780355164
100
AcDbArc
 50
312.9817184070643
 51
318.9847137076708
  0
ARC
  5
B886
330
1F
100
AcDbEntity
  8
freecads.com
100
AcDbCircle
 10
10623.86394139753
 20
30141.77184756282
 30
0.0
 40
22.0081958069849
100
AcDbArc
 50
308.9651969102929
 51
312.9816781720692
  0
ARC
  5
B887
330
1F
100
AcDbEntity
  8
freecads.com
100
AcDbCircle
 10
10624.33249389957
 20
30141.19251856552
 30
0.0
 40
21.263102836767
100
AcDbArc
 50
304.9152579341032
 51
308.9651895695229
  0
ARC
  5
B888
330
1F
100
AcDbEntity
  8
freecads.com
100
AcDbCircle
 10
10631.20205018684
 20
30131.35083994984
 30
0.0
 40
9.261042948634386
100
AcDbArc
 50
297.3775767203994
 51
304.9152115029488
  0
ARC
  5
B889
330
1F
100
AcDbEntity
  8
freecads.com
100
AcDbCircle
 10
10637.257774804
 20
30119.65695426719
 30
0.0
 40
3.907812848195595
100
AcDbArc
 50
117.3775118102964
 51
136.5803915455455
  0
ARC
  5
B88A
330
1F
100
AcDbEntity
  8
freecads.com
100
AcDbCircle
 10
10646.1815053726
 20
30111.21240790144
 30
0.0
 40
16.19371251343177
100
AcDbArc
 50
136.5803736968386
 51
143.2584833428453
  0
ARC
  5
B88B
330
1F
100
AcDbEntity
  8
freecads.com
100
AcDbCircle
 10
10648.46882700803
 20
30109.50491185506
 30
0.0
 40
19.04807461595357
100
AcDbArc
 50
143.2584847363381
 51
149.6716457844654
  0
ARC
  5
B88C
330
1F
100
AcDbEntity
  8
freecads.com
100
AcDbCircle
 10
10647.65072338851
 20
30109.98351618705
 30
0.0
 40
18.1002583685378
100
AcDbArc
 50
149.671645548769
 51
156.335099898479
  0
ARC
  5
B88D
330
1F
100
AcDbEntity
  8
freecads.com
100
AcDbCircle
 10
10602.73456114029
 20
30129.66753773424
 30
0.0
 40
30.93974912920443
100
AcDbArc
 50
332.5490859528774
 51
336.3350758175463
  0
ARC
  5
B88E
330
1F
100
AcDbEntity
  8
freecads.com
100
AcDbCircle
 10
10608.00417263154
 20
30126.93007576908
 30
0.0
 40
25.00152521297884
100
AcDbArc
 50
328.1071795076532
 51
332.549108787761
  0
ARC
  5
B88F
330
1F
100
AcDbEntity
  8
freecads.com
100
AcDbCircle
 10
10610.74178902116
 20
30125.22658653463
 30
0.0
 40
21.77717736163396
100
AcDbArc
 50
323.8314631031428
 51
328.1070656234011
  0
ARC
  5
B890
330
1F
100
AcDbEntity
  8
freecads.com
100
AcDbCircle
 10
10626.58630967127
 20
30113.64350763379
 30
0.0
 40
2.150243024991158
100
AcDbArc
 50
300.4307684045537
 51
323.8314391135571
  0
ARC
  5
B891
330
1F
100
AcDbEntity
  8
freecads.com
100
AcDbCircle
 10
10628.77335637447
 20
30109.92036329763
 30
0.0
 40
2.16773995666557
100
AcDbArc
 50
120.4308248121698
 51
145.5995716168813
  0
ARC
  5
B892
330
1F
100
AcDbEntity
  8
freecads.com
100
AcDbCircle
 10
10663.79333452313
 20
30085.94136352605
 30
0.0
 40
44.61054028343127
100
AcDbArc
 50
145.599639764508
 51
148.3930144571784
  0
ARC
  5
B893
330
1F
100
AcDbEntity
  8
freecads.com
100
AcDbCircle
 10
10664.64729211286
 20
30085.41587717918
 30
0.0
 40
45.61322640861006
100
AcDbArc
 50
148.3930309304678
 51
151.6905192543163
  0
ARC
  5
B894
330
1F
100
AcDbEntity
  8
freecads.com
100
AcDbCircle
 10
10680.7314869383
 20
30076.75214715974
 30
0.0
 40
63.8823681788236
100
AcDbArc
 50
151.6906376792953
 51
154.2523398834498
  0
ARC
  5
B895
330
1F
100
AcDbEntity
  8
freecads.com
100
AcDbCircle
 10
10688.39654607527
 20
30073.05548255329
 30
0.0
 40
72.39227186645158
100
AcDbArc
 50
154.2524362474168
 51
157.2875600140817
  0
ARC
  5
B896
330
1F
100
AcDbEntity
  8
freecads.com
100
AcDbCircle
 10
10636.711596736
 20
30094.68896676111
 30
0.0
 40
16.3624438534083
100
AcDbArc
 50
157.2876083998278
 51
166.4424975990947
  0
ARC
  5
B897
330
1F
100
AcDbEntity
  8
freecads.com
100
AcDbCircle
 10
10630.54472771131
 20
30096.17604780434
 30
0.0
 40
10.01881054142294
100
AcDbArc
 50
166.442494073667
 51
178.7771237405157
  0
ARC
  5
B898
330
1F
100
AcDbEntity
  8
freecads.com
100
AcDbCircle
 10
10633.25424915035
 20
30096.11822196163
 30
0.0
 40
12.72894896161904
100
AcDbArc
 50
178.7771815422329
 51
189.0850699025244
  0
ARC
  5
B899
330
1F
100
AcDbEntity
  8
freecads.com
100
AcDbCircle
 10
10604.37405780322
 20
30091.5000870757
 30
0.0
 40
16.51814699801411
100
AcDbArc
 50
3.562125010450835
 51
9.085056346382932
  0
ARC
  5
B89A
330
1F
100
AcDbEntity
  8
freecads.com
100
AcDbCircle
 10
10611.35190223288
 20
30091.93444909521
 30
0.0
 40
9.526796395435249
100
AcDbArc
 50
355.2224927241523
 51
3.562221157154747
  0
ARC
  5
B89B
330
1F
100
AcDbEntity
  8
freecads.com
100
AcDbCircle
 10
10614.34010222523
 20
30091.68470390984
 30
0.0
 40
6.528178071631739
100
AcDbArc
 50
345.7353827881947
 51
355.2224956809459
  0
ARC
  5
B89C
330
1F
100
AcDbEntity
  8
freecads.com
100
AcDbCircle
 10
10619.88016210816
 20
30090.27620378326
 30
0.0
 40
0.8118736611676586
100
AcDbArc
 50
301.7175309337336
 51
345.7353503538479
  0
ARC
  5
B89D
330
1F
100
AcDbEntity
  8
freecads.com
100
AcDbCircle
 10
10621.33783349813
 20
30087.91764524682
 30
0.0
 40
1.960779265353307
100
AcDbArc
 50
121.7175019642543
 51
182.0417189197213
  0
ARC
  5
B89E
330
1F
100
AcDbEntity
  8
freecads.com
100
AcDbCircle
 10
10622.97628090512
 20
30087.9760540891
 30
0.0
 40
3.600267447174349
100
AcDbArc
 50
182.0416951559268
 51
220.4603351657803
  0
ARC
  5
B89F
330
1F
100
AcDbEntity
  8
freecads.com
100
AcDbCircle
 10
10625.70817755206
 20
30090.30605162389
 30
0.0
 40
7.190831163600792
100
AcDbArc
 50
220.4603731086808
 51
245.6698765490294
  0
ARC
  5
B8A0
330
1F
100
AcDbEntity
  8
freecads.com
100
AcDbCircle
 10
10625.85187185494
 20
30090.62385203732
 30
0.0
 40
7.539607819151519
100
AcDbArc
 50
245.6698715738615
 51
270.0000393439365
  0
ARC
  5
B8A1
330
1F
100
AcDbEntity
  8
freecads.com
100
AcDbCircle
 10
10625.85187587886
 20
30082.02732595009
 30
0.0
 40
1.056918268082374
100
AcDbArc
 50
56.20912246972503
 51
89.99993747515016
  0
ARC
  5
B8A2
330
1F
100
AcDbEntity
  8
freecads.com
100
AcDbCircle
 10
10625.58550033444
 20
30081.62927892026
 30
0.0
 40
1.535872721682574
100
AcDbArc
 50
30.66644102762583
 51
56.20918287717029
  0
ARC
  5
B8A3
330
1F
100
AcDbEntity
  8
freecads.com
100
AcDbCircle
 10
10624.7686263546
 20
30081.14490527907
 30
0.0
 40
2.485557365763483
100
AcDbArc
 50
11.31966576716225
 51
30.66636713699914
  0
ARC
  5
B8A4
330
1F
100
AcDbEntity
  8
freecads.com
100
AcDbCircle
 10
10622.21607104452
 20
30080.63393675246
 30
0.0
 40
5.08875298771881
100
AcDbArc
 50
359.9999714657008
 51
11.31973732282011
  0
ARC
  5
B8A5
330
1F
100
AcDbEntity
  8
freecads.com
100
AcDbCircle
 10
10632.26301666829
 20
30080.63393896973
 30
0.0
 40
4.958192636047445
100
AcDbArc
 50
180.0000549079007
 51
191.5955253455799
  0
ARC
  5
B8A6
330
1F
100
AcDbEntity
  8
freecads.com
100
AcDbCircle
 10
10632.50540267519
 20
30080.68368080869
 30
0.0
 40
5.205629955064488
100
AcDbArc
 50
191.5955993549142
 51
202.7752141934681
  0
ARC
  5
B8A7
330
1F
100
AcDbEntity
  8
freecads.com
100
AcDbCircle
 10
10631.70918307475
 20
30080.34938863109
 30
0.0
 40
4.342080933803392
100
AcDbArc
 50
202.7752445294169
 51
214.8612301010938
  0
ARC
  5
B8A8
330
1F
100
AcDbEntity
  8
freecads.com
100
AcDbCircle
 10
10629.50908605651
 20
30078.81679323341
 30
0.0
 40
1.660798490149243
100
AcDbArc
 50
214.8612686355494
 51
239.6271184549693
  0
ARC
  5
B8A9
330
1F
100
AcDbEntity
  8
freecads.com
100
AcDbCircle
 10
10626.82425242974
 20
30074.23563054655
 30
0.0
 40
3.64913401101564
100
AcDbArc
 50
34.91864298672306
 51
59.62718237918447
  0
ARC
  5
B8AA
330
1F
100
AcDbEntity
  8
freecads.com
100
AcDbCircle
 10
10602.97096271515
 20
30057.58379465877
 30
0.0
 40
32.73973504712518
100
AcDbArc
 50
29.99747616301821
 51
34.91865631940699
  0
ARC
  5
B8AB
330
1F
100
AcDbEntity
  8
freecads.com
100
AcDbCircle
 10
10597.81453711831
 20
30054.60703109894
 30
0.0
 40
38.69371239229572
100
AcDbArc
 50
25.01880133012067
 51
29.9974796187364
  0
ARC
  5
B8AC
330
1F
100
AcDbEntity
  8
freecads.com
100
AcDbCircle
 10
10588.91584936793
 20
30050.45391681348
 30
0.0
 40
48.5138448733862
100
AcDbArc
 50
20.81677619616017
 51
25.01883609942037
  0
ARC
  5
B8AD
330
1F
100
AcDbEntity
  8
freecads.com
100
AcDbCircle
 10
10621.3674163181
 20
30062.79197946085
 30
0.0
 40
13.79595341362454
100
AcDbArc
 50
14.40065886169828
 51
20.81679695681931
  0
ARC
  5
B8AE
330
1F
100
AcDbEntity
  8
freecads.com
100
AcDbCircle
 10
10634.25944232787
 20
30066.10224775613
 30
0.0
 40
0.4857238580051878
100
AcDbArc
 50
302.4498681486617
 51
14.40059073485066
  0
ARC
  5
B8AF
330
1F
100
AcDbEntity
  8
freecads.com
100
AcDbCircle
 10
10633.90602392786
 20
30066.65807315509
 30
0.0
 40
1.14439406349113
100
AcDbArc
 50
264.2579367299593
 51
302.4499482581546
  0
ARC
  5
B8B0
330
1F
100
AcDbEntity
  8
freecads.com
100
AcDbCircle
 10
10641.36796067568
 20
30140.86586598372
 30
0.0
 40
75.72640943264763
100
AcDbArc
 50
262.3605817573473
 51
264.2579454428538
  0
ARC
  5
B8B1
330
1F
100
AcDbEntity
  8
freecads.com
100
AcDbCircle
 10
10628.70779087539
 20
30046.47754007238
 30
0.0
 40
19.50717691018701
100
AcDbArc
 50
82.36064296101821
 51
87.29785851575959
  0
ARC
  5
B8B2
330
1F
100
AcDbEntity
  8
freecads.com
100
AcDbCircle
 10
10628.34994049103
 20
30038.89512546682
 30
0.0
 40
27.09803115382085
100
AcDbArc
 50
87.29788225949375
 51
91.15696120199777
  0
ARC
  5
B8B3
330
1F
100
AcDbEntity
  8
freecads.com
100
AcDbCircle
 10
10628.30514790986
 20
30041.11499565692
 30
0.0
 40
24.87770909732725
100
AcDbArc
 50
91.15705070003818
 51
95.08532296794957
  0
ARC
  5
B8B4
330
1F
100
AcDbEntity
  8
freecads.com
100
AcDbCircle
 10
10626.82485971111
 20
30057.74956848942
 30
0.0
 40
8.177401720792273
100
AcDbArc
 50
95.08541284874876
 51
104.0892784674224
  0
ARC
  5
B8B5
330
1F
100
AcDbEntity
  8
freecads.com
100
AcDbCircle
 10
10626.19210878296
 20
30060.27067131487
 30
0.0
 40
5.578106971532131
100
AcDbArc
 50
104.0893265478438
 51
133.4525714851668
  0
ARC
  5
B8B6
330
1F
100
AcDbEntity
  8
freecads.com
100
AcDbCircle
 10
10630.36872578055
 20
30055.86214720664
 30
0.0
 40
11.65093286705803
100
AcDbArc
 50
133.4526215060277
 51
150.3817725941877
  0
ARC
  5
B8B7
330
1F
100
AcDbEntity
  8
freecads.com
100
AcDbCircle
 10
10632.88785479493
 20
30054.43002043058
 30
0.0
 40
14.54869029199865
100
AcDbArc
 50
150.3817654100165
 51
165.5219988569243
  0
ARC
  5
B8B8
330
1F
100
AcDbEntity
  8
freecads.com
100
AcDbCircle
 10
10633.8211769761
 20
30054.18904049436
 30
0.0
 40
15.51262059207267
100
AcDbArc
 50
165.5220393060119
 51
179.951106533457
  0
ARC
  5
B8B9
330
1F
100
AcDbEntity
  8
freecads.com
100
AcDbCircle
 10
10632.98460348121
 20
30054.1897713906
 30
0.0
 40
14.67604677808185
100
AcDbArc
 50
179.9511729191762
 51
214.5909264606094
  0
ARC
  5
B8BA
330
1F
100
AcDbEntity
  8
freecads.com
100
AcDbCircle
 10
10629.5997452359
 20
30051.8555087957
 30
0.0
 40
10.56435038818242
100
AcDbArc
 50
214.5909427624025
 51
258.875687875404
  0
ARC
  5
B8BB
330
1F
100
AcDbEntity
  8
freecads.com
100
AcDbCircle
 10
10629.50038833108
 20
30051.35016413178
 30
0.0
 40
10.04933094799009
100
AcDbArc
 50
258.8756292467684
 51
304.5838903926044
  0
ARC
  5
B8BC
330
1F
100
AcDbEntity
  8
freecads.com
100
AcDbCircle
 10
10627.40902291475
 20
30054.38361494592
 30
0.0
 40
13.73384355433473
100
AcDbArc
 50
304.5838437588785
 51
340.7813582537265
  0
ARC
  5
B8BD
330
1F
100
AcDbEntity
  8
freecads.com
100
AcDbCircle
 10
10661.34625464207
 20
30042.55302144348
 30
0.0
 40
22.20636568175683
100
AcDbArc
 50
156.0727252592312
 51
160.7813173557785
  0
ARC
  5
B8BE
330
1F
100
AcDbEntity
  8
freecads.com
100
AcDbCircle
 10
10642.71909717833
 20
30050.81804999598
 30
0.0
 40
1.827904205177454
100
AcDbArc
 50
126.7603711312965
 51
156.0726648085588
  0
ARC
  5
B8BF
330
1F
100
AcDbEntity
  8
freecads.com
100
AcDbCircle
 10
10642.14502872304
 20
30051.58653009449
 30
0.0
 40
0.8686773012762916
100
AcDbArc
 50
78.17269360666806
 51
126.7603473518644
  0
ARC
  5
B8C0
330
1F
100
AcDbEntity
  8
freecads.com
100
AcDbCircle
 10
10641.54838232318
 20
30048.73731431164
 30
0.0
 40
3.779693876925428
100
AcDbArc
 50
61.84499598687569
 51
78.17273947816104
  0
ARC
  5
B8C1
330
1F
100
AcDbEntity
  8
freecads.com
100
AcDbCircle
 10
10646.53949150099
 20
30058.06327301847
 30
0.0
 40
6.797861446785169
100
AcDbArc
 50
241.8449986942123
 51
260.7041927753737
  0
ARC
  5
B8C2
330
1F
100
AcDbEntity
  8
freecads.com
100
AcDbCircle
 10
10648.33569081611
 20
30069.03690292591
 30
0.0
 40
17.91752355159037
100
AcDbArc
 50
260.7041200290492
 51
269.8519158735086
  0
ARC
  5
B8C3
330
1F
100
AcDbEntity
  8
freecads.com
100
AcDbCircle
 10
10648.33560261725
 20
30069.00430728845
 30
0.0
 40
17.88492779504598
100
AcDbArc
 50
269.8519285386242
 51
279.0010972918131
  0
ARC
  5
B8C4
330
1F
100
AcDbEntity
  8
freecads.com
100
AcDbCircle
 10
10650.09393102542
 20
30057.90395560111
 30
0.0
 40
6.646176691243633
100
AcDbArc
 50
279.0012037387703
 51
298.1549257624545
  0
ARC
  5
B8C5
330
1F
100
AcDbEntity
  8
freecads.com
100
AcDbCircle
 10
10654.75492445226
 20
30049.19479387694
 30
0.0
 40
3.231796666832773
100
AcDbArc
 50
100.4359481794831
 51
118.1549169534475
  0
ARC
  5
B8C6
330
1F
100
AcDbEntity
  8
freecads.com
100
AcDbCircle
 10
10656.40121585373
 20
30040.25637277425
 30
0.0
 40
12.32056155473103
100
AcDbArc
 50
93.88624135762778
 51
100.4358863241567
  0
ARC
  5
B8C7
330
1F
100
AcDbEntity
  8
freecads.com
100
AcDbCircle
 10
10656.53553716036
 20
30038.27933629654
 30
0.0
 40
14.3021557229145
100
AcDbArc
 50
87.58261521306025
 51
93.88631103399717
  0
ARC
  5
B8C8
330
1F
100
AcDbEntity
  8
freecads.com
100
AcDbCircle
 10
10656.59354193664
 20
30039.65321589007
 30
0.0
 40
12.92705220260203
100
AcDbArc
 50
80.78247674250036
 51
87.58263539642008
  0
ARC
  5
B8C9
330
1F
100
AcDbEntity
  8
freecads.com
100
AcDbCircle
 10
10655.27879527792
 20
30031.5512089615
 30
0.0
 40
21.13504069226276
100
AcDbArc
 50
75.28941608497103
 51
80.78257082121469
  0
ARC
  5
B8CA
330
1F
100
AcDbEntity
  8
freecads.com
100
AcDbCircle
 10
10660.01854897147
 20
30049.60448448885
 30
0.0
 40
2.469938968949371
100
AcDbArc
 50
48.62621565655578
 51
75.28943737315209
  0
ARC
  5
B8CB
330
1F
100
AcDbEntity
  8
freecads.com
100
AcDbCircle
 10
10660.60280787663
 20
30050.26781102595
 30
0.0
 40
1.585992950751466
100
AcDbArc
 50
12.73065193339368
 51
48.62613660496082
  0
ARC
  5
B8CC
330
1F
100
AcDbEntity
  8
freecads.com
100
AcDbCircle
 10
10655.85058087715
 20
30049.19418553539
 30
0.0
 40
6.457987732009017
100
AcDbArc
 50
0.0817711686039603
 51
12.73059230804221
  0
ARC
  5
B8CD
330
1F
100
AcDbEntity
  8
freecads.com
100
AcDbCircle
 10
10670.00448529228
 20
30049.21438368014
 30
0.0
 40
7.695931094863103
100
AcDbArc
 50
180.0817564020151
 51
200.6264427291033
  0
ARC
  5
B8CE
330
1F
100
AcDbEntity
  8
freecads.com
100
AcDbCircle
 10
10680.08474786189
 20
30053.00860088007
 30
0.0
 40
18.46662177060068
100
AcDbArc
 50
200.6263998552454
 51
211.3098181218151
  0
ARC
  5
B8CF
330
1F
100
AcDbEntity
  8
freecads.com
100
AcDbCircle
 10
10681.0833625113
 20
30053.61597694139
 30
0.0
 40
19.63544036107523
100
AcDbArc
 50
211.3097543814336
 51
221.764019196399
  0
ARC
  5
B8D0
330
1F
100
AcDbEntity
  8
freecads.com
100
AcDbCircle
 10
10675.48041028597
 20
30048.61267475504
 30
0.0
 40
12.12370910875573
100
AcDbArc
 50
221.7639749874935
 51
236.7661513980777
  0
ARC
  5
B8D1
330
1F
100
AcDbEntity
  8
freecads.com
100
AcDbCircle
 10
10673.91389905235
 20
30046.2218867407
 30
0.0
 40
9.265418575133839
100
AcDbArc
 50
236.7661793131309
 51
258.0740633731722
  0
ARC
  5
B8D2
330
1F
100
AcDbEntity
  8
freecads.com
100
AcDbCircle
 10
10675.70588871202
 20
30054.70635175514
 30
0.0
 40
17.93706049125944
100
AcDbArc
 50
258.0739984921851
 51
271.0719161720485
  0
ARC
  5
B8D3
330
1F
100
AcDbEntity
  8
freecads.com
100
AcDbCircle
 10
10675.70869595255
 20
30054.55665029359
 30
0.0
 40
17.78733271110132
100
AcDbArc
 50
271.0718961112164
 51
284.1132182049151
  0
ARC
  5
B8D4
330
1F
100
AcDbEntity
  8
freecads.com
100
AcDbCircle
 10
10677.90688219902
 20
30045.81378686
 30
0.0
 40
8.772362728219906
100
AcDbArc
 50
284.1133045364663
 51
306.2422667514784
  0
ARC
  5
B8D5
330
1F
100
AcDbEntity
  8
freecads.com
100
AcDbCircle
 10
10677.40290919073
 20
30046.5012947049
 30
0.0
 40
9.624803828687136
100
AcDbArc
 50
306.2423342918182
 51
315.4095796156736
  0
ARC
  5
B8D6
330
1F
100
AcDbEntity
  8
freecads.com
100
AcDbCircle
 10
10669.11380360323
 20
30054.67279075937
 30
0.0
 40
21.26450396263222
100
AcDbArc
 50
315.4094628389695
 51
320.4777086798634
  0
ARC
  5
B8D7
330
1F
100
AcDbEntity
  8
freecads.com
100
AcDbCircle
 10
10668.57836171441
 20
30055.11453643971
 30
0.0
 40
21.958648949165
100
AcDbArc
 50
320.4776856115368
 51
325.5024077696244
  0
ARC
  5
B8D8
330
1F
100
AcDbEntity
  8
freecads.com
100
AcDbCircle
 10
10676.0714846034
 20
30049.96511664355
 30
0.0
 40
12.86670664476059
100
AcDbArc
 50
325.502417776444
 51
333.000675465012
  0
ARC
  5
B8D9
330
1F
100
AcDbEntity
  8
freecads.com
100
AcDbCircle
 10
10695.28195008021
 20
30040.1771869651
 30
0.0
 40
8.693570515474419
100
AcDbArc
 50
141.7845146796921
 51
153.00071134586
  0
ARC
  5
B8DA
330
1F
100
AcDbEntity
  8
freecads.com
100
AcDbCircle
 10
10701.42352407686
 20
30035.34157034298
 30
0.0
 40
16.5103549740801
100
AcDbArc
 50
134.8444887846667
 51
141.7845525264137
  0
ARC
  5
B8DB
330
1F
100
AcDbEntity
  8
freecads.com
100
AcDbCircle
 10
10701.51054649327
 20
30035.25402925587
 30
0.0
 40
16.63379055197969
100
AcDbArc
 50
127.9210308173736
 51
134.8443794914652
  0
ARC
  5
B8DC
330
1F
100
AcDbEntity
  8
freecads.com
100
AcDbCircle
 10
10696.95919483871
 20
30041.09607476101
 30
0.0
 40
9.228096960720774
100
AcDbArc
 50
117.1591824432144
 51
127.9210385702186
  0
ARC
  5
B8DD
330
1F
100
AcDbEntity
  8
freecads.com
100
AcDbCircle
 10
10688.10644767702
 20
30058.35187485115
 30
0.0
 40
10.16607146846882
100
AcDbArc
 50
297.1592063533169
 51
319.1880339333475
  0
ARC
  5
B8DE
330
1F
100
AcDbEntity
  8
freecads.com
100
AcDbCircle
 10
10689.17902785014
 20
30057.42565443737
 30
0.0
 40
8.748922047039801
100
AcDbArc
 50
319.1880491357319
 51
343.8408607904099
  0
ARC
  5
B8DF
330
1F
100
AcDbEntity
  8
freecads.com
100
AcDbCircle
 10
10688.73072314572
 20
30057.55554799203
 30
0.0
 40
9.215665492122081
100
AcDbArc
 50
343.8408869302524
 51
7.760586274584087
  0
ARC
  5
B8E0
330
1F
100
AcDbEntity
  8
freecads.com
100
AcDbCircle
 10
10686.00513311566
 20
30057.18409566373
 30
0.0
 40
11.96645044266918
100
AcDbArc
 50
7.760599890630483
 51
27.42720394107938
  0
ARC
  5
B8E1
330
1F
100
AcDbEntity
  8
freecads.com
100
AcDbCircle
 10
10684.22936426889
 20
30056.26255730959
 30
0.0
 40
13.96709732188393
100
AcDbArc
 50
27.42719402976379
 51
44.48763002835843
  0
ARC
  5
B8E2
330
1F
100
AcDbEntity
  8
freecads.com
100
AcDbCircle
 10
10684.94791679178
 20
30056.96840234281
 30
0.0
 40
12.95985607045756
100
AcDbArc
 50
44.48753441534246
 51
62.53292717331556
  0
ARC
  5
B8E3
330
1F
100
AcDbEntity
  8
freecads.com
100
AcDbCircle
 10
10685.73272884979
 20
30058.47815587627
 30
0.0
 40
11.25830216357239
100
AcDbArc
 50
62.53286640274962
 51
81.99880071666916
  0
ARC
  5
B8E4
330
1F
100
AcDbEntity
  8
freecads.com
100
AcDbCircle
 10
10686.18134759414
 20
30061.66981482779
 30
0.0
 40
8.035268555231995
100
AcDbArc
 50
81.99874567852258
 51
107.0617442094727
  0
ARC
  5
B8E5
330
1F
100
AcDbEntity
  8
freecads.com
100
AcDbCircle
 10
10676.46316766396
 20
30093.3344894646
 30
0.0
 40
25.08715045380992
100
AcDbArc
 50
282.4411054308109
 51
287.0617276629791
  0
ARC
  5
B8E6
330
1F
100
AcDbEntity
  8
freecads.com
100
AcDbCircle
 10
10681.45056028574
 20
30070.7278709814
 30
0.0
 40
1.936917530383906
100
AcDbArc
 50
252.3470579200586
 51
282.441107152909
  0
ARC
  5
B8E7
330
1F
100
AcDbEntity
  8
freecads.com
100
AcDbCircle
 10
10681.27149715172
 20
30070.16519896007
 30
0.0
 40
1.346440257702612
100
AcDbArc
 50
213.5598061066457
 51
252.3470843765631
  0
ARC
  5
B8E8
330
1F
100
AcDbEntity
  8
freecads.com
100
AcDbCircle
 10
10688.20463913362
 20
30074.76454911079
 30
0.0
 40
9.66644503835824
100
AcDbArc
 50
204.4954759677957
 51
213.5597519647478
  0
ARC
  5
B8E9
330
1F
100
AcDbEntity
  8
freecads.com
100
AcDbCircle
 10
10741.20777009307
 20
30098.91436230788
 30
0.0
 40
67.91200597616088
100
AcDbArc
 50
202.6102189175209
 51
204.4954367250051
  0
ARC
  5
B8EA
330
1F
100
AcDbEntity
  8
freecads.com
100
AcDbCircle
 10
10680.05029047967
 20
30073.44415944511
 30
0.0
 40
1.66271506271297
100
AcDbArc
 50
175.3242238006381
 51
202.6101381481485
  0
ARC
  5
B8EB
330
1F
100
AcDbEntity
  8
freecads.com
100
AcDbCircle
 10
10678.82540452305
 20
30073.54434215462
 30
0.0
 40
0.4337389921579985
100
AcDbArc
 50
104.15641607242
 51
175.3242367472606
  0
ARC
  5
B8EC
330
1F
100
AcDbEntity
  8
freecads.com
100
AcDbCircle
 10
10679.68039430956
 20
30070.15457145653
 30
0.0
 40
3.929672761643347
100
AcDbArc
 50
90.00000404333524
 51
104.1562612488457
  0
ARC
  5
B8ED
330
1F
100
AcDbEntity
  8
freecads.com
100
AcDbCircle
 10
10679.68039734931
 20
30081.06780269407
 30
0.0
 40
6.983558475898113
100
AcDbArc
 50
269.9999727855482
 51
292.7488529679049
  0
ARC
  5
B8EE
330
1F
100
AcDbEntity
  8
freecads.com
100
AcDbCircle
 10
10654.00714112289
 20
30142.29515136388
 30
0.0
 40
73.37560853011682
100
AcDbArc
 50
292.7488093103431
 51
296.798282722619
  0
ARC
  5
B8EF
330
1F
100
AcDbEntity
  8
freecads.com
100
AcDbCircle
 10
10649.9241037509
 20
30150.3785939909
 30
0.0
 40
82.43172463351308
100
AcDbArc
 50
296.7983452466811
 51
300.4035566545588
  0
ARC
  5
B8F0
330
1F
100
AcDbEntity
  8
freecads.com
100
AcDbCircle
 10
10689.51775667039
 20
30082.90243370062
 30
0.0
 40
4.196888664941507
100
AcDbArc
 50
300.4036245969404
 51
331.8449826140032
  0
ARC
  5
B8F1
330
1F
100
AcDbEntity
  8
freecads.com
100
AcDbCircle
 10
10687.33339554087
 20
30084.07146687205
 30
0.0
 40
6.674401954526916
100
AcDbArc
 50
331.8450124065313
 51
341.3323540898898
  0
ARC
  5
B8F2
330
1F
100
AcDbEntity
  8
freecads.com
100
AcDbCircle
 10
10665.29251623073
 20
30091.51807394744
 30
0.0
 40
29.93923201405341
100
AcDbArc
 50
341.3322625473496
 51
344.4462111183361
  0
ARC
  5
B8F3
330
1F
100
AcDbEntity
  8
freecads.com
100
AcDbCircle
 10
10661.56410780573
 20
30092.55582469908
 30
0.0
 40
33.80936844654998
100
AcDbArc
 50
344.4462091567715
 51
347.5244116856235
  0
ARC
  5
B8F4
330
1F
100
AcDbEntity
  8
freecads.com
100
AcDbCircle
 10
10665.55521896195
 20
30091.67280175859
 30
0.0
 40
29.72174104490358
100
AcDbArc
 50
347.5244093823732
 51
350.9149262425765
  0
ARC
  5
B8F5
330
1F
100
AcDbEntity
  8
freecads.com
100
AcDbCircle
 10
10742.9354878914
 20
30079.29917161065
 30
0.0
 40
48.64159695592281
100
AcDbArc
 50
167.773946089214
 51
170.9149332323649
  0
ARC
  5
B8F6
330
1F
100
AcDbEntity
  8
freecads.com
100
AcDbCircle
 10
10697.02805305141
 20
30089.24656168866
 30
0.0
 40
1.668805438371494
100
AcDbArc
 50
131.7487148473502
 51
167.7738798947463
  0
ARC
  5
B8F7
330
1F
100
AcDbEntity
  8
freecads.com
100
AcDbCircle
 10
10696.7017879566
 20
30089.6121271111
 30
0.0
 40
1.178818713886353
100
AcDbArc
 50
85.20853233733054
 51
131.7487071601666
  0
ARC
  5
B8F8
330
1F
100
AcDbEntity
  8
freecads.com
100
AcDbCircle
 10
10695.09617152157
 20
30070.45725868261
 30
0.0
 40
20.40086305493442
100
AcDbArc
 50
79.3747631090239
 51
85.20850501279502
  0
ARC
  5
B8F9
330
1F
100
AcDbEntity
  8
freecads.com
100
AcDbCircle
 10
10701.23180528131
 20
30103.16310499841
 30
0.0
 40
12.87553075309286
100
AcDbArc
 50
259.3748095596003
 51
265.999564505216
  0
ARC
  5
B8FA
330
1F
100
AcDbEntity
  8
freecads.com
100
AcDbCircle
 10
10701.92964931274
 20
30113.14162982582
 30
0.0
 40
22.87842753469389
100
AcDbArc
 50
265.9995610413533
 51
270.3072379485766
  0
ARC
  5
B8FB
330
1F
100
AcDbEntity
  8
freecads.com
100
AcDbCircle
 10
10701.93257665388
 20
30112.59754114042
 30
0.0
 40
22.33433097449907
100
AcDbArc
 50
270.3072129650212
 51
274.6407783613383
  0
ARC
  5
B8FC
330
1F
100
AcDbEntity
  8
freecads.com
100
AcDbCircle
 10
10702.90867199872
 20
30100.57294986508
 30
0.0
 40
10.27018751294493
100
AcDbArc
 50
274.6407466396813
 51
282.3876219439971
  0
ARC
  5
B8FD
330
1F
100
AcDbEntity
  8
freecads.com
100
AcDbCircle
 10
10703.55717638324
 20
30097.62037610213
 30
0.0
 40
7.247233698820753
100
AcDbArc
 50
282.3875631704346
 51
295.8087477969168
  0
ARC
  5
B8FE
330
1F
100
AcDbEntity
  8
freecads.com
100
AcDbCircle
 10
10705.36581233318
 20
30093.88048178788
 30
0.0
 40
3.09296198392801
100
AcDbArc
 50
295.8088160205062
 51
321.1654828542151
  0
ARC
  5
B8FF
330
1F
100
AcDbEntity
  8
freecads.com
100
AcDbCircle
 10
10703.78596369226
 20
30095.15227371978
 30
0.0
 40
5.12110804529485
100
AcDbArc
 50
321.1655418786248
 51
339.4687418456515
  0
ARC
  5
B900
330
1F
100
AcDbEntity
  8
freecads.com
100
AcDbCircle
 10
10677.45113062115
 20
30105.01485822672
 30
0.0
 40
33.24216787667552
100
AcDbArc
 50
339.4687176538007
 51
344.0652853880834
  0
ARC
  5
B901
330
1F
100
AcDbEntity
  8
freecads.com
100
AcDbCircle
 10
10671.9060057868
 20
30106.59807234048
 30
0.0
 40
39.00888066286082
100
AcDbArc
 50
344.0652701309312
 51
351.220562330317
  0
ARC
  5
B902
330
1F
100
AcDbEntity
  8
freecads.com
100
AcDbCircle
 10
10686.33414998938
 20
30104.3697811957
 30
0.0
 40
24.40968114521045
100
AcDbArc
 50
351.2205581300096
 51
1.386636273210797
  0
ARC
  5
B903
330
1F
100
AcDbEntity
  8
freecads.com
100
AcDbCircle
 10
10693.80654171972
 20
30104.55064871714
 30
0.0
 40
16.93510080703406
100
AcDbArc
 50
1.386669755485966
 51
13.44682943589493
  0
ARC
  5
B904
330
1F
100
AcDbEntity
  8
freecads.com
100
AcDbCircle
 10
10705.13298329964
 20
30107.25877629652
 30
0.0
 40
5.289404870360788
100
AcDbArc
 50
13.44678888387029
 51
42.14473425684564
  0
ARC
  5
B905
330
1F
100
AcDbEntity
  8
freecads.com
100
AcDbCircle
 10
10712.60709839451
 20
30114.02276430179
 30
0.0
 40
4.790968643893841
100
AcDbArc
 50
191.8256808979871
 51
222.1447297537983
  0
ARC
  5
B906
330
1F
100
AcDbEntity
  8
freecads.com
100
AcDbCircle
 10
10739.33596356281
 20
30119.61921024509
 30
0.0
 40
32.099436934541
100
AcDbArc
 50
184.3818946617467
 51
191.8256647114655
  0
ARC
  5
B907
330
1F
100
AcDbEntity
  8
freecads.com
100
AcDbCircle
 10
10739.45154609412
 20
30119.62808642797
 30
0.0
 40
32.21535978731783
100
AcDbArc
 50
176.9777659820973
 51
184.3819289418705
  0
ARC
  5
B908
330
1F
100
AcDbEntity
  8
freecads.com
100
AcDbCircle
 10
10711.82987907219
 20
30121.08643127327
 30
0.0
 40
4.555221343022497
100
AcDbArc
 50
145.6259993175845
 51
176.9778436227767
  0
ARC
  5
B909
330
1F
100
AcDbEntity
  8
freecads.com
100
AcDbCircle
 10
10710.0067096205
 20
30122.33357031485
 30
0.0
 40
2.346306985558049
100
AcDbArc
 50
109.7672609125385
 51
145.6260731326838
  0
ARC
  5
B90A
330
1F
100
AcDbEntity
  8
freecads.com
100
AcDbCircle
 10
10732.09592119712
 20
30060.86833979631
 30
0.0
 40
67.66022457418457
100
AcDbArc
 50
106.6175924561848
 51
109.7672869175452
  0
ARC
  5
B90B
330
1F
100
AcDbEntity
  8
freecads.com
100
AcDbCircle
 10
10728.15666019323
 20
30074.0671972887
 30
0.0
 40
53.88605975920185
100
AcDbArc
 50
102.2793457363063
 51
106.6174931546328
  0
ARC
  5
B90C
330
1F
100
AcDbEntity
  8
freecads.com
100
AcDbCircle
 10
10724.11093987356
 20
30092.65454984722
 30
0.0
 40
34.86350661728064
100
AcDbArc
 50
96.26758240999503
 51
102.2792806868406
  0
ARC
  5
B90D
330
1F
100
AcDbEntity
  8
freecads.com
100
AcDbCircle
 10
10721.37725892835
 20
30117.54503438296
 30
0.0
 40
9.823354222901876
100
AcDbArc
 50
88.07159659747215
 51
96.26758526686192
  0
ARC
  5
B90E
330
1F
100
AcDbEntity
  8
freecads.com
100
AcDbCircle
 10
10721.67971380376
 20
30126.52803643027
 30
0.0
 40
0.8352618372087537
100
AcDbArc
 50
38.25875619248757
 51
88.0715871556907
  0
ARC
  5
B90F
330
1F
100
AcDbEntity
  8
freecads.com
100
AcDbCircle
 10
10721.44070450068
 20
30126.33955633916
 30
0.0
 40
1.139646777222152
100
AcDbArc
 50
358.3108097610944
 51
38.25880022708337
  0
ARC
  5
B910
330
1F
100
AcDbEntity
  8
freecads.com
100
AcDbCircle
 10
10702.72005567501
 20
30126.89161741674
 30
0.0
 40
19.86843381449506
100
AcDbArc
 50
353.3310430810411
 51
358.3108667446067
  0
ARC
  5
B911
330
1F
100
AcDbEntity
  8
freecads.com
100
AcDbCircle
 10
10713.36873593587
 20
30125.64653307729
 30
0.0
 40
9.147210642179576
100
AcDbArc
 50
342.9254972972967
 51
353.3310471401679
  0
ARC
  5
B912
330
1F
100
AcDbEntity
  8
freecads.com
100
AcDbCircle
 10
10654.81675707901
 20
30143.63101011385
 30
0.0
 40
70.39895055487599
100
AcDbArc
 50
340.6130754880544
 51
342.9254546782325
  0
ARC
  5
B913
330
1F
100
AcDbEntity
  8
freecads.com
100
AcDbCircle
 10
10646.46683606606
 20
30146.56922129579
 30
0.0
 40
79.2507450543642
100
AcDbArc
 50
338.2292794871769
 51
340.6131563039047
  0
ARC
  5
B914
330
1F
100
AcDbEntity
  8
freecads.com
100
AcDbCircle
 10
10641.07694121609
 20
30148.72178475272
 30
0.0
 40
85.05457964263987
100
AcDbArc
 50
335.9684903501882
 51
338.229308471956
  0
ARC
  5
B915
330
1F
100
AcDbEntity
  8
freecads.com
100
AcDbCircle
 10
10959.44930258242
 20
30006.76345289709
 30
0.0
 40
263.5327529803474
100
AcDbArc
 50
155.9684948863477
 51
156.7671948193514
  0
ARC
  5
B916
330
1F
100
AcDbEntity
  8
freecads.com
100
AcDbCircle
 10
11156.11513201916
 20
29922.33918334716
 30
0.0
 40
477.553559812463
100
AcDbArc
 50
156.7672094773878
 51
157.2789745294243
  0
ARC
  5
B917
330
1F
100
AcDbEntity
  8
freecads.com
100
AcDbCircle
 10
11144.95933613129
 20
29927.01081024118
 30
0.0
 40
465.4591032444263
100
AcDbArc
 50
157.2790024083088
 51
157.7932884620563
  0
ARC
  5
B918
330
1F
100
AcDbEntity
  8
freecads.com
100
AcDbCircle
 10
10900.41566481098
 20
30026.84062044878
 30
0.0
 40
201.3235354219559
100
AcDbArc
 50
157.7932802507726
 51
158.7553853287398
  0
ARC
  5
B919
330
1F
100
AcDbEntity
  8
freecads.com
100
AcDbCircle
 10
10839.61234182726
 20
30050.47921555726
 30
0.0
 40
136.0868336003498
100
AcDbArc
 50
158.7554069130397
 51
160.5434573202599
  0
ARC
  5
B91A
330
1F
100
AcDbEntity
  8
freecads.com
100
AcDbCircle
 10
10721.0033944715
 20
30092.37962457108
 30
0.0
 40
10.29443848694272
100
AcDbArc
 50
160.5434239436529
 51
172.3597081910305
  0
ARC
  5
B91B
330
1F
100
AcDbEntity
  8
freecads.com
100
AcDbCircle
 10
10714.47439960262
 20
30093.25545073806
 30
0.0
 40
3.70696207540108
100
AcDbArc
 50
172.3596886849849
 51
195.3976443444249
  0
ARC
  5
B91C
330
1F
100
AcDbEntity
  8
freecads.com
100
AcDbCircle
 10
10716.00897014914
 20
30093.67807547477
 30
0.0
 40
5.298665072295323
100
AcDbArc
 50
195.3976596043354
 51
213.0248157148851
  0
ARC
  5
B91D
330
1F
100
AcDbEntity
  8
freecads.com
100
AcDbCircle
 10
10687.65113557319
 20
30075.24482927376
 30
0.0
 40
28.52368474766234
100
AcDbArc
 50
23.80308925956307
 51
33.02479242157686
  0
ARC
  5
B91E
330
1F
100
AcDbEntity
  8
freecads.com
100
AcDbCircle
 10
10358.62656923663
 20
29930.10655677254
 30
0.0
 40
388.1377603865406
100
AcDbArc
 50
22.43579307797713
 51
23.80308333830858
  0
ARC
  5
B91F
330
1F
100
AcDbEntity
  8
freecads.com
100
AcDbCircle
 10
10376.9727488153
 20
29937.68124598156
 30
0.0
 40
368.2893795572236
100
AcDbArc
 50
20.99477647208633
 51
22.43586092567348
  0
ARC
  5
B920
330
1F
100
AcDbEntity
  8
freecads.com
100
AcDbCircle
 10
10687.56757131074
 20
30056.87493480134
 30
0.0
 40
35.60893346001355
100
AcDbArc
 50
12.98900932289963
 51
20.99478468146231
  0
ARC
  5
B921
330
1F
100
AcDbEntity
  8
freecads.com
100
AcDbCircle
 10
10670.30419515567
 20
30052.89285974084
 30
0.0
 40
53.32562271220684
100
AcDbArc
 50
8.347996555807577
 51
12.98900775896815
  0
ARC
  5
B922
330
1F
100
AcDbEntity
  8
freecads.com
100
AcDbCircle
 10
10716.32074584884
 20
30059.64530959735
 30
0.0
 40
6.816284759907701
100
AcDbArc
 50
347.2181293790238
 51
8.34809692298611
  0
ARC
  5
B923
330
1F
100
AcDbEntity
  8
freecads.com
100
AcDbCircle
 10
10715.84523941408
 20
30059.75318233195
 30
0.0
 40
7.30387361988201
100
AcDbArc
 50
327.079559085889
 51
347.2181405745865
  0
ARC
  5
B924
330
1F
100
AcDbEntity
  8
freecads.com
100
AcDbCircle
 10
10666.76356773414
 20
30091.5304326795
 30
0.0
 40
65.77441436091264
100
AcDbArc
 50
323.079309489222
 51
327.0795237267128
  0
ARC
  5
B925
330
1F
100
AcDbEntity
  8
freecads.com
100
AcDbCircle
 10
10754.11137561209
 20
30025.8985301179
 30
0.0
 40
43.48301639297131
100
AcDbArc
 50
143.0793354145817
 51
146.4455641429396
  0
ARC
  5
B926
330
1F
100
AcDbEntity
  8
freecads.com
100
AcDbCircle
 10
10738.96323501791
 20
30035.94555654922
 30
0.0
 40
25.30586305225206
100
AcDbArc
 50
146.4455279289915
 51
151.4945317655838
  0
ARC
  5
B927
330
1F
100
AcDbEntity
  8
freecads.com
100
AcDbCircle
 10
10738.13018423256
 20
30036.39791059765
 30
0.0
 40
24.35791907006682
100
AcDbArc
 50
151.4944106913532
 51
155.6733308376831
  0
ARC
  5
B928
330
1F
100
AcDbEntity
  8
freecads.com
100
AcDbCircle
 10
10716.5407212724
 20
30046.15802701495
 30
0.0
 40
0.6647811734694124
100
AcDbArc
 50
155.6733102972223
 51
211.7175403843346
  0
ARC
  5
B929
330
1F
100
AcDbEntity
  8
freecads.com
100
AcDbCircle
 10
10717.31524357713
 20
30046.63670576392
 30
0.0
 40
1.575285509112896
100
AcDbArc
 50
211.7174292230191
 51
273.7428505399659
  0
ARC
  5
B92A
330
1F
100
AcDbEntity
  8
freecads.com
100
AcDbCircle
 10
10716.41289395383
 20
30060.43005660471
 30
0.0
 40
15.39812032182477
100
AcDbArc
 50
273.7429031975036
 51
285.4007797399226
  0
ARC
  5
B92B
330
1F
100
AcDbEntity
  8
freecads.com
100
AcDbCircle
 10
10715.6806493332
 20
30063.08830465224
 30
0.0
 40
18.15537708655945
100
AcDbArc
 50
285.4007864275805
 51
296.7514163822532
  0
ARC
  5
B92C
330
1F
100
AcDbEntity
  8
freecads.com
100
AcDbCircle
 10
10719.09573682777
 20
30056.31329231038
 30
0.0
 40
10.56830816451573
100
AcDbArc
 50
296.7514642372392
 51
313.7729261947678
  0
ARC
  5
B92D
330
1F
100
AcDbEntity
  8
freecads.com
100
AcDbCircle
 10
10743.01839563172
 20
30031.34337706471
 30
0.0
 40
24.01189240787357
100
AcDbArc
 50
128.129762687982
 51
133.7729437685634
  0
ARC
  5
B92E
330
1F
100
AcDbEntity
  8
freecads.com
100
AcDbCircle
 10
10730.00082590366
 20
30047.92754538623
 30
0.0
 40
2.928919170174136
100
AcDbArc
 50
101.5632555414332
 51
128.129703793296
  0
ARC
  5
B92F
330
1F
100
AcDbEntity
  8
freecads.com
100
AcDbCircle
 10
10730.11328391278
 20
30047.37793358425
 30
0.0
 40
3.48991822245221
100
AcDbArc
 50
78.07695640617845
 51
101.5633550160897
  0
ARC
  5
B930
330
1F
100
AcDbEntity
  8
freecads.com
100
AcDbCircle
 10
10722.53987156179
 20
30011.51069656097
 30
0.0
 40
40.14800418343146
100
AcDbArc
 50
74.1563387956426
 51
78.07705023815983
  0
ARC
  5
B931
330
1F
100
AcDbEntity
  8
freecads.com
100
AcDbCircle
 10
10764.68243811459
 20
30160.008012093
 30
0.0
 40
114.2134179267848
100
AcDbArc
 50
254.1564282025805
 51
257.6619689464292
  0
ARC
  5
B932
330
1F
100
AcDbEntity
  8
freecads.com
100
AcDbCircle
 10
10741.34904915516
 20
30053.33166807258
 30
0.0
 40
5.015023186314254
100
AcDbArc
 50
257.6619615154664
 51
291.5503134398399
  0
ARC
  5
B933
330
1F
100
AcDbEntity
  8
freecads.com
100
AcDbCircle
 10
10742.57847414112
 20
30050.21861265279
 30
0.0
 40
1.66799467691669
100
AcDbArc
 50
291.55028485637
 51
4.499524893923261
  0
ARC
  5
B934
330
1F
100
AcDbEntity
  8
freecads.com
100
AcDbCircle
 10
10729.4602447875
 20
30049.18630583356
 30
0.0
 40
14.82677876752317
100
AcDbArc
 50
4.499483406388785
 51
19.2186659716926
  0
ARC
  5
B935
330
1F
100
AcDbEntity
  8
freecads.com
100
AcDbCircle
 10
10750.33525980977
 20
30056.46338262174
 30
0.0
 40
7.280281162764337
100
AcDbArc
 50
182.6816205927399
 51
199.2186744352518
  0
ARC
  5
B936
330
1F
100
AcDbEntity
  8
freecads.com
100
AcDbCircle
 10
10760.46850936761
 20
30056.93801033631
 30
0.0
 40
17.42464009118772
100
AcDbArc
 50
174.0661486886683
 51
182.6816650391022
  0
ARC
  5
B937
330
1F
100
AcDbEntity
  8
freecads.com
100
AcDbCircle
 10
10783.14021009247
 20
30054.58161145446
 30
0.0
 40
40.2184688491632
100
AcDbArc
 50
168.7251321234225
 51
174.0661942788237
  0
ARC
  5
B938
330
1F
100
AcDbEntity
  8
freecads.com
100
AcDbCircle
 10
10980.25492197076
 20
30015.2839735535
 30
0.0
 40
241.2122846332583
100
AcDbArc
 50
167.3050994883274
 51
168.7250999166105
  0
ARC
  5
B939
330
1F
100
AcDbEntity
  8
freecads.com
100
AcDbCircle
 10
10524.16511497733
 20
30118.02587487866
 30
0.0
 40
226.3064960924872
100
AcDbArc
 50
347.3050307628309
 51
349.0461014161819
  0
ARC
  5
B93A
330
1F
100
AcDbEntity
  8
freecads.com
100
AcDbCircle
 10
10710.83970650546
 20
30081.89590402055
 30
0.0
 40
36.16765756550178
100
AcDbArc
 50
349.0460381147587
 51
355.7978813901208
  0
ARC
  5
B93B
330
1F
100
AcDbEntity
  8
freecads.com
100
AcDbCircle
 10
10716.63108909457
 20
30081.4704369419
 30
0.0
 40
30.36066742201806
100
AcDbArc
 50
355.7978046464179
 51
3.380997255391894
  0
ARC
  5
B93C
330
1F
100
AcDbEntity
  8
freecads.com
100
AcDbCircle
 10
10620.06559357293
 20
30075.76549068342
 30
0.0
 40
127.0945360366488
100
AcDbArc
 50
3.38101439446684
 51
5.998630139640512
  0
ARC
  5
B93D
330
1F
100
AcDbEntity
  8
freecads.com
100
AcDbCircle
 10
10828.58225298574
 20
30097.67652234597
 30
0.0
 40
82.57017382461759
100
AcDbArc
 50
183.050871014263
 51
185.9986908899135
  0
ARC
  5
B93E
330
1F
100
AcDbEntity
  8
freecads.com
100
AcDbCircle
 10
10886.37654213735
 20
30100.75690007546
 30
0.0
 40
140.4464952824886
100
AcDbArc
 50
181.0705695144844
 51
183.0508915504078
  0
ARC
  5
B93F
330
1F
100
AcDbEntity
  8
freecads.com
100
AcDbCircle
 10
10881.05222490611
 20
30100.65753327355
 30
0.0
 40
135.1212509009756
100
AcDbArc
 50
179.0754065767887
 51
181.070624394655
  0
ARC
  5
B940
330
1F
100
AcDbEntity
  8
freecads.com
100
AcDbCircle
 10
10801.1423520322
 20
30101.94716712184
 30
0.0
 40
55.20097225915495
100
AcDbArc
 50
175.1812730052927
 51
179.0754069330603
  0
ARC
  5
B941
330
1F
100
AcDbEntity
  8
freecads.com
100
AcDbCircle
 10
11299.9171901077
 20
30059.89931447947
 30
0.0
 40
555.7450372614858
100
AcDbArc
 50
174.6548010840814
 51
175.1812337804508
  0
ARC
  5
B942
330
1F
100
AcDbEntity
  8
freecads.com
100
AcDbCircle
 10
10751.48501173805
 20
30111.21222706812
 30
0.0
 40
4.917596705359585
100
AcDbArc
 50
159.4052797079713
 51
174.6548100171001
  0
ARC
  5
B943
330
1F
100
AcDbEntity
  8
freecads.com
100
AcDbCircle
 10
10747.08691893064
 20
30112.86489910679
 30
0.0
 40
0.2192411196281478
100
AcDbArc
 50
28.36813488284474
 51
159.405317200892
  0
ARC
  5
B944
330
1F
100
AcDbEntity
  8
freecads.com
100
AcDbCircle
 10
10736.96067985178
 20
30107.39693312267
 30
0.0
 40
11.72747164763226
100
AcDbArc
 50
20.22298141900683
 51
28.36815607507316
  0
ARC
  5
B945
330
1F
100
AcDbEntity
  8
freecads.com
100
AcDbCircle
 10
10756.35873053245
 20
30114.54285174566
 30
0.0
 40
8.944938061358021
100
AcDbArc
 50
200.2229242311503
 51
209.6670241534265
  0
ARC
  5
B946
330
1F
100
AcDbEntity
  8
freecads.com
100
AcDbCircle
 10
10762.06743891995
 20
30117.79467836017
 30
0.0
 40
15.51484885103779
100
AcDbArc
 50
209.6669918321395
 51
215.9196181603689
  0
ARC
  5
B947
330
1F
100
AcDbEntity
  8
freecads.com
100
AcDbCircle
 10
10761.78892399995
 20
30117.59291258875
 30
0.0
 40
15.17093027473711
100
AcDbArc
 50
215.9195899553622
 51
222.2148124059174
  0
ARC
  5
B948
330
1F
100
AcDbEntity
  8
freecads.com
100
AcDbCircle
 10
10756.04229046177
 20
30112.37949246626
 30
0.0
 40
7.411835843333784
100
AcDbArc
 50
222.214908258624
 51
232.9726481754675
  0
ARC
  5
B949
330
1F
100
AcDbEntity
  8
freecads.com
100
AcDbCircle
 10
10738.17395650191
 20
30088.69090294507
 30
0.0
 40
22.26014811468409
100
AcDbArc
 50
48.16287247316441
 51
52.97271982973367
  0
ARC
  5
B94A
330
1F
100
AcDbEntity
  8
freecads.com
100
AcDbCircle
 10
10752.10277901339
 20
30104.24914330464
 30
0.0
 40
1.37783646959847
100
AcDbArc
 50
11.57650102878169
 51
48.16282340202878
  0
ARC
  5
B94B
330
1F
100
AcDbEntity
  8
freecads.com
100
AcDbCircle
 10
10752.22239991382
 20
30104.27364727223
 30
0.0
 40
1.25573157924394
100
AcDbArc
 50
332.4619416125954
 51
11.57648106232834
  0
ARC
  5
B94C
330
1F
100
AcDbEntity
  8
freecads.com
100
AcDbCircle
 10
10737.78135750878
 20
30111.80339397852
 30
0.0
 40
17.54194633913171
100
AcDbArc
 50
326.7662523109014
 51
332.4618842153392
  0
ARC
  5
B94D
330
1F
100
AcDbEntity
  8
freecads.com
100
AcDbCircle
 10
10759.56825867383
 20
30097.52808669357
 30
0.0
 40
8.505192859953629
100
AcDbArc
 50
146.76611833513
 51
177.893011393774
  0
ARC
  5
B94E
330
1F
100
AcDbEntity
  8
freecads.com
100
AcDbCircle
 10
11174.1083655982
 20
30082.27625617669
 30
0.0
 40
423.3257788763343
100
AcDbArc
 50
177.892916249996
 51
179.7710298596846
  0
ARC
  5
B94F
330
1F
100
AcDbEntity
  8
freecads.com
100
AcDbCircle
 10
11016.37750706116
 20
30082.90617086244
 30
0.0
 40
265.5936625301239
100
AcDbArc
 50
179.7709380053295
 51
182.8067492008901
  0
ARC
  5
B950
330
1F
100
AcDbEntity
  8
freecads.com
100
AcDbCircle
 10
10828.01387706197
 20
30073.67129496862
 30
0.0
 40
77.00378995155424
100
AcDbArc
 50
182.8066631372753
 51
190.4381601234036
  0
LINE
  5
B951
330
1F
100
AcDbEntity
  8
freecads.com
100
AcDbLine
 10
10752.28442103224
 20
30059.72019621817
 30
0.0
 11
10753.73315403224
 21
30051.85614921817
 31
0.0
  0
LINE
  5
B952
330
1F
100
AcDbEntity
  8
freecads.com
100
AcDbLine
 10
10753.73315403224
 20
30051.85614921817
 30
0.0
 11
10750.51898903224
 21
30048.98429321817
 31
0.0
  0
ARC
  5
B953
330
1F
100
AcDbEntity
  8
freecads.com
100
AcDbCircle
 10
10770.30014460565
 20
30026.84535073049
 30
0.0
 40
29.68883443808682
100
AcDbArc
 50
131.7808029424838
 51
135.0519406198994
  0
ARC
  5
B954
330
1F
100
AcDbEntity
  8
freecads.com
100
AcDbCircle
 10
10763.30496360447
 20
30033.82782427331
 30
0.0
 40
19.80513604050158
100
AcDbArc
 50
135.0518665183311
 51
139.4823409355234
  0
ARC
  5
B955
330
1F
100
AcDbEntity
  8
freecads.com
100
AcDbCircle
 10
10762.56063941001
 20
30034.46390149734
 30
0.0
 40
18.82604833209638
100
AcDbArc
 50
139.4822656314096
 51
143.2858977583855
  0
ARC
  5
B956
330
1F
100
AcDbEntity
  8
freecads.com
100
AcDbCircle
 10
10748.13315733459
 20
30045.22333955216
 30
0.0
 40
0.8283333023504154
100
AcDbArc
 50
143.2858628187164
 51
179.9999539320749
  0
ARC
  5
B957
330
1F
100
AcDbEntity
  8
freecads.com
100
AcDbCircle
 10
10748.10148361786
 20
30045.22333940089
 30
0.0
 40
0.7966595856127796
100
AcDbArc
 50
179.9999412211445
 51
250.535538604252
  0
ARC
  5
B958
330
1F
100
AcDbEntity
  8
freecads.com
100
AcDbCircle
 10
10755.38348903344
 20
30065.82766714893
 30
0.0
 40
22.64994137167759
100
AcDbArc
 50
250.5355149517924
 51
256.8185998417668
  0
ARC
  5
B959
330
1F
100
AcDbEntity
  8
freecads.com
100
AcDbCircle
 10
10754.70467353823
 20
30062.92919662986
 30
0.0
 40
19.67304335093147
100
AcDbArc
 50
256.8185374171615
 51
264.402645755259
  0
ARC
  5
B95A
330
1F
100
AcDbEntity
  8
freecads.com
100
AcDbCircle
 10
10753.22267172817
 20
30047.80742384089
 30
0.0
 40
4.478822684969943
100
AcDbArc
 50
264.4026968693751
 51
287.1570234177784
  0
ARC
  5
B95B
330
1F
100
AcDbEntity
  8
freecads.com
100
AcDbCircle
 10
10759.16616030734
 20
30028.55600706169
 30
0.0
 40
15.66918229064199
100
AcDbArc
 50
104.6267146603798
 51
107.1570226522164
  0
ARC
  5
B95C
330
1F
100
AcDbEntity
  8
freecads.com
100
AcDbCircle
 10
10776.13585645284
 20
29963.5332692007
 30
0.0
 40
82.86982980392842
100
AcDbArc
 50
103.8900026357397
 51
104.6268238216647
  0
ARC
  5
B95D
330
1F
100
AcDbEntity
  8
freecads.com
100
AcDbCircle
 10
10778.55558531836
 20
29953.74817720518
 30
0.0
 40
92.94966676406826
100
AcDbArc
 50
103.1499581223788
 51
103.8899878385411
  0
ARC
  5
B95E
330
1F
100
AcDbEntity
  8
freecads.com
100
AcDbCircle
 10
10776.76874651641
 20
29961.39613206617
 30
0.0
 40
85.09575013258306
100
AcDbArc
 50
102.3592317051233
 51
103.1499103253308
  0
ARC
  5
B95F
330
1F
100
AcDbEntity
  8
freecads.com
100
AcDbCircle
 10
10761.57250564492
 20
30030.74784656523
 30
0.0
 40
14.09866539958191
100
AcDbArc
 50
95.56044115973769
 51
102.359225925044
  0
ARC
  5
B960
330
1F
100
AcDbEntity
  8
freecads.com
100
AcDbCircle
 10
10760.28759442754
 20
30043.94620548526
 30
0.0
 40
0.8379084446302579
100
AcDbArc
 50
42.41250829125649
 51
95.56041620333465
  0
ARC
  5
B961
330
1F
100
AcDbEntity
  8
freecads.com
100
AcDbCircle
 10
10759.96085477411
 20
30043.6477189433
 30
0.0
 40
1.280461285372294
100
AcDbArc
 50
3.402409779396245
 51
42.41255476005092
  0
ARC
  5
B962
330
1F
100
AcDbEntity
  8
freecads.com
100
AcDbCircle
 10
10723.99562469311
 20
30041.50945072641
 30
0.0
 40
37.30919933913272
100
AcDbArc
 50
0.0000115051001412
 51
3.402443270252099
  0
LINE
  5
B963
330
1F
100
AcDbEntity
  8
freecads.com
100
AcDbLine
 10
10761.30482403224
 20
30041.50945821817
 30
0.0
 11
10761.30482403224
 21
30037.89656821817
 31
0.0
  0
LINE
  5
B964
330
1F
100
AcDbEntity
  8
freecads.com
100
AcDbLine
 10
10761.30482403224
 20
30037.89656821817
 30
0.0
 11
10756.22147403224
 21
30038.59570821817
 31
0.0
  0
ARC
  5
B965
330
1F
100
AcDbEntity
  8
freecads.com
100
AcDbCircle
 10
10739.49054497102
 20
29916.94712075408
 30
0.0
 40
122.7937409612569
100
AcDbArc
 50
82.16895970954857
 51
83.70446362446719
  0
ARC
  5
B966
330
1F
100
AcDbEntity
  8
freecads.com
100
AcDbCircle
 10
10752.68621668354
 20
30036.55745854952
 30
0.0
 40
2.457717013798953
100
AcDbArc
 50
83.70444537329078
 51
109.2218359201822
  0
ARC
  5
B967
330
1F
100
AcDbEntity
  8
freecads.com
100
AcDbCircle
 10
10752.0954948329
 20
30038.25170508976
 30
0.0
 40
0.6634417718283105
100
AcDbArc
 50
109.2219425934724
 51
175.0334300925335
  0
ARC
  5
B968
330
1F
100
AcDbEntity
  8
freecads.com
100
AcDbCircle
 10
10757.45310458218
 20
30037.78613111159
 30
0.0
 40
6.041242563490137
100
AcDbArc
 50
175.0334904974448
 51
188.0556233867012
  0
ARC
  5
B969
330
1F
100
AcDbEntity
  8
freecads.com
100
AcDbCircle
 10
10754.57864382235
 20
30037.37931132163
 30
0.0
 40
3.138136123610174
100
AcDbArc
 50
188.0557208424909
 51
211.5688797225601
  0
ARC
  5
B96A
330
1F
100
AcDbEntity
  8
freecads.com
100
AcDbCircle
 10
10757.17450514156
 20
30038.97434716157
 30
0.0
 40
6.184877878212503
100
AcDbArc
 50
211.5688341663853
 51
225.7223516520408
  0
ARC
  5
B96B
330
1F
100
AcDbEntity
  8
freecads.com
100
AcDbCircle
 10
10760.05301747513
 20
30041.92637929675
 30
0.0
 40
10.3080231559855
100
AcDbArc
 50
225.7223823644991
 51
236.4373590226794
  0
ARC
  5
B96C
330
1F
100
AcDbEntity
  8
freecads.com
100
AcDbCircle
 10
10769.25759593853
 20
30055.80003136852
 30
0.0
 40
26.95742213906056
100
AcDbArc
 50
236.4373948582698
 51
241.6648426108676
  0
ARC
  5
B96D
330
1F
100
AcDbEntity
  8
freecads.com
100
AcDbCircle
 10
10731.94018132884
 20
29986.59578558082
 30
0.0
 40
51.66711008974366
100
AcDbArc
 50
59.20216162931277
 51
61.66486862390107
  0
ARC
  5
B96E
330
1F
100
AcDbEntity
  8
freecads.com
100
AcDbCircle
 10
10728.0148350025
 20
29980.01032106776
 30
0.0
 40
59.33370559447449
100
AcDbArc
 50
56.98216877251416
 51
59.20219619778373
  0
ARC
  5
B96F
330
1F
100
AcDbEntity
  8
freecads.com
100
AcDbCircle
 10
10731.55075508395
 20
29985.45137074954
 30
0.0
 40
52.84465693849234
100
AcDbArc
 50
54.74637753525875
 51
56.98221710139834
  0
ARC
  5
B970
330
1F
100
AcDbEntity
  8
freecads.com
100
AcDbCircle
 10
10755.35952760939
 20
30019.13549125625
 30
0.0
 40
11.59568575764079
100
AcDbArc
 50
47.85529935699346
 51
54.74636255490699
  0
ARC
  5
B971
330
1F
100
AcDbEntity
  8
freecads.com
100
AcDbCircle
 10
10770.40917554666
 20
30035.76517999482
 30
0.0
 40
10.83283293123838
100
AcDbArc
 50
227.8553466549951
 51
236.0385174508547
  0
ARC
  5
B972
330
1F
100
AcDbEntity
  8
freecads.com
100
AcDbCircle
 10
10765.4966845991
 20
30028.47154728161
 30
0.0
 40
2.039105310659394
100
AcDbArc
 50
236.0386173490382
 51
264.2285774670016
  0
ARC
  5
B973
330
1F
100
AcDbEntity
  8
freecads.com
100
AcDbCircle
 10
10765.53114082625
 20
30028.81243659965
 30
0.0
 40
2.381731577513361
100
AcDbArc
 50
264.2285361990198
 51
289.6153123436347
  0
ARC
  5
B974
330
1F
100
AcDbEntity
  8
freecads.com
100
AcDbCircle
 10
10760.67316514422
 20
30042.44369306687
 30
0.0
 40
16.85277440802641
100
AcDbArc
 50
289.6153069692892
 51
295.6077670650941
  0
ARC
  5
B975
330
1F
100
AcDbEntity
  8
freecads.com
100
AcDbCircle
 10
10765.17824266454
 20
30033.04412649443
 30
0.0
 40
6.429359650197814
100
AcDbArc
 50
295.6078234406987
 51
311.3781859223842
  0
ARC
  5
B976
330
1F
100
AcDbEntity
  8
freecads.com
100
AcDbCircle
 10
10765.72858544984
 20
30032.41940128061
 30
0.0
 40
5.596798076433136
100
AcDbArc
 50
311.3782166553146
 51
328.8768710887069
  0
ARC
  5
B977
330
1F
100
AcDbEntity
  8
freecads.com
100
AcDbCircle
 10
10761.80300128942
 20
30034.7896430416
 30
0.0
 40
10.18245582706756
100
AcDbArc
 50
328.8767932684116
 51
341.0187719734722
  0
ARC
  5
B978
330
1F
100
AcDbEntity
  8
freecads.com
100
AcDbCircle
 10
10724.35162241994
 20
30047.67141966782
 30
0.0
 40
49.78732861151845
100
AcDbArc
 50
341.0188195719057
 51
344.7617346339439
  0
ARC
  5
B979
330
1F
100
AcDbEntity
  8
freecads.com
100
AcDbCircle
 10
10831.47285282988
 20
30018.49044789949
 30
0.0
 40
61.23738538444727
100
AcDbArc
 50
161.976662568304
 51
164.7617878905931
  0
ARC
  5
B97A
330
1F
100
AcDbEntity
  8
freecads.com
100
AcDbCircle
 10
10940.16640026298
 20
29983.12508343129
 30
0.0
 40
175.5395999629004
100
AcDbArc
 50
160.7070826879169
 51
161.9767441726088
  0
ARC
  5
B97B
330
1F
100
AcDbEntity
  8
freecads.com
100
AcDbCircle
 10
10951.05319627248
 20
29979.31453005733
 30
0.0
 40
187.0740112702921
100
AcDbArc
 50
159.4508399206172
 51
160.7072091882729
  0
ARC
  5
B97C
330
1F
100
AcDbEntity
  8
freecads.com
100
AcDbCircle
 10
10890.98755803644
 20
30001.83098370207
 30
0.0
 40
122.9267464694292
100
AcDbArc
 50
157.7299676348456
 51
159.4508713243838
  0
ARC
  5
B97D
330
1F
100
AcDbEntity
  8
freecads.com
100
AcDbCircle
 10
10706.10981757539
 20
30077.5419779267
 30
0.0
 40
76.85296612538827
100
AcDbArc
 50
337.7299364536727
 51
340.6211572853245
  0
ARC
  5
B97E
330
1F
100
AcDbEntity
  8
freecads.com
100
AcDbCircle
 10
10623.51925956181
 20
30106.59252523502
 30
0.0
 40
164.4037203877219
100
AcDbArc
 50
340.6211257173553
 51
342.2583820595937
  0
ARC
  5
B97F
330
1F
100
AcDbEntity
  8
freecads.com
100
AcDbCircle
 10
10621.74079466061
 20
30107.16162694979
 30
0.0
 40
166.2710216912216
100
AcDbArc
 50
342.2583500804453
 51
343.8919396796308
  0
ARC
  5
B980
330
1F
100
AcDbEntity
  8
freecads.com
100
AcDbCircle
 10
10698.50188812121
 20
30084.99395328352
 30
0.0
 40
86.37314171283337
100
AcDbArc
 50
343.8919547842947
 51
346.5588383504381
  0
ARC
  5
B981
330
1F
100
AcDbEntity
  8
freecads.com
100
AcDbCircle
 10
10934.11056086856
 20
30028.68525560308
 30
0.0
 40
155.8707769068923
100
AcDbArc
 50
165.2772974497749
 51
166.5588760876133
  0
ARC
  5
B982
330
1F
100
AcDbEntity
  8
freecads.com
100
AcDbCircle
 10
10877.89754161284
 20
30043.45626279489
 30
0.0
 40
97.74947111199344
100
AcDbArc
 50
163.459448666191
 51
165.2772910349316
  0
ARC
  5
B983
330
1F
100
AcDbEntity
  8
freecads.com
100
AcDbCircle
 10
10911.44198352161
 20
30033.49413910741
 30
0.0
 40
132.7419487512663
100
AcDbArc
 50
162.3392197926391
 51
163.4594579519033
  0
ARC
  5
B984
330
1F
100
AcDbEntity
  8
freecads.com
100
AcDbCircle
 10
10786.68230751188
 20
30073.21595509697
 30
0.0
 40
1.811435029064878
100
AcDbArc
 50
138.1604921943136
 51
162.3392739135143
  0
ARC
  5
B985
330
1F
100
AcDbEntity
  8
freecads.com
100
AcDbCircle
 10
10785.60287731366
 20
30074.18241768276
 30
0.0
 40
0.3625666835685551
100
AcDbArc
 50
54.74959341694693
 51
138.1605445571429
  0
ARC
  5
B986
330
1F
100
AcDbEntity
  8
freecads.com
100
AcDbCircle
 10
10780.8926226973
 20
30067.5176462183
 30
0.0
 40
8.523796812936391
100
AcDbArc
 50
46.23003150303683
 51
54.74965426408079
  0
ARC
  5
B987
330
1F
100
AcDbEntity
  8
freecads.com
100
AcDbCircle
 10
10777.44741938577
 20
30063.92125120359
 30
0.0
 40
13.5041063374172
100
AcDbArc
 50
38.79404169392037
 51
46.2300277261811
  0
ARC
  5
B988
330
1F
100
AcDbEntity
  8
freecads.com
100
AcDbCircle
 10
10765.8429636659
 20
30054.59303029649
 30
0.0
 40
28.39299809758422
100
AcDbArc
 50
34.52872631680137
 51
38.79401917711902
  0
ARC
  5
B989
330
1F
100
AcDbEntity
  8
freecads.com
100
AcDbCircle
 10
10831.51573270888
 20
30099.77712435274
 30
0.0
 40
51.32221343357552
100
AcDbArc
 50
214.5286844741475
 51
217.5995544630075
  0
ARC
  5
B98A
330
1F
100
AcDbEntity
  8
freecads.com
100
AcDbCircle
 10
10936.51514900065
 20
30180.63648544516
 30
0.0
 40
183.8481116492753
100
AcDbArc
 50
217.5996101955177
 51
218.7876848369616
  0
ARC
  5
B98B
330
1F
100
AcDbEntity
  8
freecads.com
100
AcDbCircle
 10
10950.33900534316
 20
30191.74635464289
 30
0.0
 40
201.5830544956457
100
AcDbArc
 50
218.7877057932933
 51
219.9629465211883
  0
ARC
  5
B98C
330
1F
100
AcDbEntity
  8
freecads.com
100
AcDbCircle
 10
10912.82338813114
 20
30160.30848482254
 30
0.0
 40
152.6365408953581
100
AcDbArc
 50
219.9629894906284
 51
221.4107199906176
  0
ARC
  5
B98D
330
1F
100
AcDbEntity
  8
freecads.com
100
AcDbCircle
 10
10759.08390430237
 20
30024.71776341452
 30
0.0
 40
52.35290424726834
100
AcDbArc
 50
34.64216406900649
 51
41.41072315952664
  0
ARC
  5
B98E
330
1F
100
AcDbEntity
  8
freecads.com
100
AcDbCircle
 10
10772.70834158765
 20
30034.13143788014
 30
0.0
 40
35.79263376985171
100
AcDbArc
 50
25.64173155281766
 51
34.64216472594643
  0
ARC
  5
B98F
330
1F
100
AcDbEntity
  8
freecads.com
100
AcDbCircle
 10
10779.642071807
 20
30037.45974603951
 30
0.0
 40
28.1014537590664
100
AcDbArc
 50
15.48181156002769
 51
25.64171391907543
  0
ARC
  5
B990
330
1F
100
AcDbEntity
  8
freecads.com
100
AcDbCircle
 10
10791.29384732749
 20
30040.68709210416
 30
0.0
 40
16.01097670475297
100
AcDbArc
 50
0.0000004079187074
 51
15.48179194222064
  0
ARC
  5
B991
330
1F
100
AcDbEntity
  8
freecads.com
100
AcDbCircle
 10
10805.10492100871
 20
30040.68709218517
 30
0.0
 40
2.199903023527781
100
AcDbArc
 50
330.6466754078375
 51
0.0000008594015487
  0
ARC
  5
B992
330
1F
100
AcDbEntity
  8
freecads.com
100
AcDbCircle
 10
10787.08687567299
 20
30050.82044634119
 30
0.0
 40
22.87198139439892
100
AcDbArc
 50
325.3818094735801
 51
330.6465945036042
  0
ARC
  5
B993
330
1F
100
AcDbEntity
  8
freecads.com
100
AcDbCircle
 10
10783.70175752168
 20
30053.15725287276
 30
0.0
 40
26.98533643185035
100
AcDbArc
 50
319.9988587489825
 51
325.3818384616076
  0
ARC
  5
B994
330
1F
100
AcDbEntity
  8
freecads.com
100
AcDbCircle
 10
10777.49879137531
 20
30058.36237065939
 30
0.0
 40
35.08286940095395
100
AcDbArc
 50
315.5773183521037
 51
319.9988579607581
  0
ARC
  5
B995
330
1F
100
AcDbEntity
  8
freecads.com
100
AcDbCircle
 10
10935.75487865003
 20
29903.26331264557
 30
0.0
 40
186.5039238794658
100
AcDbArc
 50
135.5772146775587
 51
136.8975240140174
  0
ARC
  5
B996
330
1F
100
AcDbEntity
  8
freecads.com
100
AcDbCircle
 10
10802.93937662989
 20
30027.56062061966
 30
0.0
 40
4.597963706448443
100
AcDbArc
 50
136.8974641514962
 51
155.9171314149167
  0
ARC
  5
B997
330
1F
100
AcDbEntity
  8
freecads.com
100
AcDbCircle
 10
10799.62495493968
 20
30029.04204437323
 30
0.0
 40
0.9675357043872955
100
AcDbArc
 50
155.9171548095884
 51
212.881274967048
  0
ARC
  5
B998
330
1F
100
AcDbEntity
  8
freecads.com
100
AcDbCircle
 10
10802.01719679015
 20
30030.58854855085
 30
0.0
 40
3.816131190328931
100
AcDbArc
 50
212.8813040374723
 51
233.4753235687021
  0
ARC
  5
B999
330
1F
100
AcDbEntity
  8
freecads.com
100
AcDbCircle
 10
10803.54139665782
 20
30032.64652590934
 30
0.0
 40
6.377079460925908
100
AcDbArc
 50
233.4752900450124
 51
259.8915849393165
  0
ARC
  5
B99A
330
1F
100
AcDbEntity
  8
freecads.com
100
AcDbCircle
 10
10804.71753567079
 20
30039.24379982532
 30
0.0
 40
13.0783723287306
100
AcDbArc
 50
259.8916460612743
 51
275.3294062196567
  0
ARC
  5
B99B
330
1F
100
AcDbEntity
  8
freecads.com
100
AcDbCircle
 10
10804.09829223645
 20
30045.88187736797
 30
0.0
 40
19.74527085002453
100
AcDbArc
 50
275.3294386372659
 51
287.7413066284689
  0
ARC
  5
B99C
330
1F
100
AcDbEntity
  8
freecads.com
100
AcDbCircle
 10
10798.5167171507
 20
30063.32785769217
 30
0.0
 40
38.0623724196015
100
AcDbArc
 50
287.7412935639604
 51
295.3363906318869
  0
ARC
  5
B99D
330
1F
100
AcDbEntity
  8
freecads.com
100
AcDbCircle
 10
10774.37306940544
 20
30114.32053725819
 30
0.0
 40
94.48195320291121
100
AcDbArc
 50
295.3363262907206
 51
299.0123374130895
  0
ARC
  5
B99E
330
1F
100
AcDbEntity
  8
freecads.com
100
AcDbCircle
 10
10817.57732932956
 20
30036.41757638449
 30
0.0
 40
5.400645463983152
100
AcDbArc
 50
299.0122255678213
 51
328.582176375882
  0
ARC
  5
B99F
330
1F
100
AcDbEntity
  8
freecads.com
100
AcDbCircle
 10
10819.51933020107
 20
30035.23134306064
 30
0.0
 40
3.125009973936759
100
AcDbArc
 50
328.5822008239297
 51
12.07553190996126
  0
ARC
  5
B9A0
330
1F
100
AcDbEntity
  8
freecads.com
100
AcDbCircle
 10
10799.89907318013
 20
30031.03387451087
 30
0.0
 40
23.18923753928588
100
AcDbArc
 50
12.07556330614784
 51
22.00420631454292
  0
ARC
  5
B9A1
330
1F
100
AcDbEntity
  8
freecads.com
100
AcDbCircle
 10
10225.14383687136
 20
29798.76792148098
 30
0.0
 40
643.1013721206461
100
AcDbArc
 50
22.00426246450437
 51
23.01564099909331
  0
ARC
  5
B9A2
330
1F
100
AcDbEntity
  8
freecads.com
100
AcDbCircle
 10
10665.05661981756
 20
29985.64128780051
 30
0.0
 40
165.1422612766172
100
AcDbArc
 50
23.01572913398112
 51
25.79489657335154
  0
ARC
  5
B9A3
330
1F
100
AcDbEntity
  8
freecads.com
100
AcDbCircle
 10
10724.9734330077
 20
30014.5994929619
 30
0.0
 40
98.5945178963324
100
AcDbArc
 50
25.79496472127412
 51
29.5456699271014
  0
ARC
  5
B9A4
330
1F
100
AcDbEntity
  8
freecads.com
100
AcDbCircle
 10
10737.69296286214
 20
30021.80914695159
 30
0.0
 40
83.97379457769597
100
AcDbArc
 50
29.54572914985769
 51
33.77619814254904
  0
ARC
  5
B9A5
330
1F
100
AcDbEntity
  8
freecads.com
100
AcDbCircle
 10
10871.69123015228
 20
30111.43265699075
 30
0.0
 40
77.23386401364918
100
AcDbArc
 50
210.251459029414
 51
213.7762466265063
  0
ARC
  5
B9A6
330
1F
100
AcDbEntity
  8
freecads.com
100
AcDbCircle
 10
10836.3936735569
 20
30090.8465907092
 30
0.0
 40
36.37185688543996
100
AcDbArc
 50
204.0612128684558
 51
210.2515473158015
  0
ARC
  5
B9A7
330
1F
100
AcDbEntity
  8
freecads.com
100
AcDbCircle
 10
10832.62286248969
 20
30089.16288705091
 30
0.0
 40
32.24222323177528
100
AcDbArc
 50
197.4227169638528
 51
204.0612113862355
  0
ARC
  5
B9A8
330
1F
100
AcDbEntity
  8
freecads.com
100
AcDbCircle
 10
10848.24657505884
 20
30094.06587988412
 30
0.0
 40
48.6171960001725
100
AcDbArc
 50
192.5427870116756
 51
197.4227330657201
  0
ARC
  5
B9A9
330
1F
100
AcDbEntity
  8
freecads.com
100
AcDbCircle
 10
10871.07119752025
 20
30099.14396436998
 30
0.0
 40
71.99988901326928
100
AcDbArc
 50
190.1557811925892
 51
192.5428662251877
  0
ARC
  5
B9AA
330
1F
100
AcDbEntity
  8
freecads.com
100
AcDbCircle
 10
10845.25545737859
 20
30094.5195740047
 30
0.0
 40
45.77323415011334
100
AcDbArc
 50
186.8042522969486
 51
190.15581645591
  0
ARC
  5
B9AB
330
1F
100
AcDbEntity
  8
freecads.com
100
AcDbCircle
 10
10850.28091207054
 20
30095.11921693221
 30
0.0
 40
50.83433743902982
100
AcDbArc
 50
184.3225426162062
 51
186.8042695961832
  0
ARC
  5
B9AC
330
1F
100
AcDbEntity
  8
freecads.com
100
AcDbCircle
 10
10800.8258328425
 20
30091.38110316917
 30
0.0
 40
1.238184806424189
100
AcDbArc
 50
148.2824291014282
 51
184.3225729712813
  0
ARC
  5
B9AD
330
1F
100
AcDbEntity
  8
freecads.com
100
AcDbCircle
 10
10798.28995387443
 20
30092.94836330191
 30
0.0
 40
1.742920100211906
100
AcDbArc
 50
328.2825734652312
 51
357.9068413583426
  0
ARC
  5
B9AE
330
1F
100
AcDbEntity
  8
freecads.com
100
AcDbCircle
 10
10067.11400818517
 20
30119.67095385858
 30
0.0
 40
733.4070236345064
100
AcDbArc
 50
357.9069187842824
 51
358.3286152455618
  0
ARC
  5
B9AF
330
1F
100
AcDbEntity
  8
freecads.com
100
AcDbCircle
 10
10484.07288974298
 20
30107.50413508659
 30
0.0
 40
316.2706665654031
100
AcDbArc
 50
358.3286497067374
 51
359.4681387799498
  0
ARC
  5
B9B0
330
1F
100
AcDbEntity
  8
freecads.com
100
AcDbCircle
 10
10239.76032111346
 20
30109.77194705998
 30
0.0
 40
560.5937603602564
100
AcDbArc
 50
359.4681531542317
 51
0.2104746775973711
  0
ARC
  5
B9B1
330
1F
100
AcDbEntity
  8
freecads.com
100
AcDbCircle
 10
10237.72062950374
 20
30109.7643309977
 30
0.0
 40
562.6334661851289
100
AcDbArc
 50
0.2104872308225349
 51
1.218428085290748
  0
ARC
  5
B9B2
330
1F
100
AcDbEntity
  8
freecads.com
100
AcDbCircle
 10
10674.49685517587
 20
30119.05408749089
 30
0.0
 40
125.7584601615712
100
AcDbArc
 50
1.218402779438015
 51
4.283544217140955
  0
ARC
  5
B9B3
330
1F
100
AcDbEntity
  8
freecads.com
100
AcDbCircle
 10
10729.42697757686
 20
30123.16851557099
 30
0.0
 40
70.67446189162648
100
AcDbArc
 50
4.283482267863546
 51
8.584973413452647
  0
ARC
  5
B9B4
330
1F
100
AcDbEntity
  8
freecads.com
100
AcDbCircle
 10
10740.02609771333
 20
30124.76866803914
 30
0.0
 40
59.95523451332931
100
AcDbArc
 50
8.584945551870074
 51
13.45114683502071
  0
ARC
  5
B9B5
330
1F
100
AcDbEntity
  8
freecads.com
100
AcDbCircle
 10
10857.98212388096
 20
30152.98105173254
 30
0.0
 40
61.3277515272671
100
AcDbArc
 50
190.2432488102484
 51
193.4511445850844
  0
ARC
  5
B9B6
330
1F
100
AcDbEntity
  8
freecads.com
100
AcDbCircle
 10
10856.40401902395
 20
30152.69595629701
 30
0.0
 40
59.72410120981568
100
AcDbArc
 50
186.9710413375013
 51
190.2433246972275
  0
ARC
  5
B9B7
330
1F
100
AcDbEntity
  8
freecads.com
100
AcDbCircle
 10
10848.98289092304
 20
30151.78861691056
 30
0.0
 40
52.24771123543032
100
AcDbArc
 50
183.7224172328246
 51
186.9710995087609
  0
ARC
  5
B9B8
330
1F
100
AcDbEntity
  8
freecads.com
100
AcDbCircle
 10
10804.9913519518
 20
30148.92653517195
 30
0.0
 40
8.163167312000739
100
AcDbArc
 50
170.9169153140692
 51
183.7224717155956
  0
ARC
  5
B9B9
330
1F
100
AcDbEntity
  8
freecads.com
100
AcDbCircle
 10
10785.53011200355
 20
30152.03782117901
 30
0.0
 40
11.54520555185591
100
AcDbArc
 50
350.9169494304908
 51
0.3484656449898982
  0
ARC
  5
B9BA
330
1F
100
AcDbEntity
  8
freecads.com
100
AcDbCircle
 10
10793.28056645741
 20
30152.08495292212
 30
0.0
 40
3.794607791526838
100
AcDbArc
 50
0.3485579978678937
 51
21.96654133028559
  0
ARC
  5
B9BB
330
1F
100
AcDbEntity
  8
freecads.com
100
AcDbCircle
 10
10792.3785305979
 20
30151.72111507108
 30
0.0
 40
4.767257098154408
100
AcDbArc
 50
21.96658931809551
 51
40.62522278930113
  0
ARC
  5
B9BC
330
1F
100
AcDbEntity
  8
freecads.com
100
AcDbCircle
 10
10778.32004486106
 20
30139.66080091653
 30
0.0
 40
23.29000523981265
100
AcDbArc
 50
40.6252138011453
 51
46.38062517409423
  0
ARC
  5
B9BD
330
1F
100
AcDbEntity
  8
freecads.com
100
AcDbCircle
 10
10809.90804287904
 20
30172.80902230044
 30
0.0
 40
22.49870733982432
100
AcDbArc
 50
222.0709007152394
 51
226.3806395414865
  0
ARC
  5
B9BE
330
1F
100
AcDbEntity
  8
freecads.com
100
AcDbCircle
 10
10805.62902184339
 20
30168.94655181546
 30
0.0
 40
16.73427334588271
100
AcDbArc
 50
216.6903796413547
 51
222.0708397296229
  0
ARC
  5
B9BF
330
1F
100
AcDbEntity
  8
freecads.com
100
AcDbCircle
 10
10803.65242219926
 20
30167.47372851981
 30
0.0
 40
14.26928762324365
100
AcDbArc
 50
211.4907890963014
 51
216.6902909747963
  0
ARC
  5
B9C0
330
1F
100
AcDbEntity
  8
freecads.com
100
AcDbCircle
 10
10792.52588074551
 20
30160.65783494977
 30
0.0
 40
1.221056713272457
100
AcDbArc
 50
179.9999404826387
 51
211.4907743002758
  0
ARC
  5
B9C1
330
1F
100
AcDbEntity
  8
freecads.com
100
AcDbCircle
 10
10790.23265644138
 20
30160.65783700964
 30
0.0
 40
1.072167590865043
100
AcDbArc
 50
359.9999577046455
 51
68.81298507237055
  0
ARC
  5
B9C2
330
1F
100
AcDbEntity
  8
freecads.com
100
AcDbCircle
 10
10786.81576560921
 20
30151.84266851167
 30
0.0
 40
10.52639091203185
100
AcDbArc
 50
68.81293193317934
 51
81.72883556959815
  0
ARC
  5
B9C3
330
1F
100
AcDbEntity
  8
freecads.com
100
AcDbCircle
 10
10786.55496242496
 20
30150.04863239979
 30
0.0
 40
12.3392846959185
100
AcDbArc
 50
81.72881874043275
 51
94.06824732022121
  0
ARC
  5
B9C4
330
1F
100
AcDbEntity
  8
freecads.com
100
AcDbCircle
 10
10786.01655374442
 20
30157.61856990195
 30
0.0
 40
4.750224299936178
100
AcDbArc
 50
94.06818263562314
 51
119.2326272577036
  0
ARC
  5
B9C5
330
1F
100
AcDbEntity
  8
freecads.com
100
AcDbCircle
 10
10776.82398316067
 20
30174.0447333936
 30
0.0
 40
14.07322386961476
100
AcDbArc
 50
295.0757674411574
 51
299.2326932837647
  0
ARC
  5
B9C6
330
1F
100
AcDbEntity
  8
freecads.com
100
AcDbCircle
 10
10782.64631612628
 20
30161.60168875737
 30
0.0
 40
0.3353593710223795
100
AcDbArc
 50
233.9201751235466
 51
295.0755994722488
  0
ARC
  5
B9C7
330
1F
100
AcDbEntity
  8
freecads.com
100
AcDbCircle
 10
10782.61252518933
 20
30161.55531685104
 30
0.0
 40
0.2779818395694547
100
AcDbArc
 50
164.014110907298
 51
233.9203360653026
  0
ARC
  5
B9C8
330
1F
100
AcDbEntity
  8
freecads.com
100
AcDbCircle
 10
10792.76285097355
 20
30158.64742145736
 30
0.0
 40
10.83662612500255
100
AcDbArc
 50
159.0063582911876
 51
164.0138999482654
  0
ARC
  5
B9C9
330
1F
100
AcDbEntity
  8
freecads.com
100
AcDbCircle
 10
10776.39982794982
 20
30164.92650444716
 30
0.0
 40
6.68979409328902
100
AcDbArc
 50
339.0064359923981
 51
347.8711699314317
  0
ARC
  5
B9CA
330
1F
100
AcDbEntity
  8
freecads.com
100
AcDbCircle
 10
10725.64575139802
 20
30175.83404743411
 30
0.0
 40
58.60270944810488
100
AcDbArc
 50
347.8710774621334
 51
349.6669196191249
  0
ARC
  5
B9CB
330
1F
100
AcDbEntity
  8
freecads.com
100
AcDbCircle
 10
10719.21387196431
 20
30177.00682802978
 30
0.0
 40
65.14063628853119
100
AcDbArc
 50
349.6668560759038
 51
351.55138638066
  0
ARC
  5
B9CC
330
1F
100
AcDbEntity
  8
freecads.com
100
AcDbCircle
 10
10712.27799540283
 20
30178.0371133166
 30
0.0
 40
72.15261685352675
100
AcDbArc
 50
351.5513312412519
 51
353.2967561219893
  0
ARC
  5
B9CD
330
1F
100
AcDbEntity
  8
freecads.com
100
AcDbCircle
 10
10730.96332222688
 20
30175.84106296285
 30
0.0
 40
53.33868383368693
100
AcDbArc
 50
353.2967096381266
 51
356.8185185587509
  0
ARC
  5
B9CE
330
1F
100
AcDbEntity
  8
freecads.com
100
AcDbCircle
 10
10778.95278041125
 20
30173.17359556066
 30
0.0
 40
5.275147975707236
100
AcDbArc
 50
356.8185078987048
 51
16.07168142248258
  0
ARC
  5
B9CF
330
1F
100
AcDbEntity
  8
freecads.com
100
AcDbCircle
 10
10780.07846238205
 20
30173.49790518595
 30
0.0
 40
4.103680249973024
100
AcDbArc
 50
16.07166993530479
 51
38.97281169715859
  0
ARC
  5
B9D0
330
1F
100
AcDbEntity
  8
freecads.com
100
AcDbCircle
 10
10763.86209791348
 20
30160.3789371706
 30
0.0
 40
24.96219885424651
100
AcDbArc
 50
38.97272465789222
 51
44.99999663847797
  0
ARC
  5
B9D1
330
1F
100
AcDbEntity
  8
freecads.com
100
AcDbCircle
 10
10773.75068338384
 20
30170.26751416136
 30
0.0
 40
10.9776331653647
100
AcDbArc
 50
45.00002365099809
 51
66.45990027923321
  0
ARC
  5
B9D2
330
1F
100
AcDbEntity
  8
freecads.com
100
AcDbCircle
 10
10773.74175364591
 20
30170.24700486144
 30
0.0
 40
11.00000215241142
100
AcDbArc
 50
66.45992430990107
 51
87.88708664340701
  0
ARC
  5
B9D3
330
1F
100
AcDbEntity
  8
freecads.com
100
AcDbCircle
 10
10773.73729087134
 20
30170.12629338073
 30
0.0
 40
11.12079610030655
100
AcDbArc
 50
87.88703905620906
 51
109.1835626758851
  0
ARC
  5
B9D4
330
1F
100
AcDbEntity
  8
freecads.com
100
AcDbCircle
 10
10773.83118579101
 20
30169.85640595266
 30
0.0
 40
11.40655032994924
100
AcDbArc
 50
109.1835483535247
 51
130.0787542958685
  0
ARC
  5
B9D5
330
1F
100
AcDbEntity
  8
freecads.com
100
AcDbCircle
 10
10759.49646582208
 20
30186.89225995092
 30
0.0
 40
10.85787236719908
100
AcDbArc
 50
301.4291052722495
 51
310.0787214812322
  0
ARC
  5
B9D6
330
1F
100
AcDbEntity
  8
freecads.com
100
AcDbCircle
 10
10758.0366163633
 20
30189.28116413937
 30
0.0
 40
13.65751942779231
100
AcDbArc
 50
294.1462486387141
 51
301.4290692152365
  0
ARC
  5
B9D7
330
1F
100
AcDbEntity
  8
freecads.com
100
AcDbCircle
 10
10758.64765241009
 20
30187.9181329345
 30
0.0
 40
12.16379284104568
100
AcDbArc
 50
286.5898331805517
 51
294.1462406071088
  0
ARC
  5
B9D8
330
1F
100
AcDbEntity
  8
freecads.com
100
AcDbCircle
 10
10760.91046401054
 20
30180.32277532594
 30
0.0
 40
4.238531107776762
100
AcDbArc
 50
270.0000543645997
 51
286.5897734678108
  0
ARC
  5
B9D9
330
1F
100
AcDbEntity
  8
freecads.com
100
AcDbCircle
 10
10760.91046255592
 20
30169.20437413177
 30
0.0
 40
6.879870086395973
100
AcDbArc
 50
89.99995439304182
 51
106.4670131698186
  0
ARC
  5
B9DA
330
1F
100
AcDbEntity
  8
freecads.com
100
AcDbCircle
 10
10759.1834784206
 20
30175.04692806614
 30
0.0
 40
0.7874230673757137
100
AcDbArc
 50
106.4670787928725
 51
186.8021860721223
  0
ARC
  5
B9DB
330
1F
100
AcDbEntity
  8
freecads.com
100
AcDbCircle
 10
10759.89959347003
 20
30175.13234768531
 30
0.0
 40
1.508614633712733
100
AcDbArc
 50
186.8021995732446
 51
238.7954127816367
  0
ARC
  5
B9DC
330
1F
100
AcDbEntity
  8
freecads.com
100
AcDbCircle
 10
10765.98640223398
 20
30185.18104756792
 30
0.0
 40
13.25704475265234
100
AcDbArc
 50
238.7954122488366
 51
249.3205750984347
  0
ARC
  5
B9DD
330
1F
100
AcDbEntity
  8
freecads.com
100
AcDbCircle
 10
10758.57181256307
 20
30165.53758077169
 30
0.0
 40
7.739191285321266
100
AcDbArc
 50
53.78584057123646
 51
69.32055949781403
  0
ARC
  5
B9DE
330
1F
100
AcDbEntity
  8
freecads.com
100
AcDbCircle
 10
10761.53357584181
 20
30169.58221956385
 30
0.0
 40
2.72609397145185
100
AcDbArc
 50
19.96206229368129
 51
53.78583943232415
  0
ARC
  5
B9DF
330
1F
100
AcDbEntity
  8
freecads.com
100
AcDbCircle
 10
10761.68045084664
 20
30169.6355651168
 30
0.0
 40
2.569831323781374
100
AcDbArc
 50
344.8512395048497
 51
19.96211402694476
  0
ARC
  5
B9E0
330
1F
100
AcDbEntity
  8
freecads.com
100
AcDbCircle
 10
10757.69077819474
 20
30170.7157040657
 30
0.0
 40
6.703133637695099
100
AcDbArc
 50
327.6823254723619
 51
344.8512454014294
  0
ARC
  5
B9E1
330
1F
100
AcDbEntity
  8
freecads.com
100
AcDbCircle
 10
10765.21396304612
 20
30165.95648964867
 30
0.0
 40
2.199025211444448
100
AcDbArc
 50
147.6822036322337
 51
168.571954763065
  0
ARC
  5
B9E2
330
1F
100
AcDbEntity
  8
freecads.com
100
AcDbCircle
 10
10764.31346090287
 20
30166.13852238254
 30
0.0
 40
1.280308701193867
100
AcDbArc
 50
168.5719945147977
 51
199.8874008323616
  0
ARC
  5
B9E3
330
1F
100
AcDbEntity
  8
freecads.com
100
AcDbCircle
 10
10764.85147383607
 20
30166.33314727136
 30
0.0
 40
1.852442220258253
100
AcDbArc
 50
199.8874219383988
 51
224.7814727482492
  0
ARC
  5
B9E4
330
1F
100
AcDbEntity
  8
freecads.com
100
AcDbCircle
 10
10767.88757707222
 20
30169.34618224753
 30
0.0
 40
6.129859972618523
100
AcDbArc
 50
224.7814951293513
 51
234.9914895322612
  0
ARC
  5
B9E5
330
1F
100
AcDbEntity
  8
freecads.com
100
AcDbCircle
 10
10762.3142523416
 20
30161.38915411541
 30
0.0
 40
3.584883732096356
100
AcDbArc
 50
38.72541667644763
 51
54.99159309112078
  0
ARC
  5
B9E6
330
1F
100
AcDbEntity
  8
freecads.com
100
AcDbCircle
 10
10760.57796846792
 20
30159.9968619297
 30
0.0
 40
5.810453146961704
100
AcDbArc
 50
27.39674575611508
 51
38.7254279503363
  0
ARC
  5
B9E7
330
1F
100
AcDbEntity
  8
freecads.com
100
AcDbCircle
 10
10760.5638591
 20
30159.98954002896
 30
0.0
 40
5.826349197586831
100
AcDbArc
 50
16.08140510332183
 51
27.39682709142391
  0
ARC
  5
B9E8
330
1F
100
AcDbEntity
  8
freecads.com
100
AcDbCircle
 10
10762.660494933
 20
30160.59396528765
 30
0.0
 40
3.644329099243866
100
AcDbArc
 50
359.9999517419871
 51
16.08141285118437
  0
ARC
  5
B9E9
330
1F
100
AcDbEntity
  8
freecads.com
100
AcDbCircle
 10
10771.38184081122
 20
30160.59396012115
 30
0.0
 40
5.077016778981693
100
AcDbArc
 50
179.9999763344617
 51
193.4551919751313
  0
ARC
  5
B9EA
330
1F
100
AcDbEntity
  8
freecads.com
100
AcDbCircle
 10
10767.99979450426
 20
30159.78479777292
 30
0.0
 40
1.599520419786434
100
AcDbArc
 50
193.4551323439172
 51
225.2663626973959
  0
ARC
  5
B9EB
330
1F
100
AcDbEntity
  8
freecads.com
100
AcDbCircle
 10
10768.21494190063
 20
30160.0019567343
 30
0.0
 40
1.905210486147183
100
AcDbArc
 50
225.2664009502111
 51
253.6838720848261
  0
ARC
  5
B9EC
330
1F
100
AcDbEntity
  8
freecads.com
100
AcDbCircle
 10
10769.9629066081
 20
30165.97326339966
 30
0.0
 40
8.12709797389896
100
AcDbArc
 50
253.6838197928579
 51
263.3608223400099
  0
ARC
  5
B9ED
330
1F
100
AcDbEntity
  8
freecads.com
100
AcDbCircle
 10
10768.36831780088
 20
30152.27370152933
 30
0.0
 40
5.664954407931745
100
AcDbArc
 50
55.03090033103291
 51
83.3608044201294
  0
ARC
  5
B9EE
330
1F
100
AcDbEntity
  8
freecads.com
100
AcDbCircle
 10
10768.44211688903
 20
30152.37921000833
 30
0.0
 40
5.536197487616645
100
AcDbArc
 50
26.2087043484076
 51
55.03095142285985
  0
ARC
  5
B9EF
330
1F
100
AcDbEntity
  8
freecads.com
100
AcDbCircle
 10
10767.66975249178
 20
30151.99901185922
 30
0.0
 40
6.397067625748976
100
AcDbArc
 50
359.7415426181217
 51
26.20872034984011
  0
ARC
  5
B9F0
330
1F
100
AcDbEntity
  8
freecads.com
100
AcDbCircle
 10
10765.56441201829
 20
30152.00851863668
 30
0.0
 40
8.502429563292624
100
AcDbArc
 50
338.3563452237773
 51
359.7414774905376
  0
ARC
  5
B9F1
330
1F
100
AcDbEntity
  8
freecads.com
100
AcDbCircle
 10
10782.578415376
 20
30145.25721132125
 30
0.0
 40
9.802117978874393
100
AcDbArc
 50
158.3564163976197
 51
170.537703701465
  0
ARC
  5
B9F2
330
1F
100
AcDbEntity
  8
freecads.com
100
AcDbCircle
 10
10902.30055649763
 20
30125.30354581216
 30
0.0
 40
131.1756729321549
100
AcDbArc
 50
170.5376903602513
 51
172.3651578114803
  0
ARC
  5
B9F3
330
1F
100
AcDbEntity
  8
freecads.com
100
AcDbCircle
 10
10910.70724630538
 20
30124.17657598045
 30
0.0
 40
139.6575650866269
100
AcDbArc
 50
172.3651276032433
 51
174.4009076958628
  0
ARC
  5
B9F4
330
1F
100
AcDbEntity
  8
freecads.com
100
AcDbCircle
 10
10944.03078782651
 20
30120.90956935231
 30
0.0
 40
173.1408706552817
100
AcDbArc
 50
174.4008623093603
 51
176.1336828444773
  0
ARC
  5
B9F5
330
1F
100
AcDbEntity
  8
freecads.com
100
AcDbCircle
 10
10593.83373955772
 20
30144.57702573796
 30
0.0
 40
177.8550283349925
100
AcDbArc
 50
354.3719104466904
 51
356.1336063760861
  0
ARC
  5
B9F6
330
1F
100
AcDbEntity
  8
freecads.com
100
AcDbCircle
 10
10567.75402135146
 20
30147.14730622837
 30
0.0
 40
204.0610971640066
100
AcDbArc
 50
352.782715207575
 51
354.3718454799657
  0
ARC
  5
B9F7
330
1F
100
AcDbEntity
  8
freecads.com
100
AcDbCircle
 10
10589.48750540693
 20
30144.3952037866
 30
0.0
 40
182.1540572676875
100
AcDbArc
 50
351.1866671902289
 51
352.782672624008
  0
ARC
  5
B9F8
330
1F
100
AcDbEntity
  8
freecads.com
100
AcDbCircle
 10
10730.82967544008
 20
30122.48061772084
 30
0.0
 40
39.12308820115201
100
AcDbArc
 50
346.1903242691907
 51
351.1866413017797
  0
ARC
  5
B9F9
330
1F
100
AcDbEntity
  8
freecads.com
100
AcDbCircle
 10
10849.00296527697
 20
30093.43330965467
 30
0.0
 40
82.5678010912039
100
AcDbArc
 50
166.1903223021822
 51
169.5354707036064
  0
ARC
  5
B9FA
330
1F
100
AcDbEntity
  8
freecads.com
100
AcDbCircle
 10
10775.16945003031
 20
30107.07026731874
 30
0.0
 40
7.485482346974127
100
AcDbArc
 50
169.5354561525477
 51
188.9870557653911
  0
ARC
  5
B9FB
330
1F
100
AcDbEntity
  8
freecads.com
100
AcDbCircle
 10
10769.70235490692
 20
30106.20563174199
 30
0.0
 40
1.950437291256778
100
AcDbArc
 50
188.9870894964757
 51
235.5872832466284
  0
ARC
  5
B9FC
330
1F
100
AcDbEntity
  8
freecads.com
100
AcDbCircle
 10
10770.25438537263
 20
30107.01146174562
 30
0.0
 40
2.927217527446564
100
AcDbArc
 50
235.5872121812956
 51
270.0000324843572
  0
ARC
  5
B9FD
330
1F
100
AcDbEntity
  8
freecads.com
100
AcDbCircle
 10
10770.25438752061
 20
30101.92627099348
 30
0.0
 40
2.157973224690577
100
AcDbArc
 50
36.49384285979194
 51
90.00001296658302
  0
ARC
  5
B9FE
330
1F
100
AcDbEntity
  8
freecads.com
100
AcDbCircle
 10
10767.76827729988
 20
30100.08705149036
 30
0.0
 40
5.250459669325949
100
AcDbArc
 50
8.893981172504147
 51
36.4939141404618
  0
ARC
  5
B9FF
330
1F
100
AcDbEntity
  8
freecads.com
100
AcDbCircle
 10
10756.21801056402
 20
30098.2795556055
 30
0.0
 40
16.94129809278217
100
AcDbArc
 50
355.1670472831319
 51
8.894032804423527
  0
ARC
  5
BA00
330
1F
100
AcDbEntity
  8
freecads.com
100
AcDbCircle
 10
10684.22793601885
 20
30104.36643797305
 30
0.0
 40
89.18824245706209
100
AcDbArc
 50
351.1565171694001
 51
355.1670414975054
  0
ARC
  5
BA01
330
1F
100
AcDbEntity
  8
freecads.com
100
AcDbCircle
 10
10899.99077096868
 20
30070.79687937667
 30
0.0
 40
129.1704445923553
100
AcDbArc
 50
171.1565099087636
 51
172.8606841647242
  0
ARC
  5
BA02
330
1F
100
AcDbEntity
  8
freecads.com
100
AcDbCircle
 10
11097.73125034025
 20
30046.02909806126
 30
0.0
 40
328.4560190160541
100
AcDbArc
 50
172.8606671993018
 51
173.7095575863941
  0
ARC
  5
BA03
330
1F
100
AcDbEntity
  8
freecads.com
100
AcDbCircle
 10
11112.21858482423
 20
30044.43215633685
 30
0.0
 40
343.0311033492935
100
AcDbArc
 50
173.7095623730804
 51
174.5518065401492
  0
ARC
  5
BA04
330
1F
100
AcDbEntity
  8
freecads.com
100
AcDbCircle
 10
10975.1219099355
 20
30057.5080277234
 30
0.0
 40
205.3122713833738
100
AcDbArc
 50
174.5518242098752
 51
175.788942665241
  0
ARC
  5
BA05
330
1F
100
AcDbEntity
  8
freecads.com
100
AcDbCircle
 10
10551.10064308701
 20
30088.72853182208
 30
0.0
 40
219.8568180574988
100
AcDbArc
 50
354.0109612324646
 51
355.7889281931073
  0
ARC
  5
BA06
330
1F
100
AcDbEntity
  8
freecads.com
100
AcDbCircle
 10
10741.06184127856
 20
30068.79954495662
 30
0.0
 40
28.85309731925332
100
AcDbArc
 50
346.0669953994746
 51
354.0109662115729
  0
ARC
  5
BA07
330
1F
100
AcDbEntity
  8
freecads.com
100
AcDbCircle
 10
10762.88765893903
 20
30063.38485970104
 30
0.0
 40
6.365653423492139
100
AcDbArc
 50
326.9184819911175
 51
346.0669695246157
  0
ARC
  5
BA08
330
1F
100
AcDbEntity
  8
freecads.com
100
AcDbCircle
 10
10767.56974606594
 20
30060.33479653798
 30
0.0
 40
0.7777356393211887
100
AcDbArc
 50
238.2825073062177
 51
326.9185218065286
  0
ARC
  5
BA09
330
1F
100
AcDbEntity
  8
freecads.com
100
AcDbCircle
 10
10767.55685410951
 20
30060.31393626766
 30
0.0
 40
0.7532131309249069
100
AcDbArc
 50
185.7653738611833
 51
238.2824808515649
  0
ARC
  5
BA0A
330
1F
100
AcDbEntity
  8
freecads.com
100
AcDbCircle
 10
10793.56100848959
 20
30062.93946609249
 30
0.0
 40
26.88957576776515
100
AcDbArc
 50
181.7802825511198
 51
185.7653752929102
  0
ARC
  5
BA0B
330
1F
100
AcDbEntity
  8
freecads.com
100
AcDbCircle
 10
10796.42622932005
 20
30063.0284992067
 30
0.0
 40
29.75617956010586
100
AcDbArc
 50
177.1351032992071
 51
181.7802381055079
  0
ARC
  5
BA0C
330
1F
100
AcDbEntity
  8
freecads.com
100
AcDbCircle
 10
10829.21873882292
 20
30061.38744925322
 30
0.0
 40
62.58972527855425
100
AcDbArc
 50
174.4714324831024
 51
177.1351079194461
  0
ARC
  5
BA0D
330
1F
100
AcDbEntity
  8
freecads.com
100
AcDbCircle
 10
10592.41123846317
 20
30084.30866245632
 30
0.0
 40
175.3244908610782
100
AcDbArc
 50
354.4714089385845
 51
358.8714133126952
  0
ARC
  5
BA0E
330
1F
100
AcDbEntity
  8
freecads.com
100
AcDbCircle
 10
10677.01669713179
 20
30082.64208607938
 30
0.0
 40
90.70261949618235
100
AcDbArc
 50
358.8713124227665
 51
6.076517517434725
  0
ARC
  5
BA0F
330
1F
100
AcDbEntity
  8
freecads.com
100
AcDbCircle
 10
10706.81727181117
 20
30085.81456297414
 30
0.0
 40
60.73365453469808
100
AcDbArc
 50
6.076454839379717
 51
14.5416068795473
  0
ARC
  5
BA10
330
1F
100
AcDbEntity
  8
freecads.com
100
AcDbCircle
 10
10754.57641240743
 20
30098.20292429044
 30
0.0
 40
11.3939442944022
100
AcDbArc
 50
14.54160889707249
 51
43.77296073519027
  0
ARC
  5
BA11
330
1F
100
AcDbEntity
  8
freecads.com
100
AcDbCircle
 10
10782.54677625115
 20
30125.00024272794
 30
0.0
 40
27.34153723082821
100
AcDbArc
 50
218.5295256285915
 51
223.7730078290387
  0
ARC
  5
BA12
330
1F
100
AcDbEntity
  8
freecads.com
100
AcDbCircle
 10
10763.46345958703
 20
30109.80463006287
 30
0.0
 40
2.9472834162529
100
AcDbArc
 50
191.5693447341428
 51
218.5296102216252
  0
ARC
  5
BA13
330
1F
100
AcDbEntity
  8
freecads.com
100
AcDbCircle
 10
10764.04890343489
 20
30109.92447917904
 30
0.0
 40
3.544868815705541
100
AcDbArc
 50
167.9269474033221
 51
191.5693629224492
  0
ARC
  5
BA14
330
1F
100
AcDbEntity
  8
freecads.com
100
AcDbCircle
 10
10806.58027249328
 20
30100.82745079869
 30
0.0
 40
47.03823933736734
100
AcDbArc
 50
164.358609319197
 51
167.9269312819434
  0
ARC
  5
BA15
330
1F
100
AcDbEntity
  8
freecads.com
100
AcDbCircle
 10
10739.24591430625
 20
30119.67993104667
 30
0.0
 40
22.88551774108405
100
AcDbArc
 50
344.3587430917488
 51
349.2863374132322
  0
ARC
  5
BA16
330
1F
100
AcDbEntity
  8
freecads.com
100
AcDbCircle
 10
10735.62366341984
 20
30120.36524060897
 30
0.0
 40
26.57202702223562
100
AcDbArc
 50
349.2863723251088
 51
353.6918750643138
  0
ARC
  5
BA17
330
1F
100
AcDbEntity
  8
freecads.com
100
AcDbCircle
 10
10738.75500381336
 20
30120.0191017546
 30
0.0
 40
23.42161359438816
100
AcDbArc
 50
353.6918414896478
 51
358.195626644706
  0
ARC
  5
BA18
330
1F
100
AcDbEntity
  8
freecads.com
100
AcDbCircle
 10
10756.3163452425
 20
30119.46587568696
 30
0.0
 40
5.851560325470249
100
AcDbArc
 50
358.1955963569908
 51
10.8222542625868
  0
ARC
  5
BA19
330
1F
100
AcDbEntity
  8
freecads.com
100
AcDbCircle
 10
10788.86787261638
 20
30125.68853191546
 30
0.0
 40
27.2894020158848
100
AcDbArc
 50
187.9574180904986
 51
190.8222870197016
  0
ARC
  5
BA1A
330
1F
100
AcDbEntity
  8
freecads.com
100
AcDbCircle
 10
10762.53964382789
 20
30122.00829254838
 30
0.0
 40
0.7052000730363126
100
AcDbArc
 50
148.0161354652988
 51
187.9574571915578
  0
ARC
  5
BA1B
330
1F
100
AcDbEntity
  8
freecads.com
100
AcDbCircle
 10
10762.13453622709
 20
30122.26127281387
 30
0.0
 40
0.2275902082377232
100
AcDbArc
 50
59.41580334959112
 51
148.0160382431478
  0
ARC
  5
BA1C
330
1F
100
AcDbEntity
  8
freecads.com
100
AcDbCircle
 10
10759.54041118361
 20
30117.87208568803
 30
0.0
 40
5.326065310342162
100
AcDbArc
 50
50.30987418369568
 51
59.41579599631527
  0
ARC
  5
BA1D
330
1F
100
AcDbEntity
  8
freecads.com
100
AcDbCircle
 10
10760.66629891377
 20
30119.22870107401
 30
0.0
 40
3.563105161507154
100
AcDbArc
 50
38.27826873328934
 51
50.30985959247333
  0
ARC
  5
BA1E
330
1F
100
AcDbEntity
  8
freecads.com
100
AcDbCircle
 10
10759.76732637893
 20
30118.51928446703
 30
0.0
 40
4.708279183503808
100
AcDbArc
 50
28.51528970270813
 51
38.27831019148111
  0
ARC
  5
BA1F
330
1F
100
AcDbEntity
  8
freecads.com
100
AcDbCircle
 10
10760.13070179323
 20
30118.71671477546
 30
0.0
 40
4.294733033291556
100
AcDbArc
 50
18.39006141845119
 51
28.51519612555251
  0
ARC
  5
BA20
330
1F
100
AcDbEntity
  8
freecads.com
100
AcDbCircle
 10
10762.37181942821
 20
30119.46180062272
 30
0.0
 40
1.933004604035815
100
AcDbArc
 50
359.9999583681127
 51
18.39014643931348
  0
ARC
  5
BA21
330
1F
100
AcDbEntity
  8
freecads.com
100
AcDbCircle
 10
10766.18912645833
 20
30119.46179963303
 30
0.0
 40
1.884302426091653
100
AcDbArc
 50
180.0000126146307
 51
196.2237747856528
  0
ARC
  5
BA22
330
1F
100
AcDbEntity
  8
freecads.com
100
AcDbCircle
 10
10765.77132313609
 20
30119.34022699588
 30
0.0
 40
1.449170811313787
100
AcDbArc
 50
196.223716756518
 51
215.9767678573655
  0
ARC
  5
BA23
330
1F
100
AcDbEntity
  8
freecads.com
100
AcDbCircle
 10
10765.49772828897
 20
30119.14161842839
 30
0.0
 40
1.111088715587895
100
AcDbArc
 50
215.9767794740389
 51
238.8801902570333
  0
ARC
  5
BA24
330
1F
100
AcDbEntity
  8
freecads.com
100
AcDbCircle
 10
10765.30482449799
 20
30118.82208998587
 30
0.0
 40
0.7378457677019589
100
AcDbArc
 50
238.8802702131719
 51
269.9999638331187
  0
ARC
  5
BA25
330
1F
100
AcDbEntity
  8
freecads.com
100
AcDbCircle
 10
10765.30482468909
 20
30118.95950180615
 30
0.0
 40
0.8752575879807601
100
AcDbArc
 50
269.9999570017831
 51
320.777767924549
  0
ARC
  5
BA26
330
1F
100
AcDbEntity
  8
freecads.com
100
AcDbCircle
 10
10765.02244433068
 20
30119.18998871166
 30
0.0
 40
1.239761196230517
100
AcDbArc
 50
320.7777466477361
 51
359.9488169886824
  0
ARC
  5
BA27
330
1F
100
AcDbEntity
  8
freecads.com
100
AcDbCircle
 10
10762.60864787649
 20
30119.19214302354
 30
0.0
 40
3.653558611776439
100
AcDbArc
 50
359.9488477601893
 51
20.20568125809657
  0
ARC
  5
BA28
330
1F
100
AcDbEntity
  8
freecads.com
100
AcDbCircle
 10
10753.98969085102
 20
30116.0200154639
 30
0.0
 40
12.83771962199915
100
AcDbArc
 50
20.20567488999567
 51
28.15491057906298
  0
ARC
  5
BA29
330
1F
100
AcDbEntity
  8
freecads.com
100
AcDbCircle
 10
10762.41366809914
 20
30120.52837540618
 30
0.0
 40
3.28320749180871
100
AcDbArc
 50
28.15499267708841
 51
72.76302071206258
  0
ARC
  5
BA2A
330
1F
100
AcDbEntity
  8
freecads.com
100
AcDbCircle
 10
10754.55237596701
 20
30095.19057256792
 30
0.0
 40
29.81251518456499
100
AcDbArc
 50
72.76300588597189
 51
81.5783098859862
  0
ARC
  5
BA2B
330
1F
100
AcDbEntity
  8
freecads.com
100
AcDbCircle
 10
10754.58892514797
 20
30095.43756605785
 30
0.0
 40
29.56283213281464
100
AcDbArc
 50
81.57827309201692
 51
90.5354571059574
  0
ARC
  5
BA2C
330
1F
100
AcDbEntity
  8
freecads.com
100
AcDbCircle
 10
10754.35000173774
 20
30121.00210955267
 30
0.0
 40
3.997172186428514
100
AcDbArc
 50
90.53541006735358
 51
129.6902338336481
  0
ARC
  5
BA2D
330
1F
100
AcDbEntity
  8
freecads.com
100
AcDbCircle
 10
10750.78984451963
 20
30125.29183331448
 30
0.0
 40
1.577453305056164
100
AcDbArc
 50
270.9241916078836
 51
309.6900921478463
  0
ARC
  5
BA2E
330
1F
100
AcDbEntity
  8
freecads.com
100
AcDbCircle
 10
10750.80744388144
 20
30124.2008118981
 30
0.0
 40
0.4862899494933412
100
AcDbArc
 50
179.9632017419598
 51
270.924255637565
  0
ARC
  5
BA2F
330
1F
100
AcDbEntity
  8
freecads.com
100
AcDbCircle
 10
10756.9123703255
 20
30124.19688520075
 30
0.0
 40
6.591217656376318
100
AcDbArc
 50
163.2532890215769
 51
179.9631512965584
  0
ARC
  5
BA30
330
1F
100
AcDbEntity
  8
freecads.com
100
AcDbCircle
 10
10837.29223604126
 20
30100.01033575045
 30
0.0
 40
90.53114848072551
100
AcDbArc
 50
160.7919644053274
 51
163.2532964598636
  0
ARC
  5
BA31
330
1F
100
AcDbEntity
  8
freecads.com
100
AcDbCircle
 10
10737.59579946876
 20
30134.74398687558
 30
0.0
 40
15.04255082803704
100
AcDbArc
 50
340.7919639069338
 51
355.8662508138257
  0
ARC
  5
BA32
330
1F
100
AcDbEntity
  8
freecads.com
100
AcDbCircle
 10
10731.6979457488
 20
30135.17025851903
 30
0.0
 40
20.95578902853894
100
AcDbArc
 50
355.8662066491292
 51
7.623746492051425
  0
ARC
  5
BA33
330
1F
100
AcDbEntity
  8
freecads.com
100
AcDbCircle
 10
10707.27147164313
 20
30131.90080722032
 30
0.0
 40
45.60009768244564
100
AcDbArc
 50
7.623695855458252
 51
15.00862746737359
  0
ARC
  5
BA34
330
1F
100
AcDbEntity
  8
freecads.com
100
AcDbCircle
 10
10485.42228872555
 20
30072.42110828048
 30
0.0
 40
275.28443442996
100
AcDbArc
 50
15.00854386549982
 51
16.96274095092345
  0
ARC
  5
BA35
330
1F
100
AcDbEntity
  8
freecads.com
100
AcDbCircle
 10
10677.45391956925
 20
30130.994585239
 30
0.0
 40
74.5184028222808
100
AcDbArc
 50
16.96271321712379
 51
20.28219853553896
  0
ARC
  5
BA36
330
1F
100
AcDbEntity
  8
freecads.com
100
AcDbCircle
 10
10713.45070653743
 20
30144.29745732668
 30
0.0
 40
36.14217218647414
100
AcDbArc
 50
20.28224441537243
 51
25.98566372761468
  0
ARC
  5
BA37
330
1F
100
AcDbEntity
  8
freecads.com
100
AcDbCircle
 10
10722.46273940331
 20
30148.6901165926
 30
0.0
 40
26.11659530522004
100
AcDbArc
 50
25.98568706018749
 51
32.76088666018061
  0
ARC
  5
BA38
330
1F
100
AcDbEntity
  8
freecads.com
100
AcDbCircle
 10
10730.10607081761
 20
30153.60851900725
 30
0.0
 40
17.0275250875802
100
AcDbArc
 50
32.76090636421024
 51
42.09586933340871
  0
ARC
  5
BA39
330
1F
100
AcDbEntity
  8
freecads.com
100
AcDbCircle
 10
10770.64201775367
 20
30190.23032345707
 30
0.0
 40
37.60140090557107
100
AcDbArc
 50
216.0432590529795
 51
222.0959526944738
  0
ARC
  5
BA3A
330
1F
100
AcDbEntity
  8
freecads.com
100
AcDbCircle
 10
10751.63369444651
 20
30176.39803271323
 30
0.0
 40
14.09292111270417
100
AcDbArc
 50
203.4515724564055
 51
216.0432713788686
  0
ARC
  5
BA3B
330
1F
100
AcDbEntity
  8
freecads.com
100
AcDbCircle
 10
10747.20347082147
 20
30174.4761771288
 30
0.0
 40
9.263800048251194
100
AcDbArc
 50
187.4385844886085
 51
203.4516271978525
  0
ARC
  5
BA3C
330
1F
100
AcDbEntity
  8
freecads.com
100
AcDbCircle
 10
10745.72730114996
 20
30174.28345256582
 30
0.0
 40
7.775102746510733
100
AcDbArc
 50
169.1777956217739
 51
187.4386382098689
  0
ARC
  5
BA3D
330
1F
100
AcDbEntity
  8
freecads.com
100
AcDbCircle
 10
10748.14558754785
 20
30173.82116394922
 30
0.0
 40
10.23717907904969
100
AcDbArc
 50
157.7496398036856
 51
169.1777711181446
  0
ARC
  5
BA3E
330
1F
100
AcDbEntity
  8
freecads.com
100
AcDbCircle
 10
10739.16034675045
 20
30177.49718909443
 30
0.0
 40
0.52905294393069
100
AcDbArc
 50
61.01407472199454
 51
157.7496538783772
  0
ARC
  5
BA3F
330
1F
100
AcDbEntity
  8
freecads.com
100
AcDbCircle
 10
10738.72403641599
 20
30176.70961211686
 30
0.0
 40
1.429410763664076
100
AcDbArc
 50
11.45756173360945
 51
61.01399877771443
  0
ARC
  5
BA40
330
1F
100
AcDbEntity
  8
freecads.com
100
AcDbCircle
 10
10718.0119685474
 20
30172.51164242382
 30
0.0
 40
22.56262407676087
100
AcDbArc
 50
4.830351690756624
 51
11.45762554394228
  0
ARC
  5
BA41
330
1F
100
AcDbEntity
  8
freecads.com
100
AcDbCircle
 10
10758.68388316352
 20
30175.948671679
 30
0.0
 40
18.25425734064528
100
AcDbArc
 50
184.8303981500522
 51
192.9961731785315
  0
ARC
  5
BA42
330
1F
100
AcDbEntity
  8
freecads.com
100
AcDbCircle
 10
10742.83914559421
 20
30172.29174128567
 30
0.0
 40
1.992988984764974
100
AcDbArc
 50
192.9961966759604
 51
234.5817086530598
  0
ARC
  5
BA43
330
1F
100
AcDbEntity
  8
freecads.com
100
AcDbCircle
 10
10742.40310274595
 20
30171.67858298809
 30
0.0
 40
1.240595162743024
100
AcDbArc
 50
234.5816805226558
 51
291.8781224502772
  0
ARC
  5
BA44
330
1F
100
AcDbEntity
  8
freecads.com
100
AcDbCircle
 10
10740.09099094133
 20
30177.43649157362
 30
0.0
 40
7.445381402124734
100
AcDbArc
 50
291.878128652843
 51
307.1424899436611
  0
ARC
  5
BA45
330
1F
100
AcDbEntity
  8
freecads.com
100
AcDbCircle
 10
10740.90540089486
 20
30176.36130747421
 30
0.0
 40
6.096572883457637
100
AcDbArc
 50
307.142486265889
 51
318.5555290246224
  0
ARC
  5
BA46
330
1F
100
AcDbEntity
  8
freecads.com
100
AcDbCircle
 10
10744.37328450497
 20
30173.29917275329
 30
0.0
 40
1.470247583359493
100
AcDbArc
 50
318.5554425413857
 51
351.3812168161133
  0
ARC
  5
BA47
330
1F
100
AcDbEntity
  8
freecads.com
100
AcDbCircle
 10
10743.85285545122
 20
30173.37805854961
 30
0.0
 40
1.996621375299134
100
AcDbArc
 50
351.3811095800126
 51
18.1505902197466
  0
ARC
  5
BA48
330
1F
100
AcDbEntity
  8
freecads.com
100
AcDbCircle
 10
10732.40153228823
 20
30169.62399419365
 30
0.0
 40
14.04758819841772
100
AcDbArc
 50
18.15059202108797
 51
24.49550939761172
  0
ARC
  5
BA49
330
1F
100
AcDbEntity
  8
freecads.com
100
AcDbCircle
 10
10739.08879502014
 20
30172.67092400295
 30
0.0
 40
6.698896878981504
100
AcDbArc
 50
24.49549730127047
 51
34.71212482405496
  0
ARC
  5
BA4A
330
1F
100
AcDbEntity
  8
freecads.com
100
AcDbCircle
 10
10737.96074128238
 20
30171.88946111148
 30
0.0
 40
8.071190392036822
100
AcDbArc
 50
34.71217283431862
 51
43.59635814363482
  0
ARC
  5
BA4B
330
1F
100
AcDbEntity
  8
freecads.com
100
AcDbCircle
 10
10738.67231473091
 20
30172.56698959983
 30
0.0
 40
7.088652033927952
100
AcDbArc
 50
43.59640209633854
 51
52.91672162879929
  0
ARC
  5
BA4C
330
1F
100
AcDbEntity
  8
freecads.com
100
AcDbCircle
 10
10741.35409851459
 20
30176.11508746401
 30
0.0
 40
2.641072611795177
100
AcDbArc
 50
52.9168233373327
 51
72.39117637300147
  0
ARC
  5
BA4D
330
1F
100
AcDbEntity
  8
freecads.com
100
AcDbCircle
 10
10742.83391234528
 20
30180.77756531385
 30
0.0
 40
2.250608967548904
100
AcDbArc
 50
231.9488384492101
 51
252.3912148176393
  0
ARC
  5
BA4E
330
1F
100
AcDbEntity
  8
freecads.com
100
AcDbCircle
 10
10743.3363525029
 20
30181.41948646018
 30
0.0
 40
3.065783102361659
100
AcDbArc
 50
215.7340776044601
 51
231.9489463250469
  0
ARC
  5
BA4F
330
1F
100
AcDbEntity
  8
freecads.com
100
AcDbCircle
 10
10743.36876424462
 20
30181.44280347027
 30
0.0
 40
3.105710586086808
100
AcDbArc
 50
199.624985454203
 51
215.7340411729552
  0
ARC
  5
BA50
330
1F
100
AcDbEntity
  8
freecads.com
100
AcDbCircle
 10
10742.6914583328
 20
30181.20129279509
 30
0.0
 40
2.386634300562715
100
AcDbArc
 50
180.000013849851
 51
199.6249848177924
  0
ARC
  5
BA51
330
1F
100
AcDbEntity
  8
freecads.com
100
AcDbCircle
 10
10731.830472904
 20
30181.20128545678
 30
0.0
 40
8.474351128240384
100
AcDbArc
 50
0.0000457144094241
 51
18.99672434612011
  0
ARC
  5
BA52
330
1F
100
AcDbEntity
  8
freecads.com
100
AcDbCircle
 10
10730.8364126072
 20
30180.85906767768
 30
0.0
 40
9.525668816671606
100
AcDbArc
 50
18.99671830477331
 51
36.39853351268825
  0
ARC
  5
BA53
330
1F
100
AcDbEntity
  8
freecads.com
100
AcDbCircle
 10
10731.43838636917
 20
30181.30287757492
 30
0.0
 40
8.777778694600749
100
AcDbArc
 50
36.39842661927688
 51
54.55906398416643
  0
ARC
  5
BA54
330
1F
100
AcDbEntity
  8
freecads.com
100
AcDbCircle
 10
10733.04527896065
 20
30183.56057505708
 30
0.0
 40
6.006623390128132
100
AcDbArc
 50
54.55907609326111
 51
78.69003535563765
  0
ARC
  5
BA55
330
1F
100
AcDbEntity
  8
freecads.com
100
AcDbCircle
 10
10718.91611841317
 20
30112.91478287287
 30
0.0
 40
78.05147838415611
100
AcDbArc
 50
78.69006353101539
 51
80.52898940475992
  0
ARC
  5
BA56
330
1F
100
AcDbEntity
  8
freecads.com
100
AcDbCircle
 10
10730.87082717722
 20
30184.57603930221
 30
0.0
 40
5.399907618859248
100
AcDbArc
 50
80.52895912061622
 51
93.46976430792164
  0
ARC
  5
BA57
330
1F
100
AcDbEntity
  8
freecads.com
100
AcDbCircle
 10
10730.80280721022
 20
30185.69783994488
 30
0.0
 40
4.276046685379086
100
AcDbArc
 50
93.46973911126191
 51
108.7646746369031
  0
ARC
  5
BA58
330
1F
100
AcDbEntity
  8
freecads.com
100
AcDbCircle
 10
10741.37310952318
 20
30154.58481743638
 30
0.0
 40
37.13561851158442
100
AcDbArc
 50
108.7646258841743
 51
111.8822407072693
  0
ARC
  5
BA59
330
1F
100
AcDbEntity
  8
freecads.com
100
AcDbCircle
 10
10722.1346369095
 20
30135.20358783696
 30
0.0
 40
25.33488848776113
100
AcDbArc
 50
12.1306467422178
 51
21.1246726728743
  0
ARC
  5
BA5A
330
1F
100
AcDbEntity
  8
freecads.com
100
AcDbCircle
 10
10710.86888060306
 20
30132.78211058387
 30
0.0
 40
36.85794438641136
100
AcDbArc
 50
5.339654649030243
 51
12.1306540356286
  0
ARC
  5
BA5B
330
1F
100
AcDbEntity
  8
freecads.com
100
AcDbCircle
 10
10713.39133712418
 20
30133.01788186985
 30
0.0
 40
34.3244931829804
100
AcDbArc
 50
358.394767303463
 51
5.339639475815372
  0
ARC
  5
BA5C
330
1F
100
AcDbEntity
  8
freecads.com
100
AcDbCircle
 10
10733.56016001994
 20
30132.4526667948
 30
0.0
 40
14.14775199215595
100
AcDbArc
 50
344.9292959176912
 51
358.3947892646534
  0
LINE
  5
BA5D
330
1F
100
AcDbEntity
  8
freecads.com
100
AcDbLine
 10
10747.22131003224
 20
30128.77409821817
 30
0.0
 11
10746.13631603224
 21
30124.74473821817
 31
0.0
  0
LINE
  5
BA5E
330
1F
100
AcDbEntity
  8
freecads.com
100
AcDbLine
 10
10746.13631603224
 20
30124.74473821817
 30
0.0
 11
10744.17142703224
 21
30129.13346021817
 31
0.0
  0
ARC
  5
BA5F
330
1F
100
AcDbEntity
  8
freecads.com
100
AcDbCircle
 10
10768.66003075659
 20
30140.09731901927
 30
0.0
 40
26.83091336832536
100
AcDbArc
 50
199.5596717283453
 51
204.1186684249672
  0
ARC
  5
BA60
330
1F
100
AcDbEntity
  8
freecads.com
100
AcDbCircle
 10
10787.3188488161
 20
30146.7266063888
 30
0.0
 40
46.63240175696844
100
AcDbArc
 50
196.5458303425106
 51
199.5596437909156
  0
ARC
  5
BA61
330
1F
100
AcDbEntity
  8
freecads.com
100
AcDbCircle
 10
10785.89392944519
 20
30146.30329441518
 30
0.0
 40
45.14593337838023
100
AcDbArc
 50
193.5109460032695
 51
196.5458406270135
  0
ARC
  5
BA62
330
1F
100
AcDbEntity
  8
freecads.com
100
AcDbCircle
 10
10760.85576948057
 20
30140.28711088077
 30
0.0
 40
19.39512914368037
100
AcDbArc
 50
187.8045668519253
 51
193.5109636991651
  0
ARC
  5
BA63
330
1F
100
AcDbEntity
  8
freecads.com
100
AcDbCircle
 10
10757.20249826749
 20
30139.78640014044
 30
0.0
 40
15.70770432394475
100
AcDbArc
 50
172.9521765286879
 51
187.8046457185995
  0
ARC
  5
BA64
330
1F
100
AcDbEntity
  8
freecads.com
100
AcDbCircle
 10
10749.53129489448
 20
30140.7347979978
 30
0.0
 40
7.978097627238626
100
AcDbArc
 50
148.297044887785
 51
172.9521219546552
  0
ARC
  5
BA65
330
1F
100
AcDbEntity
  8
freecads.com
100
AcDbCircle
 10
10743.99247918992
 20
30144.15603287381
 30
0.0
 40
1.46784974517861
100
AcDbArc
 50
77.12001277979506
 51
148.2969758677702
  0
ARC
  5
BA66
330
1F
100
AcDbEntity
  8
freecads.com
100
AcDbCircle
 10
10743.86521797237
 20
30143.59947589409
 30
0.0
 40
2.038771008716021
100
AcDbArc
 50
21.12462038984141
 51
77.12008858607747
  0
ARC
  5
BA67
330
1F
100
AcDbEntity
  8
freecads.com
100
AcDbCircle
 10
10704.89663027574
 20
30122.60211620503
 30
0.0
 40
2.482128013141961
100
AcDbArc
 50
74.37926013995088
 51
89.99998253745244
  0
ARC
  5
BA68
330
1F
100
AcDbEntity
  8
freecads.com
100
AcDbCircle
 10
10705.474652118
 20
30124.66946647205
 30
0.0
 40
0.3354919525363873
100
AcDbArc
 50
6.383470887613007
 51
74.37934578341755
  0
ARC
  5
BA69
330
1F
100
AcDbEntity
  8
freecads.com
100
AcDbCircle
 10
10704.90945697974
 20
30124.60623520307
 30
0.0
 40
0.9042130948323531
100
AcDbArc
 50
332.1256854110778
 51
6.383444081010212
  0
ARC
  5
BA6A
330
1F
100
AcDbEntity
  8
freecads.com
100
AcDbCircle
 10
10690.99787160006
 20
30131.9640534708
 30
0.0
 40
16.64173823181343
100
AcDbArc
 50
328.0148228242025
 51
332.1256978461927
  0
ARC
  5
BA6B
330
1F
100
AcDbEntity
  8
freecads.com
100
AcDbCircle
 10
10700.1754796276
 20
30126.23255344153
 30
0.0
 40
5.821452575115392
100
AcDbArc
 50
311.4825142922123
 51
328.0147802971145
  0
ARC
  5
BA6C
330
1F
100
AcDbEntity
  8
freecads.com
100
AcDbCircle
 10
10703.53239030885
 20
30122.43592093557
 30
0.0
 40
0.7535863863492513
100
AcDbArc
 50
237.417511391585
 51
311.4825696272159
  0
ARC
  5
BA6D
330
1F
100
AcDbEntity
  8
freecads.com
100
AcDbCircle
 10
10703.87025977527
 20
30122.96459100019
 30
0.0
 40
1.380999976867418
100
AcDbArc
 50
188.1117417550568
 51
237.4175647687312
  0
ARC
  5
BA6E
330
1F
100
AcDbEntity
  8
freecads.com
100
AcDbCircle
 10
10714.83818909177
 20
30124.52786549457
 30
0.0
 40
12.45977701391247
100
AcDbArc
 50
178.3195016426556
 51
188.1118042082689
  0
ARC
  5
BA6F
330
1F
100
AcDbEntity
  8
freecads.com
100
AcDbCircle
 10
10715.92807911787
 20
30124.49589614314
 30
0.0
 40
13.55013581191375
100
AcDbArc
 50
174.2430207748465
 51
178.3195292965154
  0
ARC
  5
BA70
330
1F
100
AcDbEntity
  8
freecads.com
100
AcDbCircle
 10
10704.51446589639
 20
30125.64659144887
 30
0.0
 40
2.078663959698686
100
AcDbArc
 50
157.9611233772837
 51
174.2430338244349
  0
ARC
  5
BA71
330
1F
100
AcDbEntity
  8
freecads.com
100
AcDbCircle
 10
10702.72735924049
 20
30126.37004049041
 30
0.0
 40
0.1506782970776631
100
AcDbArc
 50
72.69488131239551
 51
157.9611796436891
  0
ARC
  5
BA72
330
1F
100
AcDbEntity
  8
freecads.com
100
AcDbCircle
 10
10702.68012692148
 20
30126.21844634799
 30
0.0
 40
0.3094601473431558
100
AcDbArc
 50
21.97445393048121
 51
72.69467905748162
  0
ARC
  5
BA73
330
1F
100
AcDbEntity
  8
freecads.com
100
AcDbCircle
 10
10704.46163124564
 20
30126.93729826259
 30
0.0
 40
1.611608756190308
100
AcDbArc
 50
201.974495048806
 51
222.1239925588545
  0
ARC
  5
BA74
330
1F
100
AcDbEntity
  8
freecads.com
100
AcDbCircle
 10
10705.04817948305
 20
30127.46773536051
 30
0.0
 40
2.402432598556925
100
AcDbArc
 50
222.1240594163035
 51
237.06370722866
  0
ARC
  5
BA75
330
1F
100
AcDbEntity
  8
freecads.com
100
AcDbCircle
 10
10705.08772222636
 20
30127.52877483018
 30
0.0
 40
2.475161172069695
100
AcDbArc
 50
237.0637136158623
 51
251.7872327183788
  0
ARC
  5
BA76
330
1F
100
AcDbEntity
  8
freecads.com
100
AcDbCircle
 10
10704.89663163647
 20
30126.94802504609
 30
0.0
 40
1.863780827920082
100
AcDbArc
 50
251.787418664445
 51
269.9999814250038
  0
ARC
  5
BA77
330
1F
100
AcDbEntity
  8
freecads.com
100
AcDbCircle
 10
10691.3249145484
 20
30122.11503623409
 30
0.0
 40
8.527633905298534
100
AcDbArc
 50
339.1495093436298
 51
346.2805317243763
  0
ARC
  5
BA78
330
1F
100
AcDbEntity
  8
freecads.com
100
AcDbCircle
 10
10691.21933173073
 20
30122.15524704429
 30
0.0
 40
8.640614614442192
100
AcDbArc
 50
332.0885674099582
 51
339.1495269659856
  0
ARC
  5
BA79
330
1F
100
AcDbEntity
  8
freecads.com
100
AcDbCircle
 10
10692.46467445905
 20
30121.49555526011
 30
0.0
 40
7.231334031628668
100
AcDbArc
 50
324.6731761581961
 51
332.0885573559958
  0
ARC
  5
BA7A
330
1F
100
AcDbEntity
  8
freecads.com
100
AcDbCircle
 10
10696.95606169295
 20
30118.31231596029
 30
0.0
 40
1.72628437474415
100
AcDbArc
 50
303.1817759370423
 51
324.6732301152909
  0
ARC
  5
BA7B
330
1F
100
AcDbEntity
  8
freecads.com
100
AcDbCircle
 10
10698.8989261647
 20
30115.34124146003
 30
0.0
 40
1.823646052981569
100
AcDbArc
 50
123.1817021436936
 51
141.0671949582601
  0
ARC
  5
BA7C
330
1F
100
AcDbEntity
  8
freecads.com
100
AcDbCircle
 10
10699.9783156084
 20
30114.46927506948
 30
0.0
 40
3.211236395031566
100
AcDbArc
 50
141.0673608805134
 51
152.7762125547308
  0
ARC
  5
BA7D
330
1F
100
AcDbEntity
  8
freecads.com
100
AcDbCircle
 10
10700.09475187881
 20
30114.40937046705
 30
0.0
 40
3.342179002506834
100
AcDbArc
 50
152.7761612440145
 51
164.2833915437187
  0
ARC
  5
BA7E
330
1F
100
AcDbEntity
  8
freecads.com
100
AcDbCircle
 10
10699.10119025381
 20
30114.68895904044
 30
0.0
 40
2.310028590476855
100
AcDbArc
 50
164.2833965392195
 51
179.4605954612496
  0
ARC
  5
BA7F
330
1F
100
AcDbEntity
  8
freecads.com
100
AcDbCircle
 10
10692.70164818224
 20
30114.74921757923
 30
0.0
 40
4.089797174135126
100
AcDbArc
 50
327.2170708034181
 51
359.460469317272
  0
ARC
  5
BA80
330
1F
100
AcDbEntity
  8
freecads.com
100
AcDbCircle
 10
10642.74530188465
 20
30146.92285477263
 30
0.0
 40
63.51015955654827
100
AcDbArc
 50
322.8594265571082
 51
327.2170475300937
  0
ARC
  5
BA81
330
1F
100
AcDbEntity
  8
freecads.com
100
AcDbCircle
 10
10633.56102503052
 20
30153.87917059844
 30
0.0
 40
75.03149937441833
100
AcDbArc
 50
319.1526687077857
 51
322.8593824017188
  0
ARC
  5
BA82
330
1F
100
AcDbEntity
  8
freecads.com
100
AcDbCircle
 10
10688.7426882688
 20
30106.1680304644
 30
0.0
 40
2.083786246224747
100
AcDbArc
 50
269.9999934957081
 51
319.1526774028105
  0
ARC
  5
BA83
330
1F
100
AcDbEntity
  8
freecads.com
100
AcDbCircle
 10
10688.74268711754
 20
30102.7151154478
 30
0.0
 40
1.369128770375333
100
AcDbArc
 50
89.99996172130037
 51
113.6240101098296
  0
ARC
  5
BA84
330
1F
100
AcDbEntity
  8
freecads.com
100
AcDbCircle
 10
10688.77652453353
 20
30102.63775878017
 30
0.0
 40
1.453562322599928
100
AcDbArc
 50
113.6241006709468
 51
136.2116205918115
  0
ARC
  5
BA85
330
1F
100
AcDbEntity
  8
freecads.com
100
AcDbCircle
 10
10688.81566922171
 20
30102.60023857844
 30
0.0
 40
1.507784754733618
100
AcDbArc
 50
136.2117019915814
 51
158.3383936737347
  0
ARC
  5
BA86
330
1F
100
AcDbEntity
  8
freecads.com
100
AcDbCircle
 10
10688.85594036199
 20
30102.58424293357
 30
0.0
 40
1.551116329749072
100
AcDbArc
 50
158.3383571993776
 51
179.9999525488615
  0
ARC
  5
BA87
330
1F
100
AcDbEntity
  8
freecads.com
100
AcDbCircle
 10
10686.11004857567
 20
30102.58424434371
 30
0.0
 40
1.194775456572876
100
AcDbArc
 50
295.000927561676
 51
359.9999939800203
  0
ARC
  5
BA88
330
1F
100
AcDbEntity
  8
freecads.com
100
AcDbCircle
 10
10684.75767274613
 20
30105.48430262563
 30
0.0
 40
4.394659583053444
100
AcDbArc
 50
270.2158155043534
 51
295.0009191174897
  0
ARC
  5
BA89
330
1F
100
AcDbEntity
  8
freecads.com
100
AcDbCircle
 10
10684.75376570559
 20
30106.52130208766
 30
0.0
 40
5.431666405216569
100
AcDbArc
 50
248.4238579735982
 51
270.2158256876982
  0
ARC
  5
BA8A
330
1F
100
AcDbEntity
  8
freecads.com
100
AcDbCircle
 10
10683.45930901813
 20
30103.24790139766
 30
0.0
 40
1.911613821382932
100
AcDbArc
 50
200.9935809003689
 51
248.4239171920836
  0
ARC
  5
BA8B
330
1F
100
AcDbEntity
  8
freecads.com
100
AcDbCircle
 10
10683.55673733883
 20
30103.28528884492
 30
0.0
 40
2.015969457962202
100
AcDbArc
 50
158.2159420555807
 51
200.9936005922388
  0
ARC
  5
BA8C
330
1F
100
AcDbEntity
  8
freecads.com
100
AcDbCircle
 10
10690.65502161539
 20
30100.44847610722
 30
0.0
 40
9.660127108066351
100
AcDbArc
 50
144.823806466931
 51
158.2159843249284
  0
ARC
  5
BA8D
330
1F
100
AcDbEntity
  8
freecads.com
100
AcDbCircle
 10
10721.3180559495
 20
30078.83711922228
 30
0.0
 40
47.17375691087559
100
AcDbArc
 50
139.7891940004929
 51
144.8237662870822
  0
ARC
  5
BA8E
330
1F
100
AcDbEntity
  8
freecads.com
100
AcDbCircle
 10
11569.36311516313
 20
29361.90695503936
 30
0.0
 40
1157.655311360063
100
AcDbArc
 50
139.2947590757529
 51
139.7891062947915
  0
ARC
  5
BA8F
330
1F
100
AcDbEntity
  8
freecads.com
100
AcDbCircle
 10
10804.38661059623
 20
30020.01196475743
 30
0.0
 40
148.551126275639
100
AcDbArc
 50
136.6472543085546
 51
139.2946599282733
  0
ARC
  5
BA90
330
1F
100
AcDbEntity
  8
freecads.com
100
AcDbCircle
 10
10701.44081011834
 20
30117.20224914158
 30
0.0
 40
6.975036434514059
100
AcDbArc
 50
112.2163862098577
 51
136.6471640650918
  0
ARC
  5
BA91
330
1F
100
AcDbEntity
  8
freecads.com
100
AcDbCircle
 10
10699.09248255205
 20
30122.95194902761
 30
0.0
 40
0.7642642491865313
100
AcDbArc
 50
4.085137066415469
 51
112.2163825415284
  0
ARC
  5
BA92
330
1F
100
AcDbEntity
  8
freecads.com
100
AcDbCircle
 10
10690.43077722575
 20
30122.33332929832
 30
0.0
 40
9.448032413363154
100
AcDbArc
 50
346.2805082520733
 51
4.085133331047143
  0
ARC
  5
BA93
330
1F
100
AcDbEntity
  8
freecads.com
100
AcDbCircle
 10
10702.96032399803
 20
30115.00090853961
 30
0.0
 40
2.344500034214713
100
AcDbArc
 50
327.9553054762983
 51
0.0000654598009612
  0
ARC
  5
BA94
330
1F
100
AcDbEntity
  8
freecads.com
100
AcDbCircle
 10
10704.20362362015
 20
30114.22265752266
 30
0.0
 40
0.8777115028558025
100
AcDbArc
 50
261.6141318458766
 51
327.9554151220769
  0
ARC
  5
BA95
330
1F
100
AcDbEntity
  8
freecads.com
100
AcDbCircle
 10
10704.28930921293
 20
30114.80391806272
 30
0.0
 40
1.465253702390389
100
AcDbArc
 50
214.0036494791196
 51
261.614170876002
  0
ARC
  5
BA96
330
1F
100
AcDbEntity
  8
freecads.com
100
AcDbCircle
 10
10706.29445977873
 20
30116.15659344322
 30
0.0
 40
3.884005338366192
100
AcDbArc
 50
190.975656949727
 51
214.003630061531
  0
ARC
  5
BA97
330
1F
100
AcDbEntity
  8
freecads.com
100
AcDbCircle
 10
10704.46793992738
 20
30115.80236039349
 30
0.0
 40
2.02345278041984
100
AcDbArc
 50
171.9432759817986
 51
190.9756892519417
  0
ARC
  5
BA98
330
1F
100
AcDbEntity
  8
freecads.com
100
AcDbCircle
 10
10703.61615636977
 20
30115.92293294981
 30
0.0
 40
1.16317784160791
100
AcDbArc
 50
143.137825404133
 51
171.9433795915183
  0
ARC
  5
BA99
330
1F
100
AcDbEntity
  8
freecads.com
100
AcDbCircle
 10
10703.53287821189
 20
30115.98537318239
 30
0.0
 40
1.059091174714927
100
AcDbArc
 50
112.6503101092025
 51
143.1377886959513
  0
ARC
  5
BA9A
330
1F
100
AcDbEntity
  8
freecads.com
100
AcDbCircle
 10
10703.73150050089
 20
30115.50939896674
 30
0.0
 40
1.574845251433371
100
AcDbArc
 50
90.00001705014737
 51
112.6504043383251
  0
ARC
  5
BA9B
330
1F
100
AcDbEntity
  8
freecads.com
100
AcDbCircle
 10
10703.73149914334
 20
30115.72084648207
 30
0.0
 40
1.363397736105133
100
AcDbArc
 50
62.57464739923394
 51
89.99996264458902
  0
ARC
  5
BA9C
330
1F
100
AcDbEntity
  8
freecads.com
100
AcDbCircle
 10
10703.6679855187
 20
30115.59844924815
 30
0.0
 40
1.50129285343899
100
AcDbArc
 50
37.05996639446341
 51
62.5746406932456
  0
ARC
  5
BA9D
330
1F
100
AcDbEntity
  8
freecads.com
100
AcDbCircle
 10
10703.30163961301
 20
30115.32178888318
 30
0.0
 40
1.960368315817472
100
AcDbArc
 50
15.20048387219613
 51
37.05990351631495
  0
ARC
  5
BA9E
330
1F
100
AcDbEntity
  8
freecads.com
100
AcDbCircle
 10
10702.12065102511
 20
30115.0009090338
 30
0.0
 40
3.184173007128822
100
AcDbArc
 50
0.000039305270734
 51
15.20051238020594
  0
LINE
  5
BA9F
330
1F
100
AcDbEntity
  8
freecads.com
100
AcDbLine
 10
10696.32014503224
 20
30102.17507821817
 30
0.0
 11
10695.13273503224
 21
30095.13531021817
 31
0.0
  0
LINE
  5
BAA0
330
1F
100
AcDbEntity
  8
freecads.com
100
AcDbLine
 10
10695.13273503224
 20
30095.13531021817
 30
0.0
 11
10692.71877903224
 21
30098.00413321817
 31
0.0
  0
ARC
  5
BAA1
330
1F
100
AcDbEntity
  8
freecads.com
100
AcDbCircle
 10
10713.14466087138
 20
30115.19134856404
 30
0.0
 40
26.69488753022912
100
AcDbArc
 50
216.8900511072277
 51
220.0786992490736
  0
ARC
  5
BAA2
330
1F
100
AcDbEntity
  8
freecads.com
100
AcDbCircle
 10
10707.08009527232
 20
30110.6395779577
 30
0.0
 40
19.11217221460269
100
AcDbArc
 50
212.7938092766647
 51
216.8900212810729
  0
ARC
  5
BAA3
330
1F
100
AcDbEntity
  8
freecads.com
100
AcDbCircle
 10
10705.95070678994
 20
30109.91187659391
 30
0.0
 40
17.76864416570274
100
AcDbArc
 50
209.1598680736521
 51
212.7937202263493
  0
ARC
  5
BAA4
330
1F
100
AcDbEntity
  8
freecads.com
100
AcDbCircle
 10
10691.32405376648
 20
30101.75075503322
 30
0.0
 40
1.019229734239935
100
AcDbArc
 50
179.9999333885634
 51
209.1598068095834
  0
ARC
  5
BAA5
330
1F
100
AcDbEntity
  8
freecads.com
100
AcDbCircle
 10
10692.52342647433
 20
30101.7507560807
 30
0.0
 40
2.218602442083355
100
AcDbArc
 50
142.2465252197453
 51
179.9999964496273
  0
ARC
  5
BAA6
330
1F
100
AcDbEntity
  8
freecads.com
100
AcDbCircle
 10
10769.82838981149
 20
30041.88742132344
 30
0.0
 40
99.99219910712824
100
AcDbArc
 50
139.8079079832421
 51
142.2465535018376
  0
ARC
  5
BAA7
330
1F
100
AcDbEntity
  8
freecads.com
100
AcDbCircle
 10
10800.42569874314
 20
30016.03798350014
 30
0.0
 40
140.0470209097331
100
AcDbArc
 50
138.0363749242237
 51
139.8079251421688
  0
ARC
  5
BAA8
330
1F
100
AcDbEntity
  8
freecads.com
100
AcDbCircle
 10
10696.66538572067
 20
30109.34497811649
 30
0.0
 40
0.5034871904751671
100
AcDbArc
 50
44.99998311014627
 51
138.0363714024835
  0
ARC
  5
BAA9
330
1F
100
AcDbEntity
  8
freecads.com
100
AcDbCircle
 10
10696.64044200112
 20
30109.32003437861
 30
0.0
 40
0.5387629499226776
100
AcDbArc
 50
356.031346342229
 51
44.99998559432976
  0
ARC
  5
BAAA
330
1F
100
AcDbEntity
  8
freecads.com
100
AcDbCircle
 10
10612.82107836189
 20
30115.13503019169
 30
0.0
 40
84.55959308858577
100
AcDbArc
 50
354.6765297363411
 51
356.0314445449003
  0
ARC
  5
BAAB
330
1F
100
AcDbEntity
  8
freecads.com
100
AcDbCircle
 10
10643.80190653831
 20
30112.24820397115
 30
0.0
 40
53.44455685007581
100
AcDbArc
 50
352.1061422985823
 51
354.6765523695399
  0
ARC
  5
BAAC
330
1F
100
AcDbEntity
  8
freecads.com
100
AcDbCircle
 10
10603.33028302245
 20
30117.85979732469
 30
0.0
 40
94.3033660589654
100
AcDbArc
 50
350.4259625461992
 51
352.1060738866134
  0
ARC
  5
BAAD
330
1F
100
AcDbEntity
  8
freecads.com
100
AcDbCircle
 10
10732.2577862507
 20
30092.93218150616
 30
0.0
 40
7.152062712017908
100
AcDbArc
 50
76.94250040786302
 51
90.00004180551851
  0
ARC
  5
BAAE
330
1F
100
AcDbEntity
  8
freecads.com
100
AcDbCircle
 10
10733.55295996461
 20
30098.5166152228
 30
0.0
 40
1.419404089284715
100
AcDbArc
 50
33.68377396462147
 51
76.94254857157587
  0
ARC
  5
BAAF
330
1F
100
AcDbEntity
  8
freecads.com
100
AcDbCircle
 10
10731.92531323006
 20
30097.43177991176
 30
0.0
 40
3.375446405942007
100
AcDbArc
 50
10.11295414124258
 51
33.68371345294899
  0
ARC
  5
BAB0
330
1F
100
AcDbEntity
  8
freecads.com
100
AcDbCircle
 10
10664.56565558175
 20
30085.41752322969
 30
0.0
 40
71.79814616355199
100
AcDbArc
 50
7.55649170645314
 51
10.11292335607788
  0
ARC
  5
BAB1
330
1F
100
AcDbEntity
  8
freecads.com
100
AcDbCircle
 10
10770.62284102377
 20
30099.48659167951
 30
0.0
 40
35.18813927027831
100
AcDbArc
 50
187.5564594555225
 51
191.009758491579
  0
ARC
  5
BAB2
330
1F
100
AcDbEntity
  8
freecads.com
100
AcDbCircle
 10
10764.49096007919
 20
30098.29356352525
 30
0.0
 40
28.94127765067621
100
AcDbArc
 50
191.0097052919566
 51
195.008086622655
  0
ARC
  5
BAB3
330
1F
100
AcDbEntity
  8
freecads.com
100
AcDbCircle
 10
10761.14467952418
 20
30097.39642283059
 30
0.0
 40
25.4768217079821
100
AcDbArc
 50
195.00808378486
 51
198.8316493226291
  0
ARC
  5
BAB4
330
1F
100
AcDbEntity
  8
freecads.com
100
AcDbCircle
 10
10739.42349121002
 20
30089.98853171406
 30
0.0
 40
2.527162177322279
100
AcDbArc
 50
198.8315643763828
 51
219.6901771700774
  0
ARC
  5
BAB5
330
1F
100
AcDbEntity
  8
freecads.com
100
AcDbCircle
 10
10733.16529354969
 20
30084.79468308961
 30
0.0
 40
5.605555787137447
100
AcDbArc
 50
4.889657224570212
 51
39.69021640547401
  0
ARC
  5
BAB6
330
1F
100
AcDbEntity
  8
freecads.com
100
AcDbCircle
 10
10631.89703201396
 20
30076.13134808425
 30
0.0
 40
107.2437088984778
100
AcDbArc
 50
0.8250608794346552
 51
4.889655637986183
  0
ARC
  5
BAB7
330
1F
100
AcDbEntity
  8
freecads.com
100
AcDbCircle
 10
10650.04959840238
 20
30076.3928137341
 30
0.0
 40
89.0892595604015
100
AcDbArc
 50
355.6782120481092
 51
0.8250286619811999
  0
ARC
  5
BAB8
330
1F
100
AcDbEntity
  8
freecads.com
100
AcDbCircle
 10
10706.07690801922
 20
30072.15866228757
 30
0.0
 40
32.90218398804473
100
AcDbArc
 50
344.8537166620986
 51
355.6782297929026
  0
ARC
  5
BAB9
330
1F
100
AcDbEntity
  8
freecads.com
100
AcDbCircle
 10
10676.28733403535
 20
30080.222344537
 30
0.0
 40
63.76383801954203
100
AcDbArc
 50
342.5289482529029
 51
344.8537020650314
  0
ARC
  5
BABA
330
1F
100
AcDbEntity
  8
freecads.com
100
AcDbCircle
 10
10704.20020644661
 20
30071.43696318828
 30
0.0
 40
34.50103959408267
100
AcDbArc
 50
338.8471912592016
 51
342.5289304831907
  0
ARC
  5
BABB
330
1F
100
AcDbEntity
  8
freecads.com
100
AcDbCircle
 10
10694.87991111373
 20
30075.04319219479
 30
0.0
 40
44.49467720698212
100
AcDbArc
 50
336.5309723296942
 51
338.8472472356637
  0
ARC
  5
BABC
330
1F
100
AcDbEntity
  8
freecads.com
100
AcDbCircle
 10
10735.32977785701
 20
30057.48108214931
 30
0.0
 40
0.396837931142123
100
AcDbArc
 50
270.0000253010692
 51
336.5311415529427
  0
ARC
  5
BABD
330
1F
100
AcDbEntity
  8
freecads.com
100
AcDbCircle
 10
10735.32977862122
 20
30057.67202536949
 30
0.0
 40
0.5877811513133333
100
AcDbArc
 50
224.776299808623
 51
269.9999425869531
  0
ARC
  5
BABE
330
1F
100
AcDbEntity
  8
freecads.com
100
AcDbCircle
 10
10751.89735382305
 20
30074.11073553153
 30
0.0
 40
23.92692723380347
100
AcDbArc
 50
221.6426489032002
 51
224.7763035606833
  0
ARC
  5
BABF
330
1F
100
AcDbEntity
  8
freecads.com
100
AcDbCircle
 10
10750.87234419466
 20
30073.1993491863
 30
0.0
 40
22.55533334048472
100
AcDbArc
 50
217.55312873577
 51
221.642696549252
  0
ARC
  5
BAC0
330
1F
100
AcDbEntity
  8
freecads.com
100
AcDbCircle
 10
10762.206293027
 20
30081.9129400011
 30
0.0
 40
36.85166367457374
100
AcDbArc
 50
214.7219894793006
 51
217.5531736926712
  0
ARC
  5
BAC1
330
1F
100
AcDbEntity
  8
freecads.com
100
AcDbCircle
 10
10743.98140172922
 20
30069.283091492
 30
0.0
 40
14.67826212726119
100
AcDbArc
 50
204.5138742648056
 51
214.7220388386058
  0
ARC
  5
BAC2
330
1F
100
AcDbEntity
  8
freecads.com
100
AcDbCircle
 10
10758.98280269161
 20
30076.12403031987
 30
0.0
 40
31.16584760485019
100
AcDbArc
 50
198.701006340264
 51
204.5139060420161
  0
ARC
  5
BAC3
330
1F
100
AcDbEntity
  8
freecads.com
100
AcDbCircle
 10
10771.770426541
 20
30080.45258082791
 30
0.0
 40
44.66620586717478
100
AcDbArc
 50
193.8468591817153
 51
198.7009192211797
  0
ARC
  5
BAC4
330
1F
100
AcDbEntity
  8
freecads.com
100
AcDbCircle
 10
10815.8859252363
 20
30091.3266213341
 30
0.0
 40
90.10211657736581
100
AcDbArc
 50
190.9753268222431
 51
193.846841020909
  0
ARC
  5
BAC5
330
1F
100
AcDbEntity
  8
freecads.com
100
AcDbCircle
 10
10647.28537189507
 20
30058.62936277919
 30
0.0
 40
81.63971671893518
100
AcDbArc
 50
10.97530751621378
 51
13.79228453352143
  0
ARC
  5
BAC6
330
1F
100
AcDbEntity
  8
freecads.com
100
AcDbCircle
 10
10636.98644992002
 20
30056.10123005398
 30
0.0
 40
92.24439723850014
100
AcDbArc
 50
13.79225156085631
 51
16.3626616316997
  0
ARC
  5
BAC7
330
1F
100
AcDbEntity
  8
freecads.com
100
AcDbCircle
 10
10646.95706125651
 20
30059.02868490553
 30
0.0
 40
81.85290637668549
100
AcDbArc
 50
16.3626593089605
 51
18.95300578376245
  0
ARC
  5
BAC8
330
1F
100
AcDbEntity
  8
freecads.com
100
AcDbCircle
 10
10707.74095803765
 20
30079.90251586049
 30
0.0
 40
17.58472664023473
100
AcDbArc
 50
18.95298357626511
 51
27.06061943733202
  0
LINE
  5
BAC9
330
1F
100
AcDbEntity
  8
freecads.com
100
AcDbLine
 10
10723.40060903224
 20
30087.90238721817
 30
0.0
 11
10721.19464903224
 21
30092.22052921817
 31
0.0
  0
LINE
  5
BACA
330
1F
100
AcDbEntity
  8
freecads.com
100
AcDbLine
 10
10721.19464903224
 20
30092.22052921817
 30
0.0
 11
10723.83533903224
 21
30096.72652721817
 31
0.0
  0
ARC
  5
BACB
330
1F
100
AcDbEntity
  8
freecads.com
100
AcDbCircle
 10
10750.80243073494
 20
30080.92275383092
 30
0.0
 40
31.25673188573945
100
AcDbArc
 50
145.292626412512
 51
149.6280246181387
  0
ARC
  5
BACC
330
1F
100
AcDbEntity
  8
freecads.com
100
AcDbCircle
 10
10731.83219797868
 20
30094.06197225199
 30
0.0
 40
8.180579876727245
100
AcDbArc
 50
133.5444255952668
 51
145.2925936196717
  0
ARC
  5
BACD
330
1F
100
AcDbEntity
  8
freecads.com
100
AcDbCircle
 10
10728.5887192684
 20
30097.47458971836
 30
0.0
 40
3.472489805820744
100
AcDbArc
 50
114.5765096105803
 51
133.5445088183486
  0
ARC
  5
BACE
330
1F
100
AcDbEntity
  8
freecads.com
100
AcDbCircle
 10
10727.58916472126
 20
30099.66017512883
 30
0.0
 40
1.069181070107766
100
AcDbArc
 50
69.00636660239432
 51
114.5765535193779
  0
ARC
  5
BACF
330
1F
100
AcDbEntity
  8
freecads.com
100
AcDbCircle
 10
10729.64850298846
 20
30105.02673533272
 30
0.0
 40
4.678935362315068
100
AcDbArc
 50
249.0064469129718
 51
258.774957815525
  0
ARC
  5
BAD0
330
1F
100
AcDbEntity
  8
freecads.com
100
AcDbCircle
 10
10732.23151567061
 20
30118.0421982514
 30
0.0
 40
17.94823185849202
100
AcDbArc
 50
258.7750535239846
 51
262.3694959826429
  0
ARC
  5
BAD1
330
1F
100
AcDbEntity
  8
freecads.com
100
AcDbCircle
 10
10732.51562117234
 20
30120.16280164801
 30
0.0
 40
20.08778197516512
100
AcDbArc
 50
262.3694750153195
 51
265.9020529914582
  0
ARC
  5
BAD2
330
1F
100
AcDbEntity
  8
freecads.com
100
AcDbCircle
 10
10732.25776828093
 20
30116.56354451709
 30
0.0
 40
16.47930029892511
100
AcDbArc
 50
265.9019994506752
 51
270.0000443342184
  0
ARC
  5
BAD3
330
1F
100
AcDbEntity
  8
freecads.com
100
AcDbCircle
 10
10647.20063169183
 20
30077.08424614273
 30
0.0
 40
3.104192340411287
100
AcDbArc
 50
341.9616324578892
 51
359.9999644775135
  0
ARC
  5
BAD4
330
1F
100
AcDbEntity
  8
freecads.com
100
AcDbCircle
 10
10649.00121331962
 20
30076.49786874386
 30
0.0
 40
1.210536444473988
100
AcDbArc
 50
305.5377182869686
 51
341.961616172594
  0
ARC
  5
BAD5
330
1F
100
AcDbEntity
  8
freecads.com
100
AcDbCircle
 10
10648.61256338993
 20
30077.0419797501
 30
0.0
 40
1.879195965424558
100
AcDbArc
 50
278.111013555606
 51
305.5376843013001
  0
ARC
  5
BAD6
330
1F
100
AcDbEntity
  8
freecads.com
100
AcDbCircle
 10
10647.50482585663
 20
30084.81458426939
 30
0.0
 40
9.730340051217053
100
AcDbArc
 50
269.9999892573764
 51
278.1110585628762
  0
ARC
  5
BAD7
330
1F
100
AcDbEntity
  8
freecads.com
100
AcDbCircle
 10
10647.5048258368
 20
30082.56817299874
 30
0.0
 40
7.48392878057074
100
AcDbArc
 50
255.1885974200902
 51
269.9999861845417
  0
ARC
  5
BAD8
330
1F
100
AcDbEntity
  8
freecads.com
100
AcDbCircle
 10
10647.20945065221
 20
30081.45110444606
 30
0.0
 40
6.328468417323262
100
AcDbArc
 50
238.3925231178408
 51
255.1885545296626
  0
ARC
  5
BAD9
330
1F
100
AcDbEntity
  8
freecads.com
100
AcDbCircle
 10
10646.27086958726
 20
30079.92591199032
 30
0.0
 40
4.537617657900617
100
AcDbArc
 50
218.3926957872418
 51
238.3925448733442
  0
ARC
  5
BADA
330
1F
100
AcDbEntity
  8
freecads.com
100
AcDbCircle
 10
10644.19905325828
 20
30078.28424226085
 30
0.0
 40
1.894229226042759
100
AcDbArc
 50
179.9999407957168
 51
218.392735165848
  0
ARC
  5
BADB
330
1F
100
AcDbEntity
  8
freecads.com
100
AcDbCircle
 10
10642.63370023629
 20
30078.28424466781
 30
0.0
 40
0.3288762040509372
100
AcDbArc
 50
108.515111416316
 51
180.0000783341489
  0
ARC
  5
BADC
330
1F
100
AcDbEntity
  8
freecads.com
100
AcDbCircle
 10
10645.01490706907
 20
30071.17378366597
 30
0.0
 40
7.82746284682205
100
AcDbArc
 50
101.3098673464227
 51
108.5150724411329
  0
ARC
  5
BADD
330
1F
100
AcDbEntity
  8
freecads.com
100
AcDbCircle
 10
10645.57567634251
 20
30068.36995378407
 30
0.0
 40
10.6868201495471
100
AcDbArc
 50
94.31511420733704
 51
101.309902105321
  0
ARC
  5
BADE
330
1F
100
AcDbEntity
  8
freecads.com
100
AcDbCircle
 10
10646.30484510636
 20
30058.70619387356
 30
0.0
 40
20.37805034462097
100
AcDbArc
 50
90.00005925284989
 51
94.31506742473217
  0
ARC
  5
BADF
330
1F
100
AcDbEntity
  8
freecads.com
100
AcDbCircle
 10
10646.30481101044
 20
30048.13204031508
 30
0.0
 40
30.95220390309784
100
AcDbArc
 50
86.01534138102072
 51
89.99997589527691
  0
ARC
  5
BAE0
330
1F
100
AcDbEntity
  8
freecads.com
100
AcDbCircle
 10
10648.2534511364
 20
30076.10650461209
 30
0.0
 40
2.909952726602302
100
AcDbArc
 50
63.43489435598689
 51
86.0153783662241
  0
ARC
  5
BAE1
330
1F
100
AcDbEntity
  8
freecads.com
100
AcDbCircle
 10
10649.04053274102
 20
30077.68066288382
 30
0.0
 40
1.149989171075592
100
AcDbArc
 50
21.6979927673549
 51
63.43492101341645
  0
ARC
  5
BAE2
330
1F
100
AcDbEntity
  8
freecads.com
100
AcDbCircle
 10
10647.54163926698
 20
30077.08424157419
 30
0.0
 40
2.763184765267044
100
AcDbArc
 50
0.0000548241075286
 51
21.69799231955888
  0
ARC
  5
BAE3
330
1F
100
AcDbEntity
  8
freecads.com
100
AcDbCircle
 10
10661.80519106144
 20
30077.08424432036
 30
0.0
 40
0.9996329707994442
100
AcDbArc
 50
315.1588284587304
 51
359.9999941428126
  0
ARC
  5
BAE4
330
1F
100
AcDbEntity
  8
freecads.com
100
AcDbCircle
 10
10660.90777389167
 20
30077.97669769503
 30
0.0
 40
2.26526743721116
100
AcDbArc
 50
290.8046782027334
 51
315.1588663544473
  0
ARC
  5
BAE5
330
1F
100
AcDbEntity
  8
freecads.com
100
AcDbCircle
 10
10659.45213427797
 20
30081.80777694517
 30
0.0
 40
6.363566463128497
100
AcDbArc
 50
277.5823640331836
 51
290.8046038762231
  0
ARC
  5
BAE6
330
1F
100
AcDbEntity
  8
freecads.com
100
AcDbCircle
 10
10655.94563276977
 20
30108.14981151415
 30
0.0
 40
32.93795898788926
100
AcDbArc
 50
273.6714630692298
 51
277.5823225142413
  0
ARC
  5
BAE7
330
1F
100
AcDbEntity
  8
freecads.com
100
AcDbCircle
 10
10653.96285150039
 20
30139.05078279064
 30
0.0
 40
63.90247815728027
100
AcDbArc
 50
271.1828252577851
 51
273.6714269229066
  0
ARC
  5
BAE8
330
1F
100
AcDbEntity
  8
freecads.com
100
AcDbCircle
 10
10655.21603892652
 20
30078.35516798553
 30
0.0
 40
3.193927397981902
100
AcDbArc
 50
249.1953744985544
 51
271.1828742122118
  0
ARC
  5
BAE9
330
1F
100
AcDbEntity
  8
freecads.com
100
AcDbCircle
 10
10654.43237996322
 20
30076.2926752386
 30
0.0
 40
0.987573459487179
100
AcDbArc
 50
200.0571820015423
 51
249.1954247765486
  0
ARC
  5
BAEA
330
1F
100
AcDbEntity
  8
freecads.com
100
AcDbCircle
 10
10656.6004658826
 20
30077.08424528802
 30
0.0
 40
3.295641850354861
100
AcDbArc
 50
180.0000185995923
 51
200.0571818752992
  0
ARC
  5
BAEB
330
1F
100
AcDbEntity
  8
freecads.com
100
AcDbCircle
 10
10656.6004658826
 20
30077.08424314832
 30
0.0
 40
3.295641850354801
100
AcDbArc
 50
159.9428181247008
 51
179.9999814004077
  0
ARC
  5
BAEC
330
1F
100
AcDbEntity
  8
freecads.com
100
AcDbCircle
 10
10654.43237996322
 20
30077.87581319774
 30
0.0
 40
0.9875734594871866
100
AcDbArc
 50
110.8045752234514
 51
159.9428179984576
  0
ARC
  5
BAED
330
1F
100
AcDbEntity
  8
freecads.com
100
AcDbCircle
 10
10655.21603892652
 20
30075.81332045081
 30
0.0
 40
3.193927397981861
100
AcDbArc
 50
88.81712578778818
 51
110.8046255014456
  0
ARC
  5
BAEE
330
1F
100
AcDbEntity
  8
freecads.com
100
AcDbCircle
 10
10653.96285150039
 20
30015.1177056457
 30
0.0
 40
63.90247815728027
100
AcDbArc
 50
86.3285730770934
 51
88.81717474221488
  0
ARC
  5
BAEF
330
1F
100
AcDbEntity
  8
freecads.com
100
AcDbCircle
 10
10655.94563276977
 20
30046.01867692219
 30
0.0
 40
32.93795898788926
100
AcDbArc
 50
82.41767748575865
 51
86.3285369307702
  0
ARC
  5
BAF0
330
1F
100
AcDbEntity
  8
freecads.com
100
AcDbCircle
 10
10659.45213427797
 20
30072.36071149117
 30
0.0
 40
6.363566463128499
100
AcDbArc
 50
69.19539612377689
 51
82.41763596681641
  0
ARC
  5
BAF1
330
1F
100
AcDbEntity
  8
freecads.com
100
AcDbCircle
 10
10660.90777389167
 20
30076.19179074131
 30
0.0
 40
2.265267437211135
100
AcDbArc
 50
44.8411336455527
 51
69.1953217972666
  0
ARC
  5
BAF2
330
1F
100
AcDbEntity
  8
freecads.com
100
AcDbCircle
 10
10661.80519106144
 20
30077.08424411598
 30
0.0
 40
0.9996329707993631
100
AcDbArc
 50
0.0000058571873681
 51
44.84117154126955
  0
ARC
  5
BAF3
330
1F
100
AcDbEntity
  8
freecads.com
100
AcDbCircle
 10
10665.8206731051
 20
30067.40806934259
 30
0.0
 40
12.22870827783432
100
AcDbArc
 50
10.92906835376071
 51
26.5130630162753
  0
ARC
  5
BAF4
330
1F
100
AcDbEntity
  8
freecads.com
100
AcDbCircle
 10
10670.80483443103
 20
30068.37049076672
 30
0.0
 40
7.152477479250173
100
AcDbArc
 50
347.6436146928003
 51
10.92906401411384
  0
ARC
  5
BAF5
330
1F
100
AcDbEntity
  8
freecads.com
100
AcDbCircle
 10
10673.86951087655
 20
30067.69912373244
 30
0.0
 40
4.015125823723759
100
AcDbArc
 50
314.8528579760455
 51
347.6436073630646
  0
ARC
  5
BAF6
330
1F
100
AcDbEntity
  8
freecads.com
100
AcDbCircle
 10
10674.83931053256
 20
30066.7243311533
 30
0.0
 40
2.640086935128967
100
AcDbArc
 50
269.9999891420044
 51
314.8528423228154
  0
ARC
  5
BAF7
330
1F
100
AcDbEntity
  8
freecads.com
100
AcDbCircle
 10
10674.83931218391
 20
30067.37463663333
 30
0.0
 40
3.290392415157178
100
AcDbArc
 50
249.3366069416151
 51
269.9999625328648
  0
ARC
  5
BAF8
330
1F
100
AcDbEntity
  8
freecads.com
100
AcDbCircle
 10
10674.81197601762
 20
30067.30214889381
 30
0.0
 40
3.212921527945495
100
AcDbArc
 50
228.3006912584469
 51
249.3365776639589
  0
ARC
  5
BAF9
330
1F
100
AcDbEntity
  8
freecads.com
100
AcDbCircle
 10
10676.06497212946
 20
30068.70851786045
 30
0.0
 40
5.096501344843129
100
AcDbArc
 50
212.300441236234
 51
228.300712193734
  0
ARC
  5
BAFA
330
1F
100
AcDbEntity
  8
freecads.com
100
AcDbCircle
 10
10685.03317972392
 20
30074.37808737603
 30
0.0
 40
15.70653272789036
100
AcDbArc
 50
205.3858162618439
 51
212.3004639125959
  0
ARC
  5
BAFB
330
1F
100
AcDbEntity
  8
freecads.com
100
AcDbCircle
 10
10702.74181033342
 20
30082.78141483104
 30
0.0
 40
35.30784672413449
100
AcDbArc
 50
201.5833634838435
 51
205.385850010722
  0
ARC
  5
BAFC
330
1F
100
AcDbEntity
  8
freecads.com
100
AcDbCircle
 10
10673.17256215366
 20
30071.08405840075
 30
0.0
 40
3.508969615460183
100
AcDbArc
 50
180.8678240978829
 51
201.5834633908578
  0
ARC
  5
BAFD
330
1F
100
AcDbEntity
  8
freecads.com
100
AcDbCircle
 10
10672.14515655181
 20
30071.06849872519
 30
0.0
 40
2.481446197627621
100
AcDbArc
 50
154.6069768557601
 51
180.8678933188102
  0
ARC
  5
BAFE
330
1F
100
AcDbEntity
  8
freecads.com
100
AcDbCircle
 10
10681.35855265181
 20
30066.69505599492
 30
0.0
 40
12.68015538116132
100
AcDbArc
 50
146.7661166231733
 51
154.6070772937754
  0
ARC
  5
BAFF
330
1F
100
AcDbEntity
  8
freecads.com
100
AcDbCircle
 10
10678.32043687158
 20
30068.68572782523
 30
0.0
 40
9.047949187974575
100
AcDbArc
 50
131.3505795916483
 51
146.7662095599254
  0
ARC
  5
BB00
330
1F
100
AcDbEntity
  8
freecads.com
100
AcDbCircle
 10
10673.60761442725
 20
30074.04068159857
 30
0.0
 40
1.914491028963781
100
AcDbArc
 50
82.62958655891814
 51
131.3506163590034
  0
ARC
  5
BB01
330
1F
100
AcDbEntity
  8
freecads.com
100
AcDbCircle
 10
10673.56430558661
 20
30073.70587523888
 30
0.0
 40
2.252086873386884
100
AcDbArc
 50
38.87834974184372
 51
82.62956436903396
  0
ARC
  5
BB02
330
1F
100
AcDbEntity
  8
freecads.com
100
AcDbCircle
 10
10665.64396241879
 20
30067.31991776948
 30
0.0
 40
12.42618578665718
100
AcDbArc
 50
26.51304884505416
 51
38.8782999593356
  0
ARC
  5
BB03
330
1F
100
AcDbEntity
  8
freecads.com
100
AcDbCircle
 10
10667.19552997561
 20
30065.17524768253
 30
0.0
 40
2.762020139165845
100
AcDbArc
 50
341.69053954491
 51
17.60883175757522
  0
ARC
  5
BB04
330
1F
100
AcDbEntity
  8
freecads.com
100
AcDbCircle
 10
10665.97803986996
 20
30065.57811750873
 30
0.0
 40
4.044434367958959
100
AcDbArc
 50
314.6922964254515
 51
341.690533572786
  0
ARC
  5
BB05
330
1F
100
AcDbEntity
  8
freecads.com
100
AcDbCircle
 10
10665.11606065957
 20
30066.44940319258
 30
0.0
 40
5.270055395040823
100
AcDbArc
 50
291.4994111400933
 51
314.6923118927736
  0
ARC
  5
BB06
330
1F
100
AcDbEntity
  8
freecads.com
100
AcDbCircle
 10
10664.77819103673
 20
30067.3071427841
 30
0.0
 40
6.191941010970688
100
AcDbArc
 50
270.9468296661173
 51
291.4994730907889
  0
ARC
  5
BB07
330
1F
100
AcDbEntity
  8
freecads.com
100
AcDbCircle
 10
10664.70751973771
 20
30071.58319553273
 30
0.0
 40
10.46857772006184
100
AcDbArc
 50
264.838493746689
 51
270.946839693178
  0
ARC
  5
BB08
330
1F
100
AcDbEntity
  8
freecads.com
100
AcDbCircle
 10
10663.78738962155
 20
30061.39684663424
 30
0.0
 40
0.2407556981249139
100
AcDbArc
 50
173.7496975169561
 51
264.8384057303951
  0
ARC
  5
BB09
330
1F
100
AcDbEntity
  8
freecads.com
100
AcDbCircle
 10
10664.41690077723
 20
30061.32790160041
 30
0.0
 40
0.8740310827848396
100
AcDbArc
 50
138.1497235278212
 51
173.7497635688514
  0
ARC
  5
BB0A
330
1F
100
AcDbEntity
  8
freecads.com
100
AcDbCircle
 10
10727.04704425683
 20
30005.231083937
 30
0.0
 40
84.95368274855543
100
AcDbArc
 50
136.788143799168
 51
138.1497046847414
  0
ARC
  5
BB0B
330
1F
100
AcDbEntity
  8
freecads.com
100
AcDbCircle
 10
10655.12041519017
 20
30072.80268552867
 30
0.0
 40
13.73451974068616
100
AcDbArc
 50
316.7881839550653
 51
322.1317657552904
  0
ARC
  5
BB0C
330
1F
100
AcDbEntity
  8
freecads.com
100
AcDbCircle
 10
10656.71029142854
 20
30071.56640599859
 30
0.0
 40
11.72054518032714
100
AcDbArc
 50
322.1318031039048
 51
328.1501431140018
  0
ARC
  5
BB0D
330
1F
100
AcDbEntity
  8
freecads.com
100
AcDbCircle
 10
10658.43648852927
 20
30070.49405444619
 30
0.0
 40
9.688380255362696
100
AcDbArc
 50
328.1500594922973
 51
334.3030641750671
  0
ARC
  5
BB0E
330
1F
100
AcDbEntity
  8
freecads.com
100
AcDbCircle
 10
10665.90811232577
 20
30066.89869560899
 30
0.0
 40
1.396711706470084
100
AcDbArc
 50
334.3031106766793
 51
359.9999839677735
  0
ARC
  5
BB0F
330
1F
100
AcDbEntity
  8
freecads.com
100
AcDbCircle
 10
10668.8321878989
 20
30066.89869519548
 30
0.0
 40
1.527363866658447
100
AcDbArc
 50
143.1038996931519
 51
179.9999991489361
  0
ARC
  5
BB10
330
1F
100
AcDbEntity
  8
freecads.com
100
AcDbCircle
 10
10668.09959127037
 20
30067.44866566164
 30
0.0
 40
0.6113041885925269
100
AcDbArc
 50
70.6142816173012
 51
143.1038491671932
  0
ARC
  5
BB11
330
1F
100
AcDbEntity
  8
freecads.com
100
AcDbCircle
 10
10667.7146992832
 20
30066.35483523611
 30
0.0
 40
1.770876024057063
100
AcDbArc
 50
34.0172388629017
 51
70.61428397131175
  0
ARC
  5
BB12
330
1F
100
AcDbEntity
  8
freecads.com
100
AcDbCircle
 10
10664.87654691946
 20
30064.43923474108
 30
0.0
 40
5.195001327889907
100
AcDbArc
 50
17.60877646023618
 51
34.01723765202865
  0
LINE
  5
BB13
330
1F
100
AcDbEntity
  8
freecads.com
100
AcDbLine
 10
10761.98362803224
 20
30057.41980421817
 30
0.0
 11
10764.16243303224
 21
30051.78952821817
 31
0.0
  0
LINE
  5
BB14
330
1F
100
AcDbEntity
  8
freecads.com
100
AcDbLine
 10
10764.16243303224
 20
30051.78952821817
 30
0.0
 11
10761.98862803224
 21
30050.02928821817
 31
0.0
  0
ARC
  5
BB15
330
1F
100
AcDbEntity
  8
freecads.com
100
AcDbCircle
 10
10755.84321260758
 20
30057.61856305441
 30
0.0
 40
9.765409529643806
100
AcDbArc
 50
302.5753566641544
 51
308.9988228661874
  0
ARC
  5
BB16
330
1F
100
AcDbEntity
  8
freecads.com
100
AcDbCircle
 10
10757.61747418106
 20
30054.84162670864
 30
0.0
 40
6.470052250196131
100
AcDbArc
 50
293.8306238079387
 51
302.5752141085655
  0
ARC
  5
BB17
330
1F
100
AcDbEntity
  8
freecads.com
100
AcDbCircle
 10
10758.36478976191
 20
30053.14969698661
 30
0.0
 40
4.620428839430279
100
AcDbArc
 50
284.1167300423854
 51
293.8305650755193
  0
ARC
  5
BB18
330
1F
100
AcDbEntity
  8
freecads.com
100
AcDbCircle
 10
10759.3548404568
 20
30049.2130085371
 30
0.0
 40
0.5611534943798029
100
AcDbArc
 50
238.2824567053501
 51
284.1166509827204
  0
ARC
  5
BB19
330
1F
100
AcDbEntity
  8
freecads.com
100
AcDbCircle
 10
10759.79078931443
 20
30049.91839044955
 30
0.0
 40
1.390379066158851
100
AcDbArc
 50
181.4590392898636
 51
238.2825377252149
  0
ARC
  5
BB1A
330
1F
100
AcDbEntity
  8
freecads.com
100
AcDbCircle
 10
11007.38109615505
 20
30056.22451102023
 30
0.0
 40
249.060981274184
100
AcDbArc
 50
180.0199853046297
 51
181.4590071916582
  0
ARC
  5
BB1B
330
1F
100
AcDbEntity
  8
freecads.com
100
AcDbCircle
 10
11043.62755895026
 20
30056.23722622541
 30
0.0
 40
285.3074462995685
100
AcDbArc
 50
178.7565260540634
 51
180.0199997837645
  0
ARC
  5
BB1C
330
1F
100
AcDbEntity
  8
freecads.com
100
AcDbCircle
 10
10759.03995962189
 20
30062.41452016019
 30
0.0
 40
0.6528123098061577
100
AcDbArc
 50
88.69527339482377
 51
178.7565812765814
  0
ARC
  5
BB1D
330
1F
100
AcDbEntity
  8
freecads.com
100
AcDbCircle
 10
10759.04449473407
 20
30062.61363764517
 30
0.0
 40
0.4536431855166925
100
AcDbArc
 50
29.93861731541473
 51
88.69528219341157
  0
ARC
  5
BB1E
330
1F
100
AcDbEntity
  8
freecads.com
100
AcDbCircle
 10
10727.20843667624
 20
30044.27855033393
 30
0.0
 40
37.19204297881216
100
AcDbArc
 50
27.41194700482699
 51
29.93858851309674
  0
ARC
  5
BB1F
330
1F
100
AcDbEntity
  8
freecads.com
100
AcDbCircle
 10
10733.15204686974
 20
30047.36098144784
 30
0.0
 40
30.49668012800698
100
AcDbArc
 50
23.61750682430228
 51
27.41197414529406
  0
ARC
  5
BB20
330
1F
100
AcDbEntity
  8
freecads.com
100
AcDbCircle
 10
10711.30201792322
 20
30037.80702372306
 30
0.0
 40
54.34415112956355
100
AcDbArc
 50
21.15545165656806
 51
23.61747118094452
  0
ARC
  5
BB21
330
1F
100
AcDbEntity
  8
freecads.com
100
AcDbCircle
 10
10663.6676711986
 20
30058.08425432169
 30
0.0
 40
0.6862306768558766
100
AcDbArc
 50
334.0680375325676
 51
44.99994467063261
  0
ARC
  5
BB22
330
1F
100
AcDbEntity
  8
freecads.com
100
AcDbCircle
 10
10662.44163711063
 20
30058.68043059175
 30
0.0
 40
2.049530251357401
100
AcDbArc
 50
302.4598061277962
 51
334.0680207002208
  0
ARC
  5
BB23
330
1F
100
AcDbEntity
  8
freecads.com
100
AcDbCircle
 10
10660.79585872148
 20
30061.26778350459
 30
0.0
 40
5.115958401782915
100
AcDbArc
 50
284.0088525940587
 51
302.4598380999858
  0
ARC
  5
BB24
330
1F
100
AcDbEntity
  8
freecads.com
100
AcDbCircle
 10
10660.24580169635
 20
30063.47251607438
 30
0.0
 40
7.388271856211424
100
AcDbArc
 50
270.0000413796739
 51
284.0088045906468
  0
ARC
  5
BB25
330
1F
100
AcDbEntity
  8
freecads.com
100
AcDbCircle
 10
10660.24581056045
 20
30061.94106593637
 30
0.0
 40
5.856821718201143
100
AcDbArc
 50
252.6423566067808
 51
269.9999654843869
  0
ARC
  5
BB26
330
1F
100
AcDbEntity
  8
freecads.com
100
AcDbCircle
 10
10659.08033482891
 20
30058.21236637316
 30
0.0
 40
1.950220367478972
100
AcDbArc
 50
213.2591882067801
 51
252.6423177120323
  0
ARC
  5
BB27
330
1F
100
AcDbEntity
  8
freecads.com
100
AcDbCircle
 10
10658.55385169789
 20
30057.86706897664
 30
0.0
 40
1.320605581045225
100
AcDbArc
 50
162.7314283140285
 51
213.2592173479176
  0
ARC
  5
BB28
330
1F
100
AcDbEntity
  8
freecads.com
100
AcDbCircle
 10
10660.11318047113
 20
30057.38232812281
 30
0.0
 40
2.953541562167123
100
AcDbArc
 50
135.000004712277
 51
162.7313880046885
  0
ARC
  5
BB29
330
1F
100
AcDbEntity
  8
freecads.com
100
AcDbCircle
 10
10658.82258525242
 20
30058.67292190516
 30
0.0
 40
1.128365315992394
100
AcDbArc
 50
87.079029133942
 51
134.9999607617803
  0
ARC
  5
BB2A
330
1F
100
AcDbEntity
  8
freecads.com
100
AcDbCircle
 10
10657.73479566542
 20
30037.35472777058
 30
0.0
 40
22.47429437390125
100
AcDbArc
 50
81.63320272786089
 51
87.07894357307958
  0
ARC
  5
BB2B
330
1F
100
AcDbEntity
  8
freecads.com
100
AcDbCircle
 10
10658.08147277685
 20
30039.71194728678
 30
0.0
 40
20.0917182750056
100
AcDbArc
 50
75.49253367665625
 51
81.63317137137466
  0
ARC
  5
BB2C
330
1F
100
AcDbEntity
  8
freecads.com
100
AcDbCircle
 10
10662.54490140175
 20
30056.96148115835
 30
0.0
 40
2.27406933145462
100
AcDbArc
 50
45.00004328031467
 51
75.49247518205797
  0
ENDSEC
  0
SECTION
  2
OBJECTS
  0
DICTIONARY
  5
C
330
0
100
AcDbDictionary
281
     1
  3
ACAD_CIP_PREVIOUS_PRODUCT_INFO
350
1A5
  3
ACAD_COLOR
350
73
  3
ACAD_DETAILVIEWSTYLE
350
1AB
  3
ACAD_GROUP
350
D
  3
ACAD_LAYOUT
350
1A
  3
ACAD_MATERIAL
350
72
  3
ACAD_MLEADERSTYLE
350
D7
  3
ACAD_MLINESTYLE
350
17
  3
ACAD_PLOTSETTINGS
350
19
  3
ACAD_PLOTSTYLENAME
350
E
  3
ACAD_SCALELIST
350
B6
  3
ACAD_SECTIONVIEWSTYLE
350
1A8
  3
ACAD_TABLESTYLE
350
86
  3
ACAD_VISUALSTYLE
350
99
  3
ACDB_RECOMPOSE_DATA
350
BB84
  3
AcDbVariableDictionary
350
66
  3
AEC_PROPERTY_SET_DEFS
350
268B
  0
DICTIONARY
  5
18E
330
2
100
AcDbDictionary
280
     1
281
     1
  3
ACAD_LAYERSTATES
360
18F
  0
DICTIONARY
  5
E6
330
10
100
AcDbDictionary
280
     1
281
     1
  0
DICTIONARY
  5
15D
330
1F
100
AcDbDictionary
280
     1
281
     1
  3
ACAD_SORTENTS
360
28E
  0
XRECORD
  5
1A5
102
{ACAD_REACTORS
330
C
102
}
330
C
100
AcDbXrecord
280
     1
300
ACD
300
2022
300

  0
DICTIONARY
  5
73
102
{ACAD_REACTORS
330
C
102
}
330
C
100
AcDbDictionary
281
     1
  0
DICTIONARY
  5
1AB
102
{ACAD_REACTORS
330
C
102
}
330
C
100
AcDbDictionary
281
     1
  3
Imperial24
350
1AC
  3
Metric50
350
224
  0
DICTIONARY
  5
D
102
{ACAD_REACTORS
330
C
102
}
330
C
100
AcDbDictionary
281
     1
  0
DICTIONARY
  5
1A
102
{ACAD_REACTORS
330
C
102
}
330
C
100
AcDbDictionary
281
     1
  3
Layout1
350
59
  3
Layout2
350
5E
  3
Model
350
22
  0
DICTIONARY
  5
72
102
{ACAD_REACTORS
330
C
102
}
330
C
100
AcDbDictionary
281
     1
  3
ByBlock
350
97
  3
ByLayer
350
96
  3
Global
350
98
  0
DICTIONARY
  5
D7
102
{ACAD_REACTORS
330
C
102
}
330
C
100
AcDbDictionary
281
     1
  3
Standard
350
D8
  0
DICTIONARY
  5
17
102
{ACAD_REACTORS
330
C
102
}
330
C
100
AcDbDictionary
281
     1
  3
Standard
350
18
  0
DICTIONARY
  5
19
102
{ACAD_REACTORS
330
C
102
}
330
C
100
AcDbDictionary
281
     1
  0
ACDBDICTIONARYWDFLT
  5
E
102
{ACAD_REACTORS
330
C
102
}
330
C
100
AcDbDictionary
281
     1
  3
Normal
350
F
100
AcDbDictionaryWithDefault
340
F
  0
DICTIONARY
  5
B6
102
{ACAD_REACTORS
330
C
102
}
330
C
100
AcDbDictionary
281
     1
  3
*A1
350
47D1
  3
*A2
350
8BD6
  3
A0
350
B7
  3
A1
350
124
  3
A2
350
125
  3
A3
350
126
  3
A4
350
127
  3
A5
350
128
  3
A6
350
129
  3
A7
350
12A
  3
A8
350
12B
  3
A9
350
12C
  3
B0
350
12D
  3
B1
350
12E
  3
B2
350
12F
  3
B3
350
130
  3
B4
350
131
  3
B5
350
132
  3
B6
350
133
  3
B7
350
134
  3
B8
350
135
  3
B9
350
136
  3
C0
350
137
  3
C1
350
138
  3
C2
350
139
  3
C3
350
13A
  3
C4
350
13B
  3
C5
350
13C
  3
C6
350
13D
  3
C7
350
13E
  3
C8
350
13F
  3
C9
350
140
  3
D0
350
141
  3
D1
350
142
  3
D2
350
143
  0
DICTIONARY
  5
1A8
102
{ACAD_REACTORS
330
C
102
}
330
C
100
AcDbDictionary
281
     1
  3
Imperial24
350
1AA
  3
Metric50
350
223
  0
DICTIONARY
  5
86
102
{ACAD_REACTORS
330
C
102
}
330
C
100
AcDbDictionary
281
     1
  3
Standard
350
87
  0
DICTIONARY
  5
99
102
{ACAD_REACTORS
330
C
102
}
330
C
100
AcDbDictionary
281
     1
  3
2dWireframe
350
9F
  3
3dWireframe
350
2684
  3
Basic
350
9E
  3
Brighten
350
A5
  3
ColorChange
350
A9
  3
Conceptual
350
A2
  3
Dim
350
A4
  3
EdgeColorOff
350
175
  3
Facepattern
350
A8
  3
Flat
350
9A
  3
FlatWithEdges
350
9B
  3
Gouraud
350
9C
  3
GouraudWithEdges
350
9D
  3
Hidden
350
A1
  3
JitterOff
350
173
  3
Linepattern
350
A7
  3
OverhangOff
350
174
  3
Realistic
350
A3
  3
Shaded
350
182
  3
Shaded with edges
350
181
  3
Shades of Gray
350
17E
  3
Sketchy
350
17F
  3
Thicken
350
A6
  3
Wireframe
350
A0
  3
X-Ray
350
180
  0
XRECORD
  5
BB84
102
{ACAD_REACTORS
330
C
102
}
330
C
100
AcDbXrecord
280
     1
 90
        1
330
87
  0
DICTIONARY
  5
66
102
{ACAD_REACTORS
330
C
102
}
330
C
100
AcDbDictionary
281
     1
  3
CANNOSCALE
350
F0
  3
CMLEADERSTYLE
350
EF
  3
CTABLESTYLE
350
89
  3
CVIEWDETAILSTYLE
350
1B7
  3
CVIEWSECTIONSTYLE
350
1B8
  3
DIMASSOC
350
67
  3
HIDETEXT
350
6B
  3
LAYEREVAL
350
14D
  3
LAYERNOTIFY
350
14E
  0
DICTIONARY
  5
268B
102
{ACAD_REACTORS
330
C
102
}
330
C
100
AcDbDictionary
281
     1
  0
DICTIONARY
  5
18F
102
{ACAD_REACTORS
330
18E
102
}
330
18E
100
AcDbDictionary
281
     1
  0
SORTENTSTABLE
  5
28E
102
{ACAD_REACTORS
330
15D
102
}
330
15D
100
AcDbSortentsTable
330
1F
  0
ACDBDETAILVIEWSTYLE
  5
1AC
102
{ACAD_REACTORS
330
1AB
102
}
330
1AB
100
AcDbModelDocViewStyle
 70
     0
  3
Imperial24
290
     0
300
Imperial24
 90
        0
100
AcDbDetailViewStyle
 70
     0
 71
     0
 90
        3
 71
     1
340
11
 62
   256
 40
0.24
340
0
 62
   256
 40
0.24
300

 40
0.36
280
     3
 71
     2
340
16
 90
       25
 62
   256
 71
     3
340
11
 62
   256
 40
0.24
 90
        1
 40
0.75
 90
        1
300
%<\AcVar ViewType \f "%tc1">% %<\AcVar ViewDetailId>%\PSCALE %<\AcVar ViewScale \f "%sn">%
 71
     4
340
16
 90
       25
 62
   256
340
16
 90
       25
 62
   256
280
     0
  0
ACDBDETAILVIEWSTYLE
  5
224
102
{ACAD_REACTORS
330
1AB
102
}
330
1AB
100
AcDbModelDocViewStyle
 70
     0
  3
Metric50
290
     0
300
Metric50
 90
        0
100
AcDbDetailViewStyle
 70
     0
 71
     0
 90
        3
 71
     1
340
11
 62
   256
 40
5.0
340
0
 62
   256
 40
5.0
300

 40
0.0
280
     1
 71
     2
340
16
 90
       25
 62
   256
 71
     3
340
11
 62
   256
 40
5.0
 90
        0
 40
15.0
 90
        1
300
%<\AcVar ViewDetailId>% (%<\AcVar ViewScale \f "%sn">%)
 71
     4
340
16
 90
       25
 62
   256
340
16
 90
       25
 62
   256
280
     0
  0
LAYOUT
  5
59
102
{ACAD_REACTORS
330
1A
102
}
330
1A
100
AcDbPlotSettings
  1

  2
None
  4

  6

 40
0.0
 41
0.0
 42
0.0
 43
0.0
 44
0.0
 45
0.0
 46
0.0
 47
0.0
 48
0.0
 49
0.0
140
0.0
141
0.0
142
1.0
143
1.0
 70
   688
 72
     0
 73
     0
 74
     5
  7

 75
    16
147
1.0
 76
     0
 77
     2
 78
   300
148
0.0
149
0.0
100
AcDbLayout
  1
Layout1
 70
     1
 71
     1
 10
0.0
 20
0.0
 11
12.0
 21
9.0
 12
0.0
 22
0.0
 32
0.0
 14
0.0
 24
0.0
 34
0.0
 15
0.0
 25
0.0
 35
0.0
146
0.0
 13
0.0
 23
0.0
 33
0.0
 16
1.0
 26
0.0
 36
0.0
 17
0.0
 27
1.0
 37
0.0
 76
     0
330
58
  0
LAYOUT
  5
5E
102
{ACAD_REACTORS
330
1A
102
}
330
1A
100
AcDbPlotSettings
  1

  2
None
  4

  6

 40
0.0
 41
0.0
 42
0.0
 43
0.0
 44
0.0
 45
0.0
 46
0.0
 47
0.0
 48
0.0
 49
0.0
140
0.0
141
0.0
142
1.0
143
1.0
 70
   688
 72
     0
 73
     0
 74
     5
  7

 75
    16
147
1.0
 76
     0
 77
     2
 78
   300
148
0.0
149
0.0
100
AcDbLayout
  1
Layout2
 70
     1
 71
     2
 10
0.0
 20
0.0
 11
12.0
 21
9.0
 12
0.0
 22
0.0
 32
0.0
 14
0.0
 24
0.0
 34
0.0
 15
0.0
 25
0.0
 35
0.0
146
0.0
 13
0.0
 23
0.0
 33
0.0
 16
1.0
 26
0.0
 36
0.0
 17
0.0
 27
1.0
 37
0.0
 76
     0
330
5D
  0
LAYOUT
  5
22
102
{ACAD_XDICTIONARY
360
194
102
}
102
{ACAD_REACTORS
330
1A
102
}
330
1A
100
AcDbPlotSettings
  1

  2
none_device
  4
ANSI_A_(8.50_x_11.00_Inches)
  6

 40
6.349999904632568
 41
19.04999923706055
 42
6.350006103515625
 43
19.04998779296875
 44
215.8999938964844
 45
279.3999938964844
 46
0.0
 47
0.0
 48
0.0
 49
0.0
140
0.0
141
0.0
142
1.0
143
2.584895464708373
 70
 11952
 72
     0
 73
     1
 74
     0
  7

 75
     0
147
0.3868628397755418
 76
     0
 77
     2
 78
   300
148
0.0
149
0.0
100
AcDbLayout
  1
Model
 70
     1
 71
     0
 10
0.0
 20
0.0
 11
12.0
 21
9.0
 12
0.0
 22
0.0
 32
0.0
 14
0.0
 24
0.0
 34
0.0
 15
0.0
 25
0.0
 35
0.0
146
0.0
 13
0.0
 23
0.0
 33
0.0
 16
1.0
 26
0.0
 36
0.0
 17
0.0
 27
1.0
 37
0.0
 76
     0
330
1F
331
94
  0
MATERIAL
  5
97
102
{ACAD_XDICTIONARY
360
188
102
}
102
{ACAD_REACTORS
330
72
102
}
330
72
100
AcDbMaterial
  1
ByBlock
 94
       63
  0
MATERIAL
  5
96
102
{ACAD_XDICTIONARY
360
186
102
}
102
{ACAD_REACTORS
330
72
102
}
330
72
100
AcDbMaterial
  1
ByLayer
 94
       63
  0
MATERIAL
  5
98
102
{ACAD_XDICTIONARY
360
110
102
}
102
{ACAD_REACTORS
330
72
102
}
330
72
100
AcDbMaterial
  1
Global
 43
0.0208000000566244
 43
0.0
 43
0.0
 43
0.0
 43
0.0
 43
0.0208000000566244
 43
0.0
 43
0.0
 43
0.0
 43
0.0
 43
1.0
 43
0.0
 43
0.0
 43
0.0
 43
0.0
 43
1.0
 49
0.0208000000566244
 49
0.0
 49
0.0
 49
0.0
 49
0.0
 49
0.0208000000566244
 49
0.0
 49
0.0
 49
0.0
 49
0.0
 49
1.0
 49
0.0
 49
0.0
 49
0.0
 49
0.0
 49
1.0
142
0.0208000000566244
142
0.0
142
0.0
142
0.0
142
0.0
142
0.0208000000566244
142
0.0
142
0.0
142
0.0
142
0.0
142
1.0
142
0.0
142
0.0
142
0.0
142
0.0
142
1.0
144
0.0208000000566244
144
0.0
144
0.0
144
0.0
144
0.0
144
0.0208000000566244
144
0.0
144
0.0
144
0.0
144
0.0
144
1.0
144
0.0
144
0.0
144
0.0
144
0.0
144
1.0
 94
       63
1001
ACAD
1070
    -1
1070
     3
1070
     0
1000

1071
        0
1070
     0
  0
MLEADERSTYLE
  5
D8
102
{ACAD_REACTORS
330
D7
102
}
330
D7
100
AcDbMLeaderStyle
179
     2
170
     2
171
     1
172
     0
 90
        2
 40
0.0
 41
0.0
173
     1
 91
-1056964608
340
14
 92
       -2
290
     1
 42
0.09
291
     1
 43
0.36
  3
Standard
 44
0.18
300

342
11
174
     1
178
     1
175
     1
176
     0
 93
-1056964608
 45
0.18
292
     0
297
     0
 46
0.18
 94
-1056964608
 47
1.0
 49
1.0
140
1.0
293
     1
141
0.0
294
     1
177
     0
142
1.0
295
     0
296
     0
143
0.125
271
     0
272
     9
273
     9
298
     0
  0
MLINESTYLE
  5
18
102
{ACAD_REACTORS
330
17
102
}
330
17
100
AcDbMlineStyle
  2
STANDARD
 70
     0
  3

 62
   256
 51
90.0
 52
90.0
 71
     2
 49
0.5
 62
   256
  6
BYLAYER
 49
-0.5
 62
   256
  6
BYLAYER
  0
ACDBPLACEHOLDER
  5
F
102
{ACAD_REACTORS
330
E
102
}
330
E
  0
SCALE
  5
47D1
102
{ACAD_REACTORS
330
B6
102
}
330
B6
100
AcDbScale
 70
     0
300
1:100_1_XREF_XREF_XREF_XREF
140
1.0
141
0.1
290
     0
  0
SCALE
  5
8BD6
102
{ACAD_REACTORS
330
B6
102
}
330
B6
100
AcDbScale
 70
     0
300
1:100_1_XREF_XREF_XREF_XREF_XREF_XREF_XREF_XREF_XREF
140
1.0
141
0.1
290
     0
1001
ACAD
1000
AcRTDxfName
1000
SCALE
1000
AcRTDxfName
1000
SCALE
1000
AcRTDxfName
1000
SCALE
1000
AcRTDxfName
1000
SCALE
  0
SCALE
  5
B7
102
{ACAD_REACTORS
330
B6
102
}
330
B6
100
AcDbScale
 70
     0
300
1:1
140
1.0
141
1.0
290
     1
  0
SCALE
  5
124
102
{ACAD_REACTORS
330
B6
102
}
330
B6
100
AcDbScale
 70
     0
300
1:2
140
1.0
141
2.0
290
     0
  0
SCALE
  5
125
102
{ACAD_REACTORS
330
B6
102
}
330
B6
100
AcDbScale
 70
     0
300
1:4
140
1.0
141
4.0
290
     0
  0
SCALE
  5
126
102
{ACAD_REACTORS
330
B6
102
}
330
B6
100
AcDbScale
 70
     0
300
1:5
140
1.0
141
5.0
290
     0
  0
SCALE
  5
127
102
{ACAD_REACTORS
330
B6
102
}
330
B6
100
AcDbScale
 70
     0
300
1:8
140
1.0
141
8.0
290
     0
  0
SCALE
  5
128
102
{ACAD_REACTORS
330
B6
102
}
330
B6
100
AcDbScale
 70
     0
300
1:10
140
1.0
141
10.0
290
     0
  0
SCALE
  5
129
102
{ACAD_REACTORS
330
B6
102
}
330
B6
100
AcDbScale
 70
     0
300
1:16
140
1.0
141
16.0
290
     0
  0
SCALE
  5
12A
102
{ACAD_REACTORS
330
B6
102
}
330
B6
100
AcDbScale
 70
     0
300
1:20
140
1.0
141
20.0
290
     0
  0
SCALE
  5
12B
102
{ACAD_REACTORS
330
B6
102
}
330
B6
100
AcDbScale
 70
     0
300
1:30
140
1.0
141
30.0
290
     0
  0
SCALE
  5
12C
102
{ACAD_REACTORS
330
B6
102
}
330
B6
100
AcDbScale
 70
     0
300
1:40
140
1.0
141
40.0
290
     0
  0
SCALE
  5
12D
102
{ACAD_REACTORS
330
B6
102
}
330
B6
100
AcDbScale
 70
     0
300
1:50
140
1.0
141
50.0
290
     0
  0
SCALE
  5
12E
102
{ACAD_REACTORS
330
B6
102
}
330
B6
100
AcDbScale
 70
     0
300
1:100
140
1.0
141
100.0
290
     0
  0
SCALE
  5
12F
102
{ACAD_REACTORS
330
B6
102
}
330
B6
100
AcDbScale
 70
     0
300
2:1
140
2.0
141
1.0
290
     0
  0
SCALE
  5
130
102
{ACAD_REACTORS
330
B6
102
}
330
B6
100
AcDbScale
 70
     0
300
4:1
140
4.0
141
1.0
290
     0
  0
SCALE
  5
131
102
{ACAD_REACTORS
330
B6
102
}
330
B6
100
AcDbScale
 70
     0
300
8:1
140
8.0
141
1.0
290
     0
  0
SCALE
  5
132
102
{ACAD_REACTORS
330
B6
102
}
330
B6
100
AcDbScale
 70
     0
300
10:1
140
10.0
141
1.0
290
     0
  0
SCALE
  5
133
102
{ACAD_REACTORS
330
B6
102
}
330
B6
100
AcDbScale
 70
     0
300
100:1
140
100.0
141
1.0
290
     0
  0
SCALE
  5
134
102
{ACAD_REACTORS
330
B6
102
}
330
B6
100
AcDbScale
 70
     0
300
1/128" = 1'-0"
140
0.0078125
141
12.0
290
     0
  0
SCALE
  5
135
102
{ACAD_REACTORS
330
B6
102
}
330
B6
100
AcDbScale
 70
     0
300
1/64" = 1'-0"
140
0.015625
141
12.0
290
     0
  0
SCALE
  5
136
102
{ACAD_REACTORS
330
B6
102
}
330
B6
100
AcDbScale
 70
     0
300
1/32" = 1'-0"
140
0.03125
141
12.0
290
     0
  0
SCALE
  5
137
102
{ACAD_REACTORS
330
B6
102
}
330
B6
100
AcDbScale
 70
     0
300
1/16" = 1'-0"
140
0.0625
141
12.0
290
     0
  0
SCALE
  5
138
102
{ACAD_REACTORS
330
B6
102
}
330
B6
100
AcDbScale
 70
     0
300
3/32" = 1'-0"
140
0.09375
141
12.0
290
     0
  0
SCALE
  5
139
102
{ACAD_REACTORS
330
B6
102
}
330
B6
100
AcDbScale
 70
     0
300
1/8" = 1'-0"
140
0.125
141
12.0
290
     0
  0
SCALE
  5
13A
102
{ACAD_REACTORS
330
B6
102
}
330
B6
100
AcDbScale
 70
     0
300
3/16" = 1'-0"
140
0.1875
141
12.0
290
     0
  0
SCALE
  5
13B
102
{ACAD_REACTORS
330
B6
102
}
330
B6
100
AcDbScale
 70
     0
300
1/4" = 1'-0"
140
0.25
141
12.0
290
     0
  0
SCALE
  5
13C
102
{ACAD_REACTORS
330
B6
102
}
330
B6
100
AcDbScale
 70
     0
300
3/8" = 1'-0"
140
0.375
141
12.0
290
     0
  0
SCALE
  5
13D
102
{ACAD_REACTORS
330
B6
102
}
330
B6
100
AcDbScale
 70
     0
300
1/2" = 1'-0"
140
0.5
141
12.0
290
     0
  0
SCALE
  5
13E
102
{ACAD_REACTORS
330
B6
102
}
330
B6
100
AcDbScale
 70
     0
300
3/4" = 1'-0"
140
0.75
141
12.0
290
     0
  0
SCALE
  5
13F
102
{ACAD_REACTORS
330
B6
102
}
330
B6
100
AcDbScale
 70
     0
300
1" = 1'-0"
140
1.0
141
12.0
290
     0
  0
SCALE
  5
140
102
{ACAD_REACTORS
330
B6
102
}
330
B6
100
AcDbScale
 70
     0
300
1-1/2" = 1'-0"
140
1.5
141
12.0
290
     0
  0
SCALE
  5
141
102
{ACAD_REACTORS
330
B6
102
}
330
B6
100
AcDbScale
 70
     0
300
3" = 1'-0"
140
3.0
141
12.0
290
     0
  0
SCALE
  5
142
102
{ACAD_REACTORS
330
B6
102
}
330
B6
100
AcDbScale
 70
     0
300
6" = 1'-0"
140
6.0
141
12.0
290
     0
  0
SCALE
  5
143
102
{ACAD_REACTORS
330
B6
102
}
330
B6
100
AcDbScale
 70
     0
300
1'-0" = 1'-0"
140
12.0
141
12.0
290
     0
  0
ACDBSECTIONVIEWSTYLE
  5
1AA
102
{ACAD_REACTORS
330
1A8
102
}
330
1A8
100
AcDbModelDocViewStyle
 70
     0
  3
Imperial24
290
     0
300
Imperial24
 90
        0
100
AcDbSectionViewStyle
 70
     0
 71
     0
 90
       78
 71
     1
340
11
 62
   256
 40
0.24
340
0
340
0
 62
   256
 40
0.24
300
I, O, Q, S, X, Z
 40
0.48
 90
        3
 40
0.18
 90
        1
 71
     2
340
16
 90
       25
 62
   256
340
16
 90
       50
 62
   256
 40
0.24
 40
0.0
 40
0.24
 71
     3
340
11
 62
   256
 40
0.24
 90
        1
 40
0.75
 90
        1
300
%<\AcVar ViewType \f "%tc1">% %<\AcVar ViewSectionStartId>%-%<\AcVar ViewSectionEndId>%\PSCALE %<\AcVar ViewScale \f "%sn">%
 71
     4
 62
   256
 62
   257
300
ANSI31
 40
1.0
 90
        0
290
     0
290
     0
 90
        6
 40
0.0
 40
1.570796326794896
 40
0.2617993877991494
 40
1.308996938995747
 40
-0.2617993877991494
 40
1.832595714594046
  0
ACDBSECTIONVIEWSTYLE
  5
223
102
{ACAD_REACTORS
330
1A8
102
}
330
1A8
100
AcDbModelDocViewStyle
 70
     0
  3
Metric50
290
     0
300
Metric50
 90
        0
100
AcDbSectionViewStyle
 70
     0
 71
     0
 90
      102
 71
     1
340
11
 62
   256
 40
5.0
340
0
340
0
 62
   256
 40
5.0
300
I, O, Q, S, X, Z
 40
10.0
 90
        0
 40
2.5
 90
        0
 71
     2
340
16
 90
       25
 62
   256
340
16
 90
       50
 62
   256
 40
5.0
 40
2.5
 40
5.0
 71
     3
340
11
 62
   256
 40
5.0
 90
        0
 40
15.0
 90
        1
300
%<\AcVar ViewSectionStartId>%-%<\AcVar ViewSectionEndId>% (%<\AcVar ViewScale \f "%sn">%)
 71
     4
 62
   256
 62
   257
300
ANSI31
 40
1.0
 90
        0
290
     0
290
     0
 90
        6
 40
0.0
 40
1.570796326794896
 40
0.2617993877991494
 40
1.308996938995747
 40
-0.2617993877991494
 40
1.832595714594046
  0
TABLESTYLE
  5
87
102
{ACAD_XDICTIONARY
360
104
102
}
102
{ACAD_REACTORS
330
86
102
}
330
86
100
AcDbTableStyle
280
     0
  3
Standard
 70
     0
 71
     0
 40
0.06
 41
0.06
280
     0
281
     0
  7
Standard
140
0.18
170
     2
 62
     0
 63
     7
283
     0
 90
      512
 91
        0
  1

274
    -2
284
     1
 64
     0
275
    -2
285
     1
 65
     0
276
    -2
286
     1
 66
     0
277
    -2
287
     1
 67
     0
278
    -2
288
     1
 68
     0
279
    -2
289
     1
 69
     0
  7
Standard
140
0.25
170
     5
 62
     0
 63
     7
283
     0
 90
      512
 91
        0
  1

274
    -2
284
     1
 64
     0
275
    -2
285
     1
 65
     0
276
    -2
286
     1
 66
     0
277
    -2
287
     1
 67
     0
278
    -2
288
     1
 68
     0
279
    -2
289
     1
 69
     0
  7
Standard
140
0.18
170
     5
 62
     0
 63
     7
283
     0
 90
      512
 91
        0
  1

274
    -2
284
     1
 64
     0
275
    -2
285
     1
 65
     0
276
    -2
286
     1
 66
     0
277
    -2
287
     1
 67
     0
278
    -2
288
     1
 68
     0
279
    -2
289
     1
 69
     0
  0
VISUALSTYLE
  5
9F
102
{ACAD_REACTORS
330
99
102
}
330
99
100
AcDbVisualStyle
  2
2dWireframe
 70
     4
177
     3
291
     0
 70
    58
 90
        0
176
     1
 90
        2
176
     1
 90
        1
176
     1
 90
        0
176
     1
 40
0.6
176
     1
 40
30.0
176
     1
 62
     7
420
 16777215
176
     1
 90
        1
176
     1
 90
        4
176
     1
 62
     7
176
     1
 62
   257
176
     1
 90
        1
176
     1
 90
        1
176
     1
 40
1.0
176
     1
 90
        0
176
     1
 62
   257
176
     1
 40
1.0
176
     1
 90
        1
176
     1
 90
        6
176
     1
 90
        2
176
     1
 62
     7
176
     1
 90
        5
176
     1
 90
        0
176
     1
 90
        0
176
     1
290
     0
176
     1
 90
        1
176
     1
 40
0.0
176
     1
 90
        0
176
     1
290
     1
176
     1
290
     1
176
     1
290
     0
176
     1
290
     0
176
     1
290
     0
176
     1
290
     0
176
     1
290
     0
176
     1
290
     0
176
     1
290
     0
176
     1
 90
       50
176
     1
 40
0.0
176
     1
 40
1.0
176
     1
 90
        0
176
     1
 62
    18
420
        0
176
     1
 90
       50
176
     1
 90
        3
176
     1
 62
     5
420
      255
176
     1
290
     0
176
     1
 90
       50
176
     1
 90
       50
176
     1
 90
       50
176
     1
290
     0
176
     1
 90
       50
176
     1
 62
   256
176
     0
 40
1.0
176
     0
 90
        2
176
     1
  1
strokes_ogs.tif
176
     1
290
     0
176
     1
 40
1.0
176
     1
 40
1.0
176
     1
  0
VISUALSTYLE
  5
2684
102
{ACAD_REACTORS
330
99
102
}
330
99
100
AcDbVisualStyle
  2
3dWireframe
 70
     5
177
     3
291
     0
 70
    58
 90
        0
176
     1
 90
        2
176
     1
 90
        0
176
     1
 90
        0
176
     1
 40
0.6
176
     1
 40
30.0
176
     1
 62
     7
176
     1
 90
        1
176
     1
 90
        4
176
     1
 62
     7
176
     1
 62
   257
176
     1
 90
        1
176
     1
 90
        1
176
     1
 40
1.0
176
     1
 90
        0
176
     1
 62
   257
176
     1
 40
1.0
176
     1
 90
        1
176
     1
 90
        6
176
     1
 90
        2
176
     1
 62
     7
176
     1
 90
        5
176
     1
 90
        0
176
     1
 90
        0
176
     1
290
     0
176
     1
 90
        1
176
     1
 40
0.0
176
     1
 90
        0
176
     1
290
     0
176
     1
290
     1
176
     1
290
     1
176
     1
290
     0
176
     1
290
     0
176
     1
290
     0
176
     1
290
     0
176
     1
290
     0
176
     1
290
     0
176
     1
 90
       50
176
     1
 40
0.0
176
     1
 40
1.0
176
     1
 90
        0
176
     1
 62
    18
420
        0
176
     1
 90
       50
176
     1
 90
        3
176
     1
 62
     5
420
      255
176
     1
290
     0
176
     1
 90
       50
176
     1
 90
       50
176
     1
 90
       50
176
     1
290
     0
176
     1
 90
       50
176
     1
 62
   256
176
     0
 40
1.0
176
     0
 90
        2
176
     1
  1
strokes_ogs.tif
176
     1
290
     0
176
     1
 40
1.0
176
     1
 40
1.0
176
     1
1001
ACAD
1000
AcRTDxfName
1000
VISUALSTYLE
  0
VISUALSTYLE
  5
9E
102
{ACAD_REACTORS
330
99
102
}
330
99
100
AcDbVisualStyle
  2
Basic
 70
     7
177
     3
291
     1
 70
    58
 90
        1
176
     1
 90
        0
176
     1
 90
        1
176
     1
 90
        0
176
     1
 40
0.6
176
     1
 40
30.0
176
     1
 62
     7
420
 16777215
176
     1
 90
        0
176
     1
 90
        4
176
     1
 62
     7
176
     1
 62
   257
176
     1
 90
        1
176
     1
 90
        1
176
     1
 40
1.0
176
     1
 90
        8
176
     1
 62
     7
176
     1
 40
1.0
176
     1
 90
        1
176
     1
 90
        6
176
     1
 90
        2
176
     1
 62
     7
176
     1
 90
        5
176
     1
 90
        0
176
     1
 90
        0
176
     1
290
     0
176
     1
 90
        1
176
     1
 40
0.0
176
     1
 90
        0
176
     1
290
     0
176
     1
290
     1
176
     1
290
     1
176
     1
290
     0
176
     1
290
     0
176
     1
290
     0
176
     1
290
     0
176
     1
290
     0
176
     1
290
     0
176
     1
 90
       50
176
     1
 40
0.0
176
     1
 40
1.0
176
     1
 90
        0
176
     1
 62
    18
420
        0
176
     1
 90
       50
176
     1
 90
        3
176
     1
 62
     5
420
      255
176
     1
290
     0
176
     1
 90
       50
176
     1
 90
       50
176
     1
 90
       50
176
     1
290
     0
176
     1
 90
       50
176
     1
 62
   256
176
     0
 40
1.0
176
     0
 90
        2
176
     1
  1
strokes_ogs.tif
176
     1
290
     0
176
     1
 40
1.0
176
     1
 40
1.0
176
     1
  0
VISUALSTYLE
  5
A5
102
{ACAD_REACTORS
330
99
102
}
330
99
100
AcDbVisualStyle
  2
Brighten
 70
    12
177
     3
291
     1
 70
    58
 90
        2
176
     1
 90
        2
176
     1
 90
        1
176
     1
 90
        0
176
     1
 40
0.6
176
     1
 40
30.0
176
     1
 62
     7
420
 16777215
176
     1
 90
        1
176
     1
 90
        4
176
     1
 62
     7
176
     1
 62
   257
176
     1
 90
        1
176
     1
 90
        1
176
     1
 40
1.0
176
     1
 90
        8
176
     1
 62
     7
176
     1
 40
1.0
176
     1
 90
        1
176
     1
 90
        6
176
     1
 90
        2
176
     1
 62
     7
176
     1
 90
        5
176
     1
 90
        0
176
     1
 90
        0
176
     1
290
     0
176
     1
 90
        1
176
     1
 40
50.0
176
     1
 90
        0
176
     1
290
     0
176
     1
290
     1
176
     1
290
     1
176
     1
290
     0
176
     1
290
     0
176
     1
290
     0
176
     1
290
     0
176
     1
290
     0
176
     1
290
     0
176
     1
 90
       50
176
     1
 40
0.0
176
     1
 40
1.0
176
     1
 90
        0
176
     1
 62
    18
420
        0
176
     1
 90
       50
176
     1
 90
        3
176
     1
 62
     5
420
      255
176
     1
290
     0
176
     1
 90
       50
176
     1
 90
       50
176
     1
 90
       50
176
     1
290
     0
176
     1
 90
       50
176
     1
 62
   256
176
     0
 40
1.0
176
     0
 90
        2
176
     1
  1
strokes_ogs.tif
176
     1
290
     0
176
     1
 40
1.0
176
     1
 40
1.0
176
     1
  0
VISUALSTYLE
  5
A9
102
{ACAD_REACTORS
330
99
102
}
330
99
100
AcDbVisualStyle
  2
ColorChange
 70
    16
177
     3
291
     1
 70
    58
 90
        2
176
     1
 90
        2
176
     1
 90
        3
176
     1
 90
        0
176
     1
 40
0.6
176
     1
 40
30.0
176
     1
 62
     8
420
  8421504
176
     1
 90
        1
176
     1
 90
        4
176
     1
 62
     7
176
     1
 62
   257
176
     1
 90
        1
176
     1
 90
        1
176
     1
 40
1.0
176
     1
 90
        8
176
     1
 62
     8
420
  8421504
176
     1
 40
1.0
176
     1
 90
        1
176
     1
 90
        6
176
     1
 90
        2
176
     1
 62
     7
176
     1
 90
        5
176
     1
 90
        0
176
     1
 90
        0
176
     1
290
     0
176
     1
 90
        1
176
     1
 40
0.0
176
     1
 90
        0
176
     1
290
     0
176
     1
290
     1
176
     1
290
     1
176
     1
290
     0
176
     1
290
     0
176
     1
290
     0
176
     1
290
     0
176
     1
290
     0
176
     1
290
     0
176
     1
 90
       50
176
     1
 40
0.0
176
     1
 40
1.0
176
     1
 90
        0
176
     1
 62
    18
420
        0
176
     1
 90
       50
176
     1
 90
        3
176
     1
 62
     5
420
      255
176
     1
290
     0
176
     1
 90
       50
176
     1
 90
       50
176
     1
 90
       50
176
     1
290
     0
176
     1
 90
       50
176
     1
 62
   256
176
     0
 40
1.0
176
     0
 90
        2
176
     1
  1
strokes_ogs.tif
176
     1
290
     0
176
     1
 40
1.0
176
     1
 40
1.0
176
     1
  0
VISUALSTYLE
  5
A2
102
{ACAD_REACTORS
330
99
102
}
330
99
100
AcDbVisualStyle
  2
Conceptual
 70
     9
177
     3
291
     0
 70
    58
 90
        3
176
     1
 90
        2
176
     1
 90
        1
176
     1
 90
        0
176
     1
 40
0.6
176
     1
 40
30.0
176
     1
 62
     7
420
 16777215
176
     1
 90
        2
176
     1
 90
        2
176
     1
 62
     7
176
     1
 62
   257
176
     1
 90
        1
176
     1
 90
        1
176
     1
 40
40.0
176
     1
 90
        8
176
     1
 62
     7
176
     1
 40
1.0
176
     1
 90
        1
176
     1
 90
        6
176
     1
 90
        2
176
     1
 62
     7
176
     1
 90
        3
176
     1
 90
        0
176
     1
 90
        0
176
     1
290
     0
176
     1
 90
        1
176
     1
 40
0.0
176
     1
 90
        0
176
     1
290
     0
176
     1
290
     1
176
     1
290
     1
176
     1
290
     0
176
     1
290
     0
176
     1
290
     0
176
     1
290
     0
176
     1
290
     0
176
     1
290
     0
176
     1
 90
       50
176
     1
 40
0.0
176
     1
 40
1.0
176
     1
 90
        0
176
     1
 62
    18
420
        0
176
     1
 90
       50
176
     1
 90
        3
176
     1
 62
     5
420
      255
176
     1
290
     0
176
     1
 90
       50
176
     1
 90
       50
176
     1
 90
       50
176
     1
290
     0
176
     1
 90
       50
176
     1
 62
   256
176
     0
 40
1.0
176
     0
 90
        2
176
     1
  1
strokes_ogs.tif
176
     1
290
     0
176
     1
 40
1.0
176
     1
 40
1.0
176
     1
  0
VISUALSTYLE
  5
A4
102
{ACAD_REACTORS
330
99
102
}
330
99
100
AcDbVisualStyle
  2
Dim
 70
    11
177
     3
291
     1
 70
    58
 90
        2
176
     1
 90
        2
176
     1
 90
        1
176
     1
 90
        0
176
     1
 40
0.6
176
     1
 40
30.0
176
     1
 62
     7
420
 16777215
176
     1
 90
        1
176
     1
 90
        4
176
     1
 62
     7
176
     1
 62
   257
176
     1
 90
        1
176
     1
 90
        1
176
     1
 40
1.0
176
     1
 90
        8
176
     1
 62
     7
176
     1
 40
1.0
176
     1
 90
        1
176
     1
 90
        6
176
     1
 90
        2
176
     1
 62
     7
176
     1
 90
        5
176
     1
 90
        0
176
     1
 90
        0
176
     1
290
     0
176
     1
 90
        1
176
     1
 40
-50.0
176
     1
 90
        0
176
     1
290
     0
176
     1
290
     1
176
     1
290
     1
176
     1
290
     0
176
     1
290
     0
176
     1
290
     0
176
     1
290
     0
176
     1
290
     0
176
     1
290
     0
176
     1
 90
       50
176
     1
 40
0.0
176
     1
 40
1.0
176
     1
 90
        0
176
     1
 62
    18
420
        0
176
     1
 90
       50
176
     1
 90
        3
176
     1
 62
     5
420
      255
176
     1
290
     0
176
     1
 90
       50
176
     1
 90
       50
176
     1
 90
       50
176
     1
290
     0
176
     1
 90
       50
176
     1
 62
   256
176
     0
 40
1.0
176
     0
 90
        2
176
     1
  1
strokes_ogs.tif
176
     1
290
     0
176
     1
 40
1.0
176
     1
 40
1.0
176
     1
  0
VISUALSTYLE
  5
175
102
{ACAD_REACTORS
330
99
102
}
330
99
100
AcDbVisualStyle
  2
EdgeColorOff
 70
    22
177
     3
291
     1
 70
    58
 90
        2
176
     0
 90
        2
176
     0
 90
        0
176
     0
 90
        0
176
     0
 40
0.6
176
     0
 40
30.0
176
     0
 62
     7
420
 16777215
176
     0
 90
        1
176
     0
 90
        4
176
     0
 62
     7
176
     0
 62
   257
176
     0
 90
        1
176
     0
 90
        1
176
     0
 40
1.0
176
     0
 90
        8
176
     2
 62
     7
176
     0
 40
1.0
176
     0
 90
        1
176
     0
 90
        6
176
     0
 90
        2
176
     0
 62
     7
176
     0
 90
        5
176
     0
 90
        0
176
     0
 90
        0
176
     0
290
     0
176
     0
 90
        1
176
     0
 40
0.0
176
     0
 90
        0
176
     0
290
     0
176
     1
290
     1
176
     1
290
     1
176
     1
290
     0
176
     1
290
     0
176
     1
290
     0
176
     1
290
     0
176
     1
290
     0
176
     1
290
     0
176
     1
 90
       50
176
     1
 40
0.0
176
     1
 40
1.0
176
     1
 90
        0
176
     1
 62
    18
420
        0
176
     1
 90
       50
176
     1
 90
        3
176
     1
 62
     5
420
      255
176
     1
290
     0
176
     1
 90
       50
176
     1
 90
       50
176
     1
 90
       50
176
     1
290
     0
176
     1
 90
       50
176
     1
 62
   256
176
     0
 40
1.0
176
     0
 90
        2
176
     1
  1
strokes_ogs.tif
176
     1
290
     0
176
     1
 40
1.0
176
     1
 40
1.0
176
     1
  0
VISUALSTYLE
  5
A8
102
{ACAD_REACTORS
330
99
102
}
330
99
100
AcDbVisualStyle
  2
Facepattern
 70
    15
177
     3
291
     1
 70
    58
 90
        2
176
     1
 90
        2
176
     1
 90
        1
176
     1
 90
        0
176
     1
 40
0.6
176
     1
 40
30.0
176
     1
 62
     7
420
 16777215
176
     1
 90
        1
176
     1
 90
        4
176
     1
 62
     7
176
     1
 62
   257
176
     1
 90
        1
176
     1
 90
        1
176
     1
 40
1.0
176
     1
 90
        8
176
     1
 62
     7
176
     1
 40
1.0
176
     1
 90
        1
176
     1
 90
        6
176
     1
 90
        2
176
     1
 62
     7
176
     1
 90
        5
176
     1
 90
        0
176
     1
 90
        0
176
     1
290
     0
176
     1
 90
        1
176
     1
 40
0.0
176
     1
 90
        0
176
     1
290
     0
176
     1
290
     1
176
     1
290
     1
176
     1
290
     0
176
     1
290
     0
176
     1
290
     0
176
     1
290
     0
176
     1
290
     0
176
     1
290
     0
176
     1
 90
       50
176
     1
 40
0.0
176
     1
 40
1.0
176
     1
 90
        0
176
     1
 62
    18
420
        0
176
     1
 90
       50
176
     1
 90
        3
176
     1
 62
     5
420
      255
176
     1
290
     0
176
     1
 90
       50
176
     1
 90
       50
176
     1
 90
       50
176
     1
290
     0
176
     1
 90
       50
176
     1
 62
   256
176
     0
 40
1.0
176
     0
 90
        2
176
     1
  1
strokes_ogs.tif
176
     1
290
     0
176
     1
 40
1.0
176
     1
 40
1.0
176
     1
  0
VISUALSTYLE
  5
9A
102
{ACAD_REACTORS
330
99
102
}
330
99
100
AcDbVisualStyle
  2
Flat
 70
     0
177
     3
291
     1
 70
    58
 90
        2
176
     1
 90
        1
176
     1
 90
        1
176
     1
 90
        2
176
     1
 40
0.6
176
     1
 40
30.0
176
     1
 62
     7
420
 16777215
176
     1
 90
        0
176
     1
 90
        0
176
     1
 62
     7
176
     1
 62
   257
176
     1
 90
        1
176
     1
 90
        1
176
     1
 40
1.0
176
     1
 90
        8
176
     1
 62
     7
176
     1
 40
1.0
176
     1
 90
        1
176
     1
 90
        6
176
     1
 90
        2
176
     1
 62
     7
176
     1
 90
        5
176
     1
 90
        0
176
     1
 90
        0
176
     1
290
     0
176
     1
 90
       13
176
     1
 40
0.0
176
     1
 90
        0
176
     1
290
     0
176
     1
290
     1
176
     1
290
     1
176
     1
290
     0
176
     1
290
     0
176
     1
290
     0
176
     1
290
     0
176
     1
290
     0
176
     1
290
     0
176
     1
 90
       50
176
     1
 40
0.0
176
     1
 40
1.0
176
     1
 90
        0
176
     1
 62
    18
420
        0
176
     1
 90
       50
176
     1
 90
        3
176
     1
 62
     5
420
      255
176
     1
290
     0
176
     1
 90
       50
176
     1
 90
       50
176
     1
 90
       50
176
     1
290
     0
176
     1
 90
       50
176
     1
 62
   256
176
     0
 40
1.0
176
     0
 90
        2
176
     1
  1
strokes_ogs.tif
176
     1
290
     0
176
     1
 40
1.0
176
     1
 40
1.0
176
     1
  0
VISUALSTYLE
  5
9B
102
{ACAD_REACTORS
330
99
102
}
330
99
100
AcDbVisualStyle
  2
FlatWithEdges
 70
     1
177
     3
291
     1
 70
    58
 90
        2
176
     1
 90
        1
176
     1
 90
        1
176
     1
 90
        2
176
     1
 40
0.6
176
     1
 40
30.0
176
     1
 62
     7
420
 16777215
176
     1
 90
        1
176
     1
 90
        0
176
     1
 62
     7
176
     1
 62
   257
176
     1
 90
        1
176
     1
 90
        1
176
     1
 40
1.0
176
     1
 90
        0
176
     1
 62
   257
176
     1
 40
1.0
176
     1
 90
        1
176
     1
 90
        6
176
     1
 90
        2
176
     1
 62
     7
176
     1
 90
        5
176
     1
 90
        0
176
     1
 90
        0
176
     1
290
     0
176
     1
 90
       13
176
     1
 40
0.0
176
     1
 90
        0
176
     1
290
     0
176
     1
290
     1
176
     1
290
     1
176
     1
290
     0
176
     1
290
     0
176
     1
290
     0
176
     1
290
     0
176
     1
290
     0
176
     1
290
     0
176
     1
 90
       50
176
     1
 40
0.0
176
     1
 40
1.0
176
     1
 90
        0
176
     1
 62
    18
420
        0
176
     1
 90
       50
176
     1
 90
        3
176
     1
 62
     5
420
      255
176
     1
290
     0
176
     1
 90
       50
176
     1
 90
       50
176
     1
 90
       50
176
     1
290
     0
176
     1
 90
       50
176
     1
 62
   256
176
     0
 40
1.0
176
     0
 90
        2
176
     1
  1
strokes_ogs.tif
176
     1
290
     0
176
     1
 40
1.0
176
     1
 40
1.0
176
     1
  0
VISUALSTYLE
  5
9C
102
{ACAD_REACTORS
330
99
102
}
330
99
100
AcDbVisualStyle
  2
Gouraud
 70
     2
177
     3
291
     1
 70
    58
 90
        2
176
     1
 90
        2
176
     1
 90
        1
176
     1
 90
        2
176
     1
 40
0.6
176
     1
 40
30.0
176
     1
 62
     7
420
 16777215
176
     1
 90
        0
176
     1
 90
        0
176
     1
 62
     7
176
     1
 62
   257
176
     1
 90
        1
176
     1
 90
        1
176
     1
 40
1.0
176
     1
 90
        0
176
     1
 62
     7
176
     1
 40
1.0
176
     1
 90
        1
176
     1
 90
        6
176
     1
 90
        2
176
     1
 62
     7
176
     1
 90
        5
176
     1
 90
        0
176
     1
 90
        0
176
     1
290
     0
176
     1
 90
       13
176
     1
 40
0.0
176
     1
 90
        0
176
     1
290
     0
176
     1
290
     1
176
     1
290
     1
176
     1
290
     0
176
     1
290
     0
176
     1
290
     0
176
     1
290
     0
176
     1
290
     0
176
     1
290
     0
176
     1
 90
       50
176
     1
 40
0.0
176
     1
 40
1.0
176
     1
 90
        0
176
     1
 62
    18
420
        0
176
     1
 90
       50
176
     1
 90
        3
176
     1
 62
     5
420
      255
176
     1
290
     0
176
     1
 90
       50
176
     1
 90
       50
176
     1
 90
       50
176
     1
290
     0
176
     1
 90
       50
176
     1
 62
   256
176
     0
 40
1.0
176
     0
 90
        2
176
     1
  1
strokes_ogs.tif
176
     1
290
     0
176
     1
 40
1.0
176
     1
 40
1.0
176
     1
  0
VISUALSTYLE
  5
9D
102
{ACAD_REACTORS
330
99
102
}
330
99
100
AcDbVisualStyle
  2
GouraudWithEdges
 70
     3
177
     3
291
     1
 70
    58
 90
        2
176
     1
 90
        2
176
     1
 90
        1
176
     1
 90
        2
176
     1
 40
0.6
176
     1
 40
30.0
176
     1
 62
     7
420
 16777215
176
     1
 90
        1
176
     1
 90
        0
176
     1
 62
     7
176
     1
 62
   257
176
     1
 90
        1
176
     1
 90
        1
176
     1
 40
1.0
176
     1
 90
        0
176
     1
 62
   257
176
     1
 40
1.0
176
     1
 90
        1
176
     1
 90
        6
176
     1
 90
        2
176
     1
 62
     7
176
     1
 90
        5
176
     1
 90
        0
176
     1
 90
        0
176
     1
290
     0
176
     1
 90
       13
176
     1
 40
0.0
176
     1
 90
        0
176
     1
290
     0
176
     1
290
     1
176
     1
290
     1
176
     1
290
     0
176
     1
290
     0
176
     1
290
     0
176
     1
290
     0
176
     1
290
     0
176
     1
290
     0
176
     1
 90
       50
176
     1
 40
0.0
176
     1
 40
1.0
176
     1
 90
        0
176
     1
 62
    18
420
        0
176
     1
 90
       50
176
     1
 90
        3
176
     1
 62
     5
420
      255
176
     1
290
     0
176
     1
 90
       50
176
     1
 90
       50
176
     1
 90
       50
176
     1
290
     0
176
     1
 90
       50
176
     1
 62
   256
176
     0
 40
1.0
176
     0
 90
        2
176
     1
  1
strokes_ogs.tif
176
     1
290
     0
176
     1
 40
1.0
176
     1
 40
1.0
176
     1
  0
VISUALSTYLE
  5
A1
102
{ACAD_REACTORS
330
99
102
}
330
99
100
AcDbVisualStyle
  2
Hidden
 70
     6
177
     3
291
     0
 70
    58
 90
        1
176
     1
 90
        2
176
     1
 90
        2
176
     1
 90
        0
176
     1
 40
0.6
176
     1
 40
30.0
176
     1
 62
     7
420
 16777215
176
     1
 90
        2
176
     1
 90
        2
176
     1
 62
     7
176
     1
 62
   257
176
     1
 90
        2
176
     1
 90
        1
176
     1
 40
40.0
176
     1
 90
        0
176
     1
 62
   257
176
     1
 40
1.0
176
     1
 90
        1
176
     1
 90
        6
176
     1
 90
        2
176
     1
 62
     7
176
     1
 90
        3
176
     1
 90
        0
176
     1
 90
        0
176
     1
290
     0
176
     1
 90
        1
176
     1
 40
0.0
176
     1
 90
        0
176
     1
290
     0
176
     1
290
     1
176
     1
290
     1
176
     1
290
     0
176
     1
290
     0
176
     1
290
     0
176
     1
290
     0
176
     1
290
     0
176
     1
290
     0
176
     1
 90
       50
176
     1
 40
0.0
176
     1
 40
1.0
176
     1
 90
        0
176
     1
 62
    18
420
        0
176
     1
 90
       50
176
     1
 90
        3
176
     1
 62
     5
420
      255
176
     1
290
     0
176
     1
 90
       50
176
     1
 90
       50
176
     1
 90
       50
176
     1
290
     0
176
     1
 90
       50
176
     1
 62
   256
176
     0
 40
1.0
176
     0
 90
        2
176
     1
  1
strokes_ogs.tif
176
     1
290
     0
176
     1
 40
1.0
176
     1
 40
1.0
176
     1
  0
VISUALSTYLE
  5
173
102
{ACAD_REACTORS
330
99
102
}
330
99
100
AcDbVisualStyle
  2
JitterOff
 70
    20
177
     3
291
     1
 70
    58
 90
        2
176
     0
 90
        2
176
     0
 90
        0
176
     0
 90
        0
176
     0
 40
0.6
176
     0
 40
30.0
176
     0
 62
     7
420
 16777215
176
     0
 90
        1
176
     0
 90
        4
176
     0
 62
     7
176
     0
 62
   257
176
     0
 90
        1
176
     0
 90
        1
176
     0
 40
1.0
176
     0
 90
       10
176
     2
 62
     7
176
     0
 40
1.0
176
     0
 90
        1
176
     0
 90
        6
176
     0
 90
        2
176
     0
 62
     7
176
     0
 90
        5
176
     0
 90
        0
176
     0
 90
        0
176
     0
290
     0
176
     0
 90
        1
176
     0
 40
0.0
176
     0
 90
        0
176
     0
290
     0
176
     1
290
     1
176
     1
290
     1
176
     1
290
     0
176
     1
290
     0
176
     1
290
     0
176
     1
290
     0
176
     1
290
     0
176
     1
290
     0
176
     1
 90
       50
176
     1
 40
0.0
176
     1
 40
1.0
176
     1
 90
        0
176
     1
 62
    18
420
        0
176
     1
 90
       50
176
     1
 90
        3
176
     1
 62
     5
420
      255
176
     1
290
     0
176
     1
 90
       50
176
     1
 90
       50
176
     1
 90
       50
176
     1
290
     0
176
     1
 90
       50
176
     1
 62
   256
176
     0
 40
1.0
176
     0
 90
        2
176
     1
  1
strokes_ogs.tif
176
     1
290
     0
176
     1
 40
1.0
176
     1
 40
1.0
176
     1
  0
VISUALSTYLE
  5
A7
102
{ACAD_REACTORS
330
99
102
}
330
99
100
AcDbVisualStyle
  2
Linepattern
 70
    14
177
     3
291
     1
 70
    58
 90
        2
176
     1
 90
        2
176
     1
 90
        1
176
     1
 90
        0
176
     1
 40
0.6
176
     1
 40
30.0
176
     1
 62
     7
420
 16777215
176
     1
 90
        1
176
     1
 90
        4
176
     1
 62
     7
176
     1
 62
   257
176
     1
 90
        7
176
     1
 90
        7
176
     1
 40
1.0
176
     1
 90
        8
176
     1
 62
     7
176
     1
 40
1.0
176
     1
 90
        1
176
     1
 90
        6
176
     1
 90
        2
176
     1
 62
     7
176
     1
 90
        5
176
     1
 90
        0
176
     1
 90
        0
176
     1
290
     0
176
     1
 90
        1
176
     1
 40
0.0
176
     1
 90
        0
176
     1
290
     0
176
     1
290
     1
176
     1
290
     1
176
     1
290
     0
176
     1
290
     0
176
     1
290
     0
176
     1
290
     0
176
     1
290
     0
176
     1
290
     0
176
     1
 90
       50
176
     1
 40
0.0
176
     1
 40
1.0
176
     1
 90
        0
176
     1
 62
    18
420
        0
176
     1
 90
       50
176
     1
 90
        3
176
     1
 62
     5
420
      255
176
     1
290
     0
176
     1
 90
       50
176
     1
 90
       50
176
     1
 90
       50
176
     1
290
     0
176
     1
 90
       50
176
     1
 62
   256
176
     0
 40
1.0
176
     0
 90
        2
176
     1
  1
strokes_ogs.tif
176
     1
290
     0
176
     1
 40
1.0
176
     1
 40
1.0
176
     1
  0
VISUALSTYLE
  5
174
102
{ACAD_REACTORS
330
99
102
}
330
99
100
AcDbVisualStyle
  2
OverhangOff
 70
    21
177
     3
291
     1
 70
    58
 90
        2
176
     0
 90
        2
176
     0
 90
        0
176
     0
 90
        0
176
     0
 40
0.6
176
     0
 40
30.0
176
     0
 62
     7
420
 16777215
176
     0
 90
        1
176
     0
 90
        4
176
     0
 62
     7
176
     0
 62
   257
176
     0
 90
        1
176
     0
 90
        1
176
     0
 40
1.0
176
     0
 90
        9
176
     2
 62
     7
176
     0
 40
1.0
176
     0
 90
        1
176
     0
 90
        6
176
     0
 90
        2
176
     0
 62
     7
176
     0
 90
        5
176
     0
 90
        0
176
     0
 90
        0
176
     0
290
     0
176
     0
 90
        1
176
     0
 40
0.0
176
     0
 90
        0
176
     0
290
     0
176
     1
290
     1
176
     1
290
     1
176
     1
290
     0
176
     1
290
     0
176
     1
290
     0
176
     1
290
     0
176
     1
290
     0
176
     1
290
     0
176
     1
 90
       50
176
     1
 40
0.0
176
     1
 40
1.0
176
     1
 90
        0
176
     1
 62
    18
420
        0
176
     1
 90
       50
176
     1
 90
        3
176
     1
 62
     5
420
      255
176
     1
290
     0
176
     1
 90
       50
176
     1
 90
       50
176
     1
 90
       50
176
     1
290
     0
176
     1
 90
       50
176
     1
 62
   256
176
     0
 40
1.0
176
     0
 90
        2
176
     1
  1
strokes_ogs.tif
176
     1
290
     0
176
     1
 40
1.0
176
     1
 40
1.0
176
     1
  0
VISUALSTYLE
  5
A3
102
{ACAD_REACTORS
330
99
102
}
330
99
100
AcDbVisualStyle
  2
Realistic
 70
     8
177
     3
291
     0
 70
    58
 90
        2
176
     1
 90
        2
176
     1
 90
        0
176
     1
 90
        2
176
     1
 40
0.6
176
     1
 40
30.0
176
     1
 62
     7
420
 16777215
176
     1
 90
        0
176
     1
 90
        0
176
     1
 62
     7
176
     1
 62
   257
176
     1
 90
        1
176
     1
 90
        1
176
     1
 40
1.0
176
     1
 90
        8
176
     1
 62
   257
176
     1
 40
1.0
176
     1
 90
        1
176
     1
 90
        6
176
     1
 90
        2
176
     1
 62
     7
176
     1
 90
        3
176
     1
 90
        0
176
     1
 90
        0
176
     1
290
     0
176
     1
 90
       13
176
     1
 40
0.0
176
     1
 90
        0
176
     1
290
     0
176
     1
290
     1
176
     1
290
     1
176
     1
290
     0
176
     1
290
     0
176
     1
290
     0
176
     1
290
     0
176
     1
290
     0
176
     1
290
     0
176
     1
 90
       50
176
     1
 40
0.0
176
     1
 40
1.0
176
     1
 90
        0
176
     1
 62
    18
420
        0
176
     1
 90
       50
176
     1
 90
        3
176
     1
 62
     5
420
      255
176
     1
290
     0
176
     1
 90
       50
176
     1
 90
       50
176
     1
 90
       50
176
     1
290
     0
176
     1
 90
       50
176
     1
 62
   256
176
     0
 40
1.0
176
     0
 90
        2
176
     1
  1
strokes_ogs.tif
176
     1
290
     0
176
     1
 40
1.0
176
     1
 40
1.0
176
     1
  0
VISUALSTYLE
  5
182
102
{ACAD_REACTORS
330
99
102
}
330
99
100
AcDbVisualStyle
  2
Shaded
 70
    27
177
     3
291
     0
 70
    58
 90
        2
176
     1
 90
        2
176
     1
 90
        1
176
     1
 90
        2
176
     1
 40
0.6
176
     1
 40
30.0
176
     1
 62
     7
420
 16777215
176
     1
 90
        0
176
     1
 90
        4
176
     1
 62
     7
176
     1
 62
   257
176
     1
 90
        1
176
     1
 90
        1
176
     1
 40
1.0
176
     1
 90
        8
176
     1
 62
   257
176
     1
 40
1.0
176
     1
 90
        1
176
     1
 90
        6
176
     1
 90
        2
176
     1
 62
     8
420
  7895160
176
     1
 90
        3
176
     1
 90
        0
176
     1
 90
        0
176
     1
290
     0
176
     1
 90
        5
176
     1
 40
0.0
176
     1
 90
        0
176
     1
290
     0
176
     1
290
     1
176
     1
290
     1
176
     1
290
     0
176
     1
290
     0
176
     1
290
     0
176
     1
290
     0
176
     1
290
     0
176
     1
290
     0
176
     1
 90
       50
176
     1
 40
0.0
176
     1
 40
1.0
176
     1
 90
        0
176
     1
 62
    18
420
        0
176
     1
 90
       50
176
     1
 90
        3
176
     1
 62
     5
420
      255
176
     1
290
     0
176
     1
 90
       50
176
     1
 90
       50
176
     1
 90
       50
176
     1
290
     0
176
     1
 90
       50
176
     1
 62
   256
176
     0
 40
1.0
176
     0
 90
        2
176
     1
  1
strokes_ogs.tif
176
     1
290
     0
176
     1
 40
1.0
176
     1
 40
1.0
176
     1
  0
VISUALSTYLE
  5
181
102
{ACAD_REACTORS
330
99
102
}
330
99
100
AcDbVisualStyle
  2
Shaded with edges
 70
    26
177
     3
291
     0
 70
    58
 90
        2
176
     1
 90
        2
176
     1
 90
        1
176
     1
 90
        2
176
     1
 40
0.6
176
     1
 40
30.0
176
     1
 62
     7
420
 16777215
176
     1
 90
        1
176
     1
 90
        2
176
     1
 62
     7
176
     1
 62
   257
176
     1
 90
        2
176
     1
 90
        1
176
     1
 40
1.0
176
     1
 90
        8
176
     1
 62
   257
176
     1
 40
1.0
176
     1
 90
        1
176
     1
 90
        6
176
     1
 90
        2
176
     1
 62
     7
176
     1
 90
        3
176
     1
 90
        0
176
     1
 90
        0
176
     1
290
     0
176
     1
 90
        5
176
     1
 40
0.0
176
     1
 90
        0
176
     1
290
     0
176
     1
290
     1
176
     1
290
     1
176
     1
290
     0
176
     1
290
     0
176
     1
290
     0
176
     1
290
     0
176
     1
290
     0
176
     1
290
     0
176
     1
 90
       50
176
     1
 40
0.0
176
     1
 40
1.0
176
     1
 90
        0
176
     1
 62
    18
420
        0
176
     1
 90
       50
176
     1
 90
        3
176
     1
 62
     5
420
      255
176
     1
290
     0
176
     1
 90
       50
176
     1
 90
       50
176
     1
 90
       50
176
     1
290
     0
176
     1
 90
       50
176
     1
 62
   256
176
     0
 40
1.0
176
     0
 90
        2
176
     1
  1
strokes_ogs.tif
176
     1
290
     0
176
     1
 40
1.0
176
     1
 40
1.0
176
     1
  0
VISUALSTYLE
  5
17E
102
{ACAD_REACTORS
330
99
102
}
330
99
100
AcDbVisualStyle
  2
Shades of Gray
 70
    23
177
     3
291
     0
 70
    58
 90
        2
176
     1
 90
        2
176
     1
 90
        3
176
     1
 90
        0
176
     1
 40
0.6
176
     1
 40
30.0
176
     1
 62
     7
420
 16777215
176
     1
 90
        2
176
     1
 90
        2
176
     1
 62
     7
176
     1
 62
     7
176
     1
 90
        1
176
     1
 90
        1
176
     1
 40
40.0
176
     1
 90
        8
176
     1
 62
     7
176
     1
 40
1.0
176
     1
 90
        1
176
     1
 90
        6
176
     1
 90
        2
176
     1
 62
     7
176
     1
 90
        3
176
     1
 90
        0
176
     1
 90
        0
176
     1
290
     0
176
     1
 90
        1
176
     1
 40
0.0
176
     1
 90
        0
176
     1
290
     0
176
     1
290
     1
176
     1
290
     1
176
     1
290
     0
176
     1
290
     0
176
     1
290
     0
176
     1
290
     0
176
     1
290
     0
176
     1
290
     0
176
     1
 90
       50
176
     1
 40
0.0
176
     1
 40
1.0
176
     1
 90
        0
176
     1
 62
    18
420
        0
176
     1
 90
       50
176
     1
 90
        3
176
     1
 62
     5
420
      255
176
     1
290
     0
176
     1
 90
       50
176
     1
 90
       50
176
     1
 90
       50
176
     1
290
     0
176
     1
 90
       50
176
     1
 62
   256
176
     0
 40
1.0
176
     0
 90
        2
176
     1
  1
strokes_ogs.tif
176
     1
290
     0
176
     1
 40
1.0
176
     1
 40
1.0
176
     1
  0
VISUALSTYLE
  5
17F
102
{ACAD_REACTORS
330
99
102
}
330
99
100
AcDbVisualStyle
  2
Sketchy
 70
    24
177
     3
291
     0
 70
    58
 90
        1
176
     1
 90
        2
176
     1
 90
        2
176
     1
 90
        0
176
     1
 40
0.6
176
     1
 40
30.0
176
     1
 62
     7
420
 16777215
176
     1
 90
        2
176
     1
 90
        2
176
     1
 62
     7
176
     1
 62
     7
176
     1
 90
        1
176
     1
 90
        1
176
     1
 40
40.0
176
     1
 90
       11
176
     1
 62
     7
176
     1
 40
1.0
176
     1
 90
        1
176
     1
 90
        6
176
     1
 90
        2
176
     1
 62
     7
176
     1
 90
        6
176
     1
 90
        0
176
     1
 90
        0
176
     1
290
     0
176
     1
 90
        1
176
     1
 40
0.0
176
     1
 90
        0
176
     1
290
     0
176
     1
290
     1
176
     1
290
     1
176
     1
290
     0
176
     1
290
     0
176
     1
290
     0
176
     1
290
     0
176
     1
290
     0
176
     1
290
     0
176
     1
 90
       50
176
     1
 40
0.0
176
     1
 40
1.0
176
     1
 90
        0
176
     1
 62
    18
420
        0
176
     1
 90
       50
176
     1
 90
        3
176
     1
 62
     5
420
      255
176
     1
290
     0
176
     1
 90
       50
176
     1
 90
       50
176
     1
 90
       50
176
     1
290
     0
176
     1
 90
       50
176
     1
 62
   256
176
     0
 40
1.0
176
     0
 90
        2
176
     1
  1
strokes_ogs.tif
176
     1
290
     0
176
     1
 40
1.0
176
     1
 40
1.0
176
     1
  0
VISUALSTYLE
  5
A6
102
{ACAD_REACTORS
330
99
102
}
330
99
100
AcDbVisualStyle
  2
Thicken
 70
    13
177
     3
291
     1
 70
    58
 90
        2
176
     1
 90
        2
176
     1
 90
        1
176
     1
 90
        0
176
     1
 40
0.6
176
     1
 40
30.0
176
     1
 62
     7
420
 16777215
176
     1
 90
        1
176
     1
 90
        4
176
     1
 62
     7
176
     1
 62
   257
176
     1
 90
        1
176
     1
 90
        1
176
     1
 40
1.0
176
     1
 90
       12
176
     1
 62
     7
176
     1
 40
1.0
176
     1
 90
        1
176
     1
 90
        6
176
     1
 90
        2
176
     1
 62
     7
176
     1
 90
        5
176
     1
 90
        0
176
     1
 90
        0
176
     1
290
     0
176
     1
 90
        1
176
     1
 40
0.0
176
     1
 90
        0
176
     1
290
     0
176
     1
290
     1
176
     1
290
     1
176
     1
290
     0
176
     1
290
     0
176
     1
290
     0
176
     1
290
     0
176
     1
290
     0
176
     1
290
     0
176
     1
 90
       50
176
     1
 40
0.0
176
     1
 40
1.0
176
     1
 90
        0
176
     1
 62
    18
420
        0
176
     1
 90
       50
176
     1
 90
        3
176
     1
 62
     5
420
      255
176
     1
290
     0
176
     1
 90
       50
176
     1
 90
       50
176
     1
 90
       50
176
     1
290
     0
176
     1
 90
       50
176
     1
 62
   256
176
     0
 40
1.0
176
     0
 90
        2
176
     1
  1
strokes_ogs.tif
176
     1
290
     0
176
     1
 40
1.0
176
     1
 40
1.0
176
     1
  0
VISUALSTYLE
  5
A0
102
{ACAD_REACTORS
330
99
102
}
330
99
100
AcDbVisualStyle
  2
Wireframe
 70
     5
177
     3
291
     0
 70
    58
 90
        0
176
     1
 90
        2
176
     1
 90
        0
176
     1
 90
        0
176
     1
 40
0.6
176
     1
 40
30.0
176
     1
 62
     7
420
 16777215
176
     1
 90
        1
176
     1
 90
        4
176
     1
 62
     7
176
     1
 62
   257
176
     1
 90
        1
176
     1
 90
        1
176
     1
 40
1.0
176
     1
 90
        0
176
     1
 62
   257
176
     1
 40
1.0
176
     1
 90
        1
176
     1
 90
        6
176
     1
 90
        2
176
     1
 62
     7
176
     1
 90
        3
176
     1
 90
        0
176
     1
 90
        0
176
     1
290
     0
176
     1
 90
        1
176
     1
 40
0.0
176
     1
 90
        0
176
     1
290
     0
176
     1
290
     1
176
     1
290
     1
176
     1
290
     0
176
     1
290
     0
176
     1
290
     0
176
     1
290
     0
176
     1
290
     0
176
     1
290
     0
176
     1
 90
       50
176
     1
 40
0.0
176
     1
 40
1.0
176
     1
 90
        0
176
     1
 62
    18
420
        0
176
     1
 90
       50
176
     1
 90
        3
176
     1
 62
     5
420
      255
176
     1
290
     0
176
     1
 90
       50
176
     1
 90
       50
176
     1
 90
       50
176
     1
290
     0
176
     1
 90
       50
176
     1
 62
   256
176
     0
 40
1.0
176
     0
 90
        2
176
     1
  1
strokes_ogs.tif
176
     1
290
     0
176
     1
 40
1.0
176
     1
 40
1.0
176
     1
  0
VISUALSTYLE
  5
180
102
{ACAD_REACTORS
330
99
102
}
330
99
100
AcDbVisualStyle
  2
X-Ray
 70
    25
177
     3
291
     0
 70
    58
 90
        2
176
     1
 90
        2
176
     1
 90
        1
176
     1
 90
        1
176
     1
 40
0.5
176
     1
 40
30.0
176
     1
 62
     7
420
 16777215
176
     1
 90
        1
176
     1
 90
        0
176
     1
 62
     7
176
     1
 62
   257
176
     1
 90
        1
176
     1
 90
        1
176
     1
 40
1.0
176
     1
 90
        8
176
     1
 62
     7
176
     1
 40
1.0
176
     1
 90
        1
176
     1
 90
        6
176
     1
 90
        2
176
     1
 62
     7
176
     1
 90
        3
176
     1
 90
        0
176
     1
 90
        0
176
     1
290
     0
176
     1
 90
       13
176
     1
 40
0.0
176
     1
 90
        0
176
     1
290
     0
176
     1
290
     1
176
     1
290
     1
176
     1
290
     0
176
     1
290
     0
176
     1
290
     0
176
     1
290
     0
176
     1
290
     0
176
     1
290
     0
176
     1
 90
       50
176
     1
 40
0.0
176
     1
 40
1.0
176
     1
 90
        0
176
     1
 62
    18
420
        0
176
     1
 90
       50
176
     1
 90
        3
176
     1
 62
     5
420
      255
176
     1
290
     0
176
     1
 90
       50
176
     1
 90
       50
176
     1
 90
       50
176
     1
290
     0
176
     1
 90
       50
176
     1
 62
   256
176
     0
 40
1.0
176
     0
 90
        2
176
     1
  1
strokes_ogs.tif
176
     1
290
     0
176
     1
 40
1.0
176
     1
 40
1.0
176
     1
  0
DICTIONARYVAR
  5
F0
102
{ACAD_REACTORS
330
66
102
}
330
66
100
DictionaryVariables
280
     0
  1
1:1
  0
DICTIONARYVAR
  5
EF
102
{ACAD_REACTORS
330
66
102
}
330
66
100
DictionaryVariables
280
     0
  1
STANDARD
  0
DICTIONARYVAR
  5
89
102
{ACAD_REACTORS
330
66
102
}
330
66
100
DictionaryVariables
280
     0
  1
STANDARD
  0
DICTIONARYVAR
  5
1B7
102
{ACAD_REACTORS
330
66
102
}
330
66
100
DictionaryVariables
280
     0
  1
Imperial24
  0
DICTIONARYVAR
  5
1B8
102
{ACAD_REACTORS
330
66
102
}
330
66
100
DictionaryVariables
280
     0
  1
Imperial24
  0
DICTIONARYVAR
  5
67
102
{ACAD_REACTORS
330
66
102
}
330
66
100
DictionaryVariables
280
     0
  1
2
  0
DICTIONARYVAR
  5
6B
102
{ACAD_REACTORS
330
66
102
}
330
66
100
DictionaryVariables
280
     0
  1
1
  0
DICTIONARYVAR
  5
14D
102
{ACAD_REACTORS
330
66
102
}
330
66
100
DictionaryVariables
280
     0
  1
0
  0
DICTIONARYVAR
  5
14E
102
{ACAD_REACTORS
330
66
102
}
330
66
100
DictionaryVariables
280
     0
  1
0
  0
DICTIONARY
  5
194
330
22
100
AcDbDictionary
280
     1
281
     1
  0
DICTIONARY
  5
188
330
97
100
AcDbDictionary
280
     1
281
     1
  3
FBXASSET
360
189
  0
DICTIONARY
  5
186
330
96
100
AcDbDictionary
280
     1
281
     1
  3
FBXASSET
360
187
  0
DICTIONARY
  5
110
330
98
100
AcDbDictionary
280
     1
281
     1
  3
BUMPTILE
360
112
  3
DIFFUSETILE
360
111
  3
FBXASSET
360
18A
  3
OPACITYTILE
360
113
  3
REFLECTIONTILE
360
114
  0
DICTIONARY
  5
104
330
87
100
AcDbDictionary
280
     1
281
     1
  3
ACAD_ROUNDTRIP_2008_TABLESTYLE_CELLSTYLEMAP
360
BB83
  0
XRECORD
  5
189
102
{ACAD_REACTORS
330
188
102
}
330
188
100
AcDbXrecord
280
     1
 70
     1
 90
429727718
  1
508B35C9-AEE7-456F-BE74-D52651303AC6
310
504B03040A0000080000B670623B3DEE336E79000000790000001B0000006175746F6465736B2D64657369676E2D7061636B6167652E786D6C3C3F786D6C2076657273696F6E3D22312E302220656E636F64696E673D227574662D3822203F3E3C666F726D6174733E3C666F726D61743E687474703A2F2F736368656D612E
310
6175746F6465736B2E636F6D2F64657369676E2D7061636B6167652F323030393C2F666F726D61743E3C2F666F726D6174733E504B0304140006080800B670623BD486FD9CA0000000F4000000130000005B436F6E74656E745F54797065735D2E786D6C7D8EC10E82300C865F65E91D8A1E8C310C0EEA1BF002731658846E
310
D98AC1B77784ABF1D8FE5FBFBF75BBCE937A534CCEB38643598122B6FEE978D0B0485F9C41B54DDD7D022595594E1A469170414C76A4D9A4D207E29CF43ECE46F218070CC6BECC4078ACAA135ACF422C856C0E68EA1BF5669944DDD7BCDE7B1F8E415D77AECB980613C2E4AC91FC167A2B244592486606FC29C8FD7F045B9A
310
EF7053A7E60B504B0304140006080800B670623B28ED286BEB0000007C01000008000000636F72652E786D6C8D90416EC3201045AF82665B6183218D6D61A254764FD00B204C5C94182C03558F5F9C3852BBEB6A467FFE9B197D71FA9E6FE8CBACC17AD7012D0820E3B41FAD9B3A48F1826B40272956EFE32F1B20A766D3C1
310
268314D3EAD3B24BDABB685CCCAAF3A3D94515828980F42D371D04FD696655A814B3235C8B45E9AB9A4C419F5D8653B2237A1CB163DE672FD6AC209BF3C08E0D1B30EB19C3FC9D72FCC6EB231EFA33EDE96BDD341517E5064B11EDFCBCAF57A3A2194156843498524CAA0FCA5B7268F9E185D42D21A2DCEC7FA0B48CFF8492
310
759155FBBB0F2C80A4F991FB408A72CB22977B50B96EB9C91F504B0304140006080800B670623B55019EA25F0000007C00000007000000636E782E786D6C4DCB3B0E80201045D1AD90E915ED2CF8AC45050C11660C8261F98AB1B07AC9C97D42D718D865D3E909258CFD00CCE24AC6E326A164D74DC0B4128928FF32603847
310
2BA13128B1252AC747C6BAB984FC68F0B87FE8960A5C09FE86CFB69FBA01504B0304140006080800B670623B7BC41AC871010000D40300000C0000006662782F636F72652E786D6CC553ED6E8320147D15C2DF4501B56B6D90A64BBB27D80B50A5CE54C120983EFEAE1F4DD7A56BBA5FF3879273EEE59E7310BE393735EA95
310
ED2AA333CC428A91D2B9292A5D66D8BB63B0C26823B835C67D2BC348CB46657880B1E0A535BE9DA1DC68A7B403549B42CDA0EC3AE530CA6B5864B8CB3F552343E91D5474A7B095F949962A6421D0502778E72C0840D390E18DC5F170E664C205F7BE2A66B62A605A75AC94C522DDEEE3651AEF837817C741F2CE92E02D592D
310
83FD6ECB76EC7595A651C2C9D02CB8AB9A8BBADC2AE954814544691A3016D0E883256BBA58278B17BA5A53CAC9507ED3E4DBE2C9265F691747B3DCA9ADC382819091F8E1162272A8933DE82182932144F88C09DF060D8140C84E1EEA8B8F1340BDCA9DB1093085F157AA97B557309586747CD0EF0B4EA64E983A6E0EAEEFCE
310
889E9EF17847386AA94B30211D2C0FDE0D3AF9A4610EAD5536E8DD1969631B593F67E381C33F5157F17725E5A636F6BF1491F980C8FC7B90E13E8A2F504B0304140006080800B670623B70102A487D0000009D0000000B0000006662782F636E782E786D6C4DCCD10A83201886E15B91FFDC95A5C30335ACCDFB886521330D
310
A76397BF1A1DECE883878F57749FD5A3B74D2F17830472A901D9F088930B8B849267CC01754AA418F3DF0D5018572BE160506249B16C274D761E8BCFBB7A179E27F65CB39A0F14D396184C9921B81F34C3ACA1B4B99ABB6E6F062A25AA5F69DF23ACBE504B0304140006080800B670623B3610CA3329010000120200003100
310
00006662782F42384135303843342D343331462D343546312D424341352D3532343432364645413344462F636F72652E786D6C8D515B6EC32010BC0AE22B55850D0E446E848992B43E412FE000495162B07854397EA176A4F62F3F2C9A9D991D58BEBB8F37F0AD7D30CE76905418026DA553C65E3A98E219B510EC04F7CEC5
310
3F3408EC30EA0E16180A7EF12E4D0B249D8DDAC68C5AA7F4020E21E80881BCE54B0783FCD2E3500D296646B856D320AFC34557A4CAEDCC133C449F0380794839A138B47B86DB2345744D7A44594FD0E1B867883594369BFE63BF7EEF793D0B054FC9A8456E548E63CE46FB674D8A58F068C6477CE9F510B582A2C1F80D1182
310
70F349E816B32D65AFB8DD62CCEB42FF274A937A52948C8DEB66893BCB021484D7734370E5D2E9F608A3EF93F3119479ABA0E50B14B8C298119A43CCC4FCFCECB8A18B6388CEE7EF5D5D4F994BD86CBBA182D76543B9FCAE2FD7B24DF103504B0304140006080800B670623B1B8617914E0100003303000030000000666278
310
2F42384135303843342D343331462D343546312D424341352D3532343432364645413344462F636E782E786D6CD593C16EC32010447F0571AD6CE3D489D20813A9877E410FBD62D82434182CC055F3F75D1292E692438FBD206B7698593D61BEFD1E2DF982108D773D6D6B460938E5B571FB9ECE6957AD29D90A1EBC4F7736
310
4A9C1CA1A759A682EF839FA72269D8C9D92654AD71C72206887E0E0A22CAF926B15E498B01E0AA19451807D01A34B919F16B070157417138917400F2F6FA41FCF0092A45DEE414C19BDC21783E4BD39D891265658C3D8DEA00A3ACE59CBC8678ACB54CB26EEB6BD7839D7E9348BE70AD9C8321B9BCA7F9A4A26C542347DEE0
310
50F09802D22BA6749A800A394DD62899107273365E3C82CFC6A55557BC06C10774B7ABE7AEC3B0F34CF06446280E154026D0542C187BA9DAB6628BF7B6DBB0E5A65B3EB1F58631DE64BBE083F7B65CC218087E22CABB042E51D1F2268F1FE12B3EA24D40D63E9CFE00120194D60B9D5BC67FE6D39CDF37E20AF817881F504B
310
0304140006080800B670623BBFEF2E3B690500003C100000340000006662782F42384135303843342D343331462D343546312D424341352D3532343432364645413344462F6F626A656374732E786D6CAD575D739B3814FD2B0CFB0C98D84E931D4227B6938EA793B6534F3BFB90198F0099B001899144EAECAFDF231018B0
310
D37A3FFC609090EEE7B94757C1FB7D915B2F54C88CB31BDB7727B64559CC938CA53776A576CE956DBD0F03C1B9EA2DB32D460A7A63EB693B0C52C1ABD24C257447AA5C8D66EF177F5832A68CDA569C13296F6C193FD182B8A4523CA1F2D94D88226EBADBBBBEDB2C1C8A4D05299F46424B222853B014F30C52ACC6287F389C
310
D85E1878FA7B18E87FB36AFAF62AAFF667A83F635211161F291B8999FAB3D5DDC5FCDA99CF6653677679E13B8BFBC5CAF1DF4D27CBCBE5F2FAF6EE1A8AA51290642C117467871F101B91C581D77CEA2C36869F3229E68CD1B8F61F1ED6361B89092D294B90C78C4A68EB793D190E7D1D9BDEE7A91E1B95FDE9F3BCEAEFE809
310
6A6D6F9F7D4B79F4275C90E7A04248AA51D5C4C738DAE06F72885AC4796EBE65D22A88A22223B995679120E2D50EB1542F098381188D4EA111AE3DB043FF20AF6F2B4AE3D7D83D65E5AECA730D4D3BAC91BD05FEA992B565D95F549CD6069B90AB2A63EACA38A45E4B6A87D781574F86817E4C2FCCC72690D62E2729520E37
310
9BAF234797BAF6D62B3BFC781FED37BA1E4F2B2F052FA9501A3E80569BB8F6A9A364D4FA67654E6F803383981F82F21591FF84F23D9882BC896C3FDBCF8C162508933B2E0AE4C69DD43F6BD2BE38DDDBF10BF86CB4FA784D37F3AF16075E67EC9030DECA1FC0A55373F5DFF3378C591FA9BDF485C10B0A8C8BA909E5262639
310
A8E72163488806A595734C81CB77D1DE0ED7604A303B76913CEC0272F412782FF88EFF4636D8AA56DF7B322474C4B767303F625997056C7B032C473C592B36CEBD15F3F9FF5233B7ABCDC74D257624A60F8658567497B14CE1EC3C80B76FD02011038F9EE9EB0F2E12387A9C844D3F09855125116D1D731DF8B43D2CF4E0A0
310
79A020C6BE946BCE0B7EA1E1219331CD73C228AF5A2DDD31A4B1DA918CE91350854D40A71723140BFA92E94E62B0626016CEFA5864A50E5977E8753CEDBEE1CBB7F52780D20E17AF0BA0F5F9B02A3AD07DCC732EB6D1EBB661421BE0C39E21BABF0FE16D22EA6929407C8DE596724C88B749B6DB5512BC7B228ADFD7CB7EA6
310
3A22397E690BA8D5D8D4E40CEC8CDA23C2C0B7D5898640101CEC9C6D331CE328CB93CAFBBAC70A642DF70DF95155945B52F08AA973C23469FD69ADEF84F7BB18F983A8F8C90E37F5D35980B2139A1C523540813E824EF83448CF7C72B598CE97D7CEEDDDDD3B6736BFBC771677EF66CE6A7E7139F7A793E9EDF2B2B3A8B624
310
0CDA13AA5F8388264EC4A0129909F3B7F5A16CEDF08128E97D680ACA4B9BE7B7B58BB638F0B00700EF36AE8B32A705658A68F83EE897FC2B41573190D1CCAF0B92D233A47CFEB019D9809933F67DD1A5467F8CF69AD9A5AE859342D45355448C64F968A371DC2D596ADC6E43D93D1B466F877A64E2893E54F23C4B40388995
310
525E5005DA3983ED45412510D3EFCA13737B3863F74BD30F2A12E5B4B5E489A025CE25500DB855B11ACE5BBFA185D35DD48D8DC3CE7DC69F2944DB42AA6F6CF09BCA622ADD08C7A36E7C6AE18000BAB08E040135C2D21C9D75B3A91B77BB746C403F38018DFE6EC939DD92F16B40BC05294B9CDA035AAD6D330AE27FE4786B
310
8E45145EA34A75BE1C263A676A35A8ACC6297337400BF16C54EF515F3F77CB77EB3583889C754FFA29081AA98E2222ADEF05DA3E63D2EDEA8B8756C05A7FB6CABC4A91CBF325398202CC952E70A008A830324BA200D5E5EF8F5F04C75DB4B0EE3340E071C98B823333B83577596BF3849B69F2085AA0FAFA212F26BEFF5877
310
FDE622B28D88A42E49E43326DA82D31E8CB006401E1DA726059ECEC168F97A6599036306A135688F9AD2E61A6EA178F4CD51974A9F2CCB9F36FE5EBD14601068D9C3BF01504B0304140006080000B670623B000000000000000000000000350000006662782F42384135303843342D343331462D343546312D424341352D35
310
32343432364645413344462F76657274696365732E62696E504B0304140006080800B670623BF270F1330600000004000000360000006662782F42384135303843342D343331462D343546312D424341352D3532343432364645413344462F747269616E676C65732E62696E636660600000504B0304140006080000B67062
310
3B000000000000000000000000370000006662782F42384135303843342D343331462D343546312D424341352D3532343432364645413344462F617474726962757465732E62696E504B0304140006080800B670623B08DA0BD19000000041010000360000006662782F42384135303843342D343331462D343546312D4243
310
41352D3532343432364645413344462F6469726563746F72792E786D6C858F410AC3201045AF22B36F53E9A60B35CBEEBAE80D244E44489C6234F4F835464A48035D0DF398FF9F8AF63D0E6CC63039F212F8F9020C7D47C6792B21C5FE7403D62A1188E2E60C98D7234A5830286103A55745067B9D86B8A3CF9C7F90C11DE6
310
07FB144396D7B6A82D282E9A152AD114D5EF2CB866EEE831B8EEA07A7BB5A8D7D61A2BAAEB7FD5F70921FF497D00504B0304140006080800B670623B3B4606F3FE000000A00100003B0000006662782F42384135303843342D343331462D343546312D424341352D3532343432364645413344462F7265736F75726365732F
310
636F72652E786D6C8D504B6E833010BD0A9A6D65B08134808CA354A427E8052C332156828DFCA97AFC9A40A576D7CDCCE87D344F8F9FBEE647F689CE6B6B7A6039850C8DB2A336530F315C4903D94970676DF82583CCC8197B5861107C72362E3BA4AC096842428D1D7107A5F71820538F74F4E0D50D6799CB1892C2DFF345
310
AABB9C306779A2934E701F5C0A906D4FD609C2A1B7D129F4BCD858C163D4E3AED163FAA9AF1A1D88F67CA98E6D35906AA82A52BFB39ABCD5CD915C86331BD86BD3B665CD8BD52C78D0F34F46E550061C419494B6843142CB0F5677F4D0D58717DA7494F26295FF31C565FCA7296A13AA728FBBD93C0896823C09C18BB5AFB4
310
9E65A6BD762BBE01504B010214000A0000080000B670623B3DEE336E79000000790000001B00000000000000000000000000000000006175746F6465736B2D64657369676E2D7061636B6167652E786D6C504B01021400140006080800B670623BD486FD9CA0000000F40000001300000000000000000000000000B2000000
310
5B436F6E74656E745F54797065735D2E786D6C504B01021400140006080800B670623B28ED286BEB0000007C010000080000000000000000000000000083010000636F72652E786D6C504B01021400140006080800B670623B55019EA25F0000007C000000070000000000000000000000000094020000636E782E786D6C50
310
4B01021400140006080800B670623B7BC41AC871010000D40300000C00000000000000000000000000180300006662782F636F72652E786D6C504B01021400140006080800B670623B70102A487D0000009D0000000B00000000000000000000000000B30400006662782F636E782E786D6C504B01021400140006080800B6
310
70623B3610CA3329010000120200003100000000000000000000000000590500006662782F42384135303843342D343331462D343546312D424341352D3532343432364645413344462F636F72652E786D6C504B01021400140006080800B670623B1B8617914E010000330300003000000000000000000000000000D10600
310
006662782F42384135303843342D343331462D343546312D424341352D3532343432364645413344462F636E782E786D6C504B01021400140006080800B670623BBFEF2E3B690500003C10000034000000000000000000000000006D0800006662782F42384135303843342D343331462D343546312D424341352D35323434
310
32364645413344462F6F626A656374732E786D6C504B01021400140006080000B670623B0000000000000000000000003500000000000000000000000000280E00006662782F42384135303843342D343331462D343546312D424341352D3532343432364645413344462F76657274696365732E62696E504B010214001400
310
06080800B670623BF270F133060000000400000036000000000000000000000000007B0E00006662782F42384135303843342D343331462D343546312D424341352D3532343432364645413344462F747269616E676C65732E62696E504B01021400140006080000B670623B00000000000000000000000037000000000000
310
00000000000000D50E00006662782F42384135303843342D343331462D343546312D424341352D3532343432364645413344462F617474726962757465732E62696E504B01021400140006080800B670623B08DA0BD1900000004101000036000000000000000000000000002A0F00006662782F42384135303843342D3433
310
31462D343546312D424341352D3532343432364645413344462F6469726563746F72792E786D6C504B01021400140006080800B670623B3B4606F3FE000000A00100003B000000000000000000000000000E1000006662782F42384135303843342D343331462D343546312D424341352D3532343432364645413344462F72
310
65736F75726365732F636F72652E786D6C504B0506000000000E000E0080040000651100000000
  0
XRECORD
  5
187
102
{ACAD_REACTORS
330
186
102
}
330
186
100
AcDbXrecord
280
     1
 70
     1
 90
429727718
  1
887D55A9-D0DD-414E-B741-A7DCD4DA2B4C
310
504B03040A0000080000B670623B3DEE336E79000000790000001B0000006175746F6465736B2D64657369676E2D7061636B6167652E786D6C3C3F786D6C2076657273696F6E3D22312E302220656E636F64696E673D227574662D3822203F3E3C666F726D6174733E3C666F726D61743E687474703A2F2F736368656D612E
310
6175746F6465736B2E636F6D2F64657369676E2D7061636B6167652F323030393C2F666F726D61743E3C2F666F726D6174733E504B0304140006080800B670623BD486FD9CA0000000F4000000130000005B436F6E74656E745F54797065735D2E786D6C7D8EC10E82300C865F65E91D8A1E8C310C0EEA1BF002731658846E
310
D98AC1B77784ABF1D8FE5FBFBF75BBCE937A534CCEB38643598122B6FEE978D0B0485F9C41B54DDD7D022595594E1A469170414C76A4D9A4D207E29CF43ECE46F218070CC6BECC4078ACAA135ACF422C856C0E68EA1BF5669944DDD7BCDE7B1F8E415D77AECB980613C2E4AC91FC167A2B244592486606FC29C8FD7F045B9A
310
EF7053A7E60B504B0304140006080800B670623BBC1638F5EC0000007C01000008000000636F72652E786D6C8D90416EC3201045AF82665B61836BE2D8C24471DB9CA01740401C94182C03558F5F9C3852BBEB6A467FFE9B197D7EF89E6EE8CB2CC17AD7032D0820E394D7D68D3DA478C67B4007C117EFE32F1B202727D3C3
310
2A83E0E3E2D3BC49CABB685CCCAAF3DA6CA20CC14440EA969B1E82BA98491632C5EC08D76296EA2A4753D06797E194AC468F2356E77DF66CCD02825543D50CACC62D39ED70FDC68EB8FD68F6F8787A6784342D1DDA1D2F5758F068A7E77DB518198D065111D2624A31A93E69DD11D6D5EC85EC3B4278B9DAFF4069D6FF8492
310
75F1B5DADE7D600104CD8FDC0782976B16B9DC83CA75CD4DFC00504B0304140006080800B670623B55019EA25F0000007C00000007000000636E782E786D6C4DCB3B0E80201045D1AD90E915ED2CF8AC45050C11660C8261F98AB1B07AC9C97D42D718D865D3E909258CFD00CCE24AC6E326A164D74DC0B4128928FF326038
310
472BA13128B1252AC747C6BAB984FC68F0B87FE8960A5C09FE86CFB69FBA01504B0304140006080800B670623B3586FFB671010000D40300000C0000006662782F636F72652E786D6CC553ED6E8320147D15C2DF4541A76D6D90A6DDD627D80B50A4CE54C120983EFEAE1F4DD7A55BBA5FF3879273EEE59E7310B6393735EA
310
95ED2AA3731C851423A5A5292A5DE6D8BB63B0C268C39935C67D29C3488B46E578803167A535BE9D2169B453DA01AA4DA16650749D7218C91A1639EEE4876A4428BC838AEE14B6429E44A9C228041AEA38EB9C0501681A32BC313F1ECE8C4C3867DE57C5CC56054CAB8E95B298A7F12E5EEED224C8E87E11242FE936C8DE96
310
AB60BB7F4D295D66D12E5B30323473E6AAE6A24E5A259C2A308F29CD82280A68FC1E256B9AAE93F489AED694323294DF34F9B678B0C957DA3DC7B3DCA9ADC33C022123F1CD2D44E450277AD04338234388F01913BE0D1A0281909D38D4171F27807A259DB1093085F157AA17B557309586747CD0CF0B46A64E983A6E0EAEEF
310
CE881F9EF1FB8E70D44297604238581EBC1B74B249C31C5AAB6CD0BB33D2C636A27ECCC62F0EFF445DC5DF95244D6DEC7F2922F30191F9F720C37DE49F504B0304140006080800B670623B4220A0FF7D0000009D0000000B0000006662782F636E782E786D6C4DCCD10A83201886E15B91FFDCE542CB0335D0EC3E6259C84A
310
C3E9D8E5AF46073BFAE0E1E315DD675BD1DBA5978F41C2FD4600B9F088930F8B849267CC01754AA418F3DF0D50183727E164506249B1EC174D6E1ECB9A0F5D7D785E68DB8151CD286E5A5363CA6B8A39E90D36D40E96B086F55A43A544F52B1D7B86D517504B0304140006080800B670623B2FA3FEDE290100001202000031
310
0000006662782F45374635344235342D363743322D343832342D383044432D4334454645303536354442422F636F72652E786D6C8D515B6EC32010BC0AE22B55850D2E386E848994D7097A0117488A1283C5A3CAF10BB523B57FF961D1ECCCECC0F2ED7DBC816FED8371B687A4C210682B9D32F6D2C314CFA883602BB8772E
310
FEA141608751F7B0C050F08B77695A20E96CD43666D43AA5177008414708E42D5F7A18E4971E876A483133C2B59A06791D2EBA22556E679EE021FA1C00CC43CA09C5717D6274C7286AD7FB06D1AEA1A8C3873DDAD3E3E98859CB0EBB1DAF67A1E02919B5C88DCA71CCD968FFAC49110B1ECDF8882FBD1EA256503418BF2342
310
106E3E08DD60B6A1EC15771B8C795DE8FF4469524F8A92B1F1AD59E2CEB20005E1F5DC105CB9F4797B84D1F7C9F908CABC55D0F2050A5C61CC1AD2F27A26E6E767C7962E8E213A9FBF7775FDCC5CC266DB960A5E970DE5F2BBBE5CCB36C50F504B0304140006080800B670623B1B8617914E01000033030000300000006662
310
782F45374635344235342D363743322D343832342D383044432D4334454645303536354442422F636E782E786D6CD593C16EC32010447F0571AD6CE3D489D20813A9877E410FBD62D82434182CC055F3F75D1292E692438FBD206B7698593D61BEFD1E2DF982108D773D6D6B460938E5B571FB9ECE6957AD29D90A1EBC4F77
310
364A9C1CA1A759A682EF839FA72269D8C9D92654AD71C72206887E0E0A22CAF926B15E498B01E0AA19451807D01A34B919F16B070157417138917400F2F6FA41FCF0092A45DEE414C19BDC21783E4BD39D891265658C3D8DEA00A3ACE59CBC8678ACB54CB26EEB6BD7839D7E9348BE70AD9C8321B9BCA7F9A4A26C542347DE
310
E050F09802D22BA6749A800A394DD62899107273365E3C82CFC6A55557BC06C10774B7ABE7AEC3B0F34CF06446280E154026D0542C187BA9DAB6628BF7B6DBB0E5A65B3EB1F58631DE64BBE083F7B65CC218087E22CABB042E51D1F2268F1FE12B3EA24D40D63E9CFE00120194D60B9D5BC67FE6D39CDF37E20AF817881F50
310
4B0304140006080800B670623B29652116630500003C100000340000006662782F45374635344235342D363743322D343832342D383044432D4334454645303536354442422F6F626A656374732E786D6CAD575D739B3814FD2B0CFB0C989834C90EA1639B24E3E9A6EDD4D3CE3E64C623834CD8006224913AFDF57B040203
310
B65BEF871F0C12D2FD3CF7E8CA7FBFCB33E3957291B2E2D674ED8969D02262715A24B76625B7D6B569BC0F7CCE98EC2D338D82E4F4D654D366E0279C55A59E8AE99654991CCDDECFFF3444440B6A1A514684B83545F44C7362934AB2988A173B2692D8C97667BB76B3702836E1A47C1E092D09A78584A5982F20C5688C7287
310
C389E904BEA3BE07BEFAD7ABA6A75739B53F43FD69212429A20365233153D70BEF2E2E6FAC4BCF9B5ADEBB0BD79ADFCF43CBBD9A4E16EF168B9BD9DD0D140BC921495BC2E9D60C1E101B9E46BED37CEA2CD6861F3329624541A3DA7F7858DBAC25C6B4A4458C3CA654405BCFEBC970E8AAD8F43E4FD558ABEC4F9FE7557F47
310
4F506B7BFBEC5BCA367FC105710E2AB8A00A554D7CB4A30DFE26FBA86D18CBF4B75418399194A72433B274C3097F33032C554B027F2046A1932B842B0FCCC0DDCBEBDB8AD2F835768F59B9ADB24C41D30C6A64AF817F2A456D59FA83F2E3DA60137255A585BCD60EC9B7929AC18DEFD49381AF1ED30BFDB109A4B1CD488294
310
C3CDE6EBC8D185AABD6568061FEE37BB95AAC7E3CA4BCE4ACAA5820FA0D526AE7DAA2869B5EE5999531BE0CC20E6FBA07C41E43FA27CF7A6206F3CDD793B4F6B919C1462CB788EDCD893FA674CDA17AB7B3B7C019F8D561FAEE966FED562DFE98C1D12C6A9FC015C2A35D7FF3D7FC398F591DA4B5FE0BFA2C0189FEA50AE22
310
92817A1ED3020951A03432862970F976B33383259812CC8E5D240BBA801CBCF8CE2BBEE3BF910DB6AAD5F79E05123AE2DB33981FB1ACCB02B69D00CB014FD68AB573A7627EF9BFD4CC2C5C7D58557C4B22FAA88925A4DBB44825CECE3D78FB060D1231F0E885BE7D673C86A3874958F593906B5502D1563157814FDAC3420D
310
F69A070A22EC4B98E23CFF171A1E5311D12C23056555ABA53B8614563B92D17D02AAB009E8F46284624E5F53D5490C560CCCC2591FF1B45421EB0EBD8EA7ED13BE7C5D7E0428CD60FEF60779EB13E6664FF711CB185F6FDED60D139A001FF60CD1FD6D086F1D51474901E26B2CB794A343BC8ED3EDB612E0DD2351FCB65CF4
310
33D511C9E14B5B40ADC6A6263DB0336A8F700DDF56271A024E70B0B3629DE21847591E55DED73D56206AB927E46FAABC5C939C55853C274C93D69FD6FA4E78BF8B11DF898C9ECD60553FAD39283BA6F18984AA23E8884F83F45C5F5F859797B31B2B9C84A1E5B9DE9D35BFF25C6B76152E422F9C5DCC3D847F5801ED09D5AF
310
41441327A25FF15487F9EB725FB666F048A4701E9A827292E6F97569A32DF61DEC01C0BB8DCBBCCC684E0B49147C1FD54BF685A0AB18C868E6973949E819523E3DAC463660E68C7D9F55A9D1EFA3BD7A76A16AE1A810F95CE59B82A4D968A376DC2E8B44BBDD86B27B368CDE0ED548C7137DA860591A83706223A12CA712B4
310
7306DBF39C0A20A6DF95C7FAF670C6EED7A61F946493D1D6926782963813403548A78AE470DEF80D2D9CEAA26E4D1C76F60BFE74219A06527D6B82DF641A51616F703CAAC6A7160E08A00BEB4810A0274592A1B36E3675E36E978A0DE80727A0D6DF2D39A75BD27E0D8837276589537B40ABB56D5A41F48F1C6FCD3188C4EB
310
A6929D2FFB89CE995A4D00AE813BDD032DC48B56BD437DFDDC2DD7AED70C2272D63DE9A72068A45A92F0A4BE17A8A06B9366E16707AD80B1FC649459952097E74BB23805982B55E0401150A165964402AA8BDF9F3E7386BB686EDCA780C0D382E5392BF460A6EFB2C6EA1937D3F809B440D5F5435C4C5CF7A9EEFAF54564BD
310
2182DA24162F98680B4E7930C21A0079709CEAEB99A372305ABE0C0D7D6078105A83F6A0296DAEE1068A47DD1C55A9F4C9B2FC69E3EFD44B81028E963DF81B504B0304140006080000B670623B000000000000000000000000350000006662782F45374635344235342D363743322D343832342D383044432D433445464530
310
3536354442422F76657274696365732E62696E504B0304140006080800B670623BF270F1330600000004000000360000006662782F45374635344235342D363743322D343832342D383044432D4334454645303536354442422F747269616E676C65732E62696E636660600000504B0304140006080000B670623B00000000
310
0000000000000000370000006662782F45374635344235342D363743322D343832342D383044432D4334454645303536354442422F617474726962757465732E62696E504B0304140006080800B670623B08DA0BD19000000041010000360000006662782F45374635344235342D363743322D343832342D383044432D4334
310
454645303536354442422F6469726563746F72792E786D6C858F410AC3201045AF22B36F53E9A60B35CBEEBAE80D244E44489C6234F4F835464A48035D0DF398FF9F8AF63D0E6CC63039F212F8F9020C7D47C6792B21C5FE7403D62A1188E2E60C98D7234A5830286103A55745067B9D86B8A3CF9C7F90C11DE607FB144396
310
D7B6A82D282E9A152AD114D5EF2CB866EEE831B8EEA07A7BB5A8D7D61A2BAAEB7FD5F70921FF497D00504B0304140006080800B670623B6378F24DFF000000A00100003B0000006662782F45374635344235342D363743322D343832342D383044432D4334454645303536354442422F7265736F75726365732F636F72652E
310
786D6C8D504B6E833010BD0A9A6D65B0094E42641C85B639412F6099496225D8C89FAAC7AF09546A77DDCC8CDE47F3F4C4F16B7C149FE88371B603565228D06A37187BED20C50BD9437194C23B177FC9A0B06AC40E6618A4B87A97A615D2CE46B431A3D60DB8822A048C50E8473E3A08FA86A32A558A5911EEE5A4F45D5DB1
310
6465A6B34E8A107D0E502C4FE609D26370C96B0CA25A58295232C3AA3143FE692E063D485EF7F5AEE71BD2D2F39634AFFC44DAF7DD9E9CCE6F9CD25DCBFA762BAAD92C4534E34F46ED51451C40D694B6843142EB0FD61C283F34FC85EE0F948A6A96FF31A569F8A729191B37F51A77B105902C0779125254735F793DCBCC7B
310
EE567E03504B010214000A0000080000B670623B3DEE336E79000000790000001B00000000000000000000000000000000006175746F6465736B2D64657369676E2D7061636B6167652E786D6C504B01021400140006080800B670623BD486FD9CA0000000F40000001300000000000000000000000000B20000005B436F6E
310
74656E745F54797065735D2E786D6C504B01021400140006080800B670623BBC1638F5EC0000007C010000080000000000000000000000000083010000636F72652E786D6C504B01021400140006080800B670623B55019EA25F0000007C000000070000000000000000000000000095020000636E782E786D6C504B010214
310
00140006080800B670623B3586FFB671010000D40300000C00000000000000000000000000190300006662782F636F72652E786D6C504B01021400140006080800B670623B4220A0FF7D0000009D0000000B00000000000000000000000000B40400006662782F636E782E786D6C504B01021400140006080800B670623B2F
310
A3FEDE290100001202000031000000000000000000000000005A0500006662782F45374635344235342D363743322D343832342D383044432D4334454645303536354442422F636F72652E786D6C504B01021400140006080800B670623B1B8617914E010000330300003000000000000000000000000000D2060000666278
310
2F45374635344235342D363743322D343832342D383044432D4334454645303536354442422F636E782E786D6C504B01021400140006080800B670623B29652116630500003C10000034000000000000000000000000006E0800006662782F45374635344235342D363743322D343832342D383044432D4334454645303536
310
354442422F6F626A656374732E786D6C504B01021400140006080000B670623B0000000000000000000000003500000000000000000000000000230E00006662782F45374635344235342D363743322D343832342D383044432D4334454645303536354442422F76657274696365732E62696E504B01021400140006080800
310
B670623BF270F13306000000040000003600000000000000000000000000760E00006662782F45374635344235342D363743322D343832342D383044432D4334454645303536354442422F747269616E676C65732E62696E504B01021400140006080000B670623B0000000000000000000000003700000000000000000000
310
000000D00E00006662782F45374635344235342D363743322D343832342D383044432D4334454645303536354442422F617474726962757465732E62696E504B01021400140006080800B670623B08DA0BD190000000410100003600000000000000000000000000250F00006662782F45374635344235342D363743322D34
310
3832342D383044432D4334454645303536354442422F6469726563746F72792E786D6C504B01021400140006080800B670623B6378F24DFF000000A00100003B00000000000000000000000000091000006662782F45374635344235342D363743322D343832342D383044432D4334454645303536354442422F7265736F75
310
726365732F636F72652E786D6C504B0506000000000E000E0080040000611100000000
  0
XRECORD
  5
112
102
{ACAD_REACTORS
330
110
102
}
330
110
100
AcDbXrecord
280
     1
270
     1
271
     1
  0
XRECORD
  5
111
102
{ACAD_REACTORS
330
110
102
}
330
110
100
AcDbXrecord
280
     1
270
     1
271
     1
  0
XRECORD
  5
18A
102
{ACAD_REACTORS
330
110
102
}
330
110
100
AcDbXrecord
280
     1
 70
     0
 90
1778669749
  1
9BF507EE-FAF7-4A99-A33D-4EE51894BC40
310
504B03040A0000080000B670623B3DEE336E79000000790000001B0000006175746F6465736B2D64657369676E2D7061636B6167652E786D6C3C3F786D6C2076657273696F6E3D22312E302220656E636F64696E673D227574662D3822203F3E3C666F726D6174733E3C666F726D61743E687474703A2F2F736368656D612E
310
6175746F6465736B2E636F6D2F64657369676E2D7061636B6167652F323030393C2F666F726D61743E3C2F666F726D6174733E504B0304140006080800B670623BD486FD9CA0000000F4000000130000005B436F6E74656E745F54797065735D2E786D6C7D8EC10E82300C865F65E91D8A1E8C310C0EEA1BF002731658846E
310
D98AC1B77784ABF1D8FE5FBFBF75BBCE937A534CCEB38643598122B6FEE978D0B0485F9C41B54DDD7D022595594E1A469170414C76A4D9A4D207E29CF43ECE46F218070CC6BECC4078ACAA135ACF422C856C0E68EA1BF5669944DDD7BCDE7B1F8E415D77AECB980613C2E4AC91FC167A2B244592486606FC29C8FD7F045B9A
310
EF7053A7E60B504B0304140006080800B670623BCA089DFFEC0000007C01000008000000636F72652E786D6C8D90416E83301045AF62CDB632D8402020E32882F604BD80653BC44AB011B6AB1EBF262152BBEB6A467FFE9B197D76FA9EEFE84BAFDE38DB03CD08206DA553C64E3DC470C1474027CE56E7C22F1B202B66DDC3
310
260367D3EAE2B24BD2D9A06D48AA754AEFA2F05E0740F29E9A1EBCBCEA59642286E4F0B76C11F226269DD15797E0188D42CF2346A57DE662F40ABCAEC77628C6120F654571D50C04B7F5B9C1E3997CD4F550BE3745C3F20DE62C98F9755FAE5A04AD801784B498524C8A4F5A75E4D055873772EC0861F966FF03C545FD138A
310
C686B2D8DF7D621E384D8F3C069CE55B16A93C824A75CB8DFF00504B0304140006080800B670623B55019EA25F0000007C00000007000000636E782E786D6C4DCB3B0E80201045D1AD90E915ED2CF8AC45050C11660C8261F98AB1B07AC9C97D42D718D865D3E909258CFD00CCE24AC6E326A164D74DC0B4128928FF326038
310
472BA13128B1252AC747C6BAB984FC68F0B87FE8960A5C09FE86CFB69FBA01504B0304140006080800B670623B68FC0B7272010000D40300000C0000006662782F636F72652E786D6CC5535B6E833010BC8AE5DF0A6C1E8124328E22D29EA01770C0A128602363A31CBFCB234A53A555FA553EC09AD9F5CE8C31DB5DDA060D
310
D2F4B556190E7C8A9154852E6B5565D8D993B7C668C799D1DA7E29C3488956667884316795D1AE5BA0422B2B950554E9522EA0E87B69312A1A5864B82F3E642B7CE12C54F467BF13C55954D20F7CA0A18EB3DE1A1080E621E31BF3D3F1C2C88C73E65C5D2E6C5DC2B4FA544B8379921C36797888BC3C8A032F4E73EA6D927D
310
EA1DF6F42D49F2E8350D5346C666CE6CDD5ED515460A2B4BCC434A375E1078347C0FE22D5D6DE3D50B5D6F2965642CBF6B725DF96493AB958DC245EEDCD6631E809089F8E61622B2A81703E8219C913144F84C09DF070D8140C8561C9BAB8F3340832CAC363130A576376A108D933095FA747AD0CF0B46E64E983A6D0EAE1F
310
CE089F9EF1FB8E70D44255604258581E9D1D75B259C3125A278D37D80B52DAB4A279CEC62F0EFF44DDC43F9454E8469BFF5244960322CBEF41C6FBC83F01504B0304140006080800B670623B0F71DDB67E0000009D0000000B0000006662782F636E782E786D6C4DCCD10A83201886E15B91FFDCA54DB73F502386BB8F5816
310
32D3703976F9ABD1C18E3E78F87855FB990379BBFCF2296AE02706C4C5471A7C9C349475A408A4352AA7B4FEDD80C47E761A7606A3A69CCA72D0E0C6BE8475D3E0E3F3409428EA6B27A84079A782899AA2EC1A7AE3ECCC2FD858CB2D544655BFD2B67BD87C01504B0304140006080800B670623BE134B4FB28010000120200
310
00310000006662782F38353834323741342D343835462D343034322D383541392D4331303331363839454531452F636F72652E786D6C8D515B6EC32010BC0AE22B55850D0EA424C24451959EA0172086A42831583CAA1CBF503B52FB971F16CDCECC0EACD8DFC71BF836215AEF7A481A0C817183D7D65D7A98D3197108F652
310
04EFD31F1A044E8DA6871586525C82CFD3020DDE25E352419DD76601558C264130DCCAA58771F832A36A544E8511AFCDA486ABBA988634A55D7852C4144A00300FA927949C71DABD1D28A29C7D208A6987383B6CD13BC16BB2E1DBE3911C453B0BA5C8D9EA456E758963CFD684674DAA588A64C747FC2118958C86B2C3788B
310
0841B8FB247487D98EB257CC77188BB6D2FF89F2A49F1465EBD2BA5BE2CEB2082511EDDC9042FB7CBA3DC298FBE4430275DE2A9AE1054ADC60CC08E3A29D89E5F9C5714317C7987C28DFBBBA9E0A97B0D97643A568EB864AF95D5FA9759BF207504B0304140006080800B670623B1B8617914E010000330300003000000066
310
62782F38353834323741342D343835462D343034322D383541392D4331303331363839454531452F636E782E786D6CD593C16EC32010447F0571AD6CE3D489D20813A9877E410FBD62D82434182CC055F3F75D1292E692438FBD206B7698593D61BEFD1E2DF982108D773D6D6B460938E5B571FB9ECE6957AD29D90A1EBC4F
310
77364A9C1CA1A759A682EF839FA72269D8C9D92654AD71C72206887E0E0A22CAF926B15E498B01E0AA19451807D01A34B919F16B070157417138917400F2F6FA41FCF0092A45DEE414C19BDC21783E4BD39D891265658C3D8DEA00A3ACE59CBC8678ACB54CB26EEB6BD7839D7E9348BE70AD9C8321B9BCA7F9A4A26C542347
310
DEE050F09802D22BA6749A800A394DD62899107273365E3C82CFC6A55557BC06C10774B7ABE7AEC3B0F34CF06446280E154026D0542C187BA9DAB6628BF7B6DBB0E5A65B3EB1F58631DE64BBE083F7B65CC218087E22CABB042E51D1F2268F1FE12B3EA24D40D63E9CFE00120194D60B9D5BC67FE6D39CDF37E20AF817881F
310
504B0304140006080800B670623B5933D422630500003B100000340000006662782F38353834323741342D343835462D343034322D383541392D4331303331363839454531452F6F626A656374732E786D6CAD575B6FA33814FE2B887D0642934E9B156594264D158D3A534DD4D13E548A0C38942D60649B4EBABF7E3F8321
310
40924EF6928780CDF1B97EE762EFF32E4B8D37CA45C2F21BD3B547A641F39045491EDF98A5DC5AD7A6F1D9F73863B243661A39C9E88DA9B64DDF8B392B0BBD15D12D295339D85DDEFE618890E6D434C2940871638AF08566C426A5641115AF764424B1E3EDCE76ED9AB0CF36E6A47819302D08A7B984A6D8CFC1C5A89572FB
310
CB91E9F89EA3BEFB9EFAD754E3D3544E654F5F7E920B49F2F040D880CDD89D2CEE2E2EA7D6E56432B6269F2E5CEB7679BBB0DCABF168FE693E9FCEEEA6102C240727AD09A75BD3BF876F78127A4EFDA9D5582B7E4CA590E5390D2BFB6161A5B3E618D182E611E2985001691DAB47FDA5AB7CD3F93C566B2DB2BB7D9E55DD13
310
1D468DEECDB3AB290BFE8409E21C54704115AA6AFF68436BFC8DF65E0B184BF5B74418199194272435D224E084BF9B3E481589EFF5D828747285706581E9BB7B7E5D5D911ABFC6EE312DB7659A2A689A7E85EC0DF04FA5A8344BFEA2FCB834E8845895492EAFB541F2BDA0A63FF59C6AD3F7D4637CA13FD68E34B629891172
310
98597F1D183A57B9B75A98FE9765B05BAB7C3C2EBCE0ACA05C2AF8005A4DE09AA7F29216EB9E15397500C6F47CBE77CA7778FE2BD277AF0AE2C693DD6437D1522427B9D8329E2136F6A8FA19A3E6C56ADF0E5F50CF06D48734EDCEBF22F69C56D97EC138153F804B85E6FABFC7AFEFB32E523BE1F3BD372418E363EDCA7548
310
52949E8724474014288D94610BB57C1BEC4C7F854A89CA8E5324F55B871CBC78CE1BBEE3BFE68D6A5589EF3C730474506FCFA8FCF0659516D0ED04580EEA6425581B77CAE797FF4BCECC16EB2FEB926F49481F746159D06D922712BD730FDEAE42BD40F42C7AA5EF3F198F60E86110D6DD20645A9480B795CF95E3E3A659A8
310
C55E724F408873315335CFFB8584874484344D494E59D94869DB90C26A5B64F49C802CAC1D3ABE18A098D3B7444D123D8A9E5AE8F5214F0AE5B2B6E9B575DA3E61CBD3EA2B4009FA940524DD1305FB6A1FB294F14DF0BEA90BA109ECE1481FDC3FFAE8D60E75141700BE82725371B4873751B2DD960265F788137FACE6DD40
310
B575E4F0A5C99F46629D92131467A41EE11ABD8D4CCC039CA0AFB37C93A08B232B8F0AEFCA1E0A1015DF13FC83322B362463652ECF71D3A8B1A7D1BE65DE1D62C44F22C317D35F574FEB16153BA2D13E543D10A80E74C4A65E78A6B7CBCBD1D5DD9DB59C2DAFACC96C3AB566E3F1C29ADCDD5DBAD7D3C9ED7C822ED74F80A6
310
41755310DE4443F44A9E68373FADF6596BFA0F440AE7BECE2727AE9F4F2B1B53B1E7E00CF0DD1E5C65454A339A4BA2D0FBA05ED2EF0443458F47BDBFCA484CCFE0F2ED7E3DD0013B679C7B5499467F0ECEEADDB9CA85A34CE44B99053949D2C1416DB85DE4B136BB7165FBAC0B7AB3542BED4F8CA182A549847A1319316519
310
95A83A67147B9E5101C47487F2485F1ECE38FD568F839204296D3479219888530154036E6528FBFBC66F98E0D4107563A2D7D9AFF8D389681A08F58D89F22693900A3B407754734FC51C10C010D6D640809EE4718AC1BA3ED4AEDB53CA37283F68805A7E4B72CEB0A4EDEAD5DD8C14059A76AFAA56BA6901E13F32BC51C720
310
12AF41295B5BF61BAD3195181FB506E6B40F4C10AF5AF40EF9F5B159AE5DD1F43C72D635E94310D45C2D49785C5D0B94D3B54AB3C5A38349C0587D338AB48C11CBF339599C02CCA54A70A008A8D03C0B2201D5F9EFCF8F9CE12A9A19CB0410789EB32C63B95ECCF455D658BFE0621A3DA32C5075FB101723D77DAE867E7D0F
310
D90444509B44E2151B4DC2290B065803200FBAA9BE9D392A0603F2D5C2D00D6302A615680F66D2FA166E2079D4C551A54AB758161FCEFD4E450A14704CECFEDF504B0304140006080000B670623B000000000000000000000000350000006662782F38353834323741342D343835462D343034322D383541392D4331303331
310
363839454531452F76657274696365732E62696E504B0304140006080800B670623BF270F1330600000004000000360000006662782F38353834323741342D343835462D343034322D383541392D4331303331363839454531452F747269616E676C65732E62696E636660600000504B0304140006080000B670623B000000
310
000000000000000000370000006662782F38353834323741342D343835462D343034322D383541392D4331303331363839454531452F617474726962757465732E62696E504B0304140006080800B670623B08DA0BD19000000041010000360000006662782F38353834323741342D343835462D343034322D383541392D43
310
31303331363839454531452F6469726563746F72792E786D6C858F410AC3201045AF22B36F53E9A60B35CBEEBAE80D244E44489C6234F4F835464A48035D0DF398FF9F8AF63D0E6CC63039F212F8F9020C7D47C6792B21C5FE7403D62A1188E2E60C98D7234A5830286103A55745067B9D86B8A3CF9C7F90C11DE607FB1443
310
96D7B6A82D282E9A152AD114D5EF2CB866EEE831B8EEA07A7BB5A8D7D61A2BAAEB7FD5F70921FF497D00504B0304140006080800B670623BD9A3B367FE000000A00100003B0000006662782F38353834323741342D343835462D343034322D383541392D4331303331363839454531452F7265736F75726365732F636F7265
310
2E786D6C8D504B6E833010BD0A9A6D65B01D0201194711694FD00B586642AD043BF2A7EAF16B122AB5BB6E6646EFA3797AE2F8B5DC8A4FF4C1383B002B291468B59B8C9D0748F1420E501CA5F0CEC55F3228AC5A708015062966EFD27D83B4B3116DCCA875136EA00A012314FA968F0182FEC045952AC5AC08D7F2AEF455CD
310
58B232D3592745883E07289E4FD609D26370C96B0CA27AB252A464A64D63A6FCD35C0C7A904D73EE467EE664DCD58CD4ED4849D79C5A723ED1B7A61977AF2D6F45B59AA58866F9C9A83DAA8813484E6947182394BFB3BAA7FBBEDEBFD0434FA9A856F91F53BA4FFF342563E38E6F719FB60092E5200F428A6AED2BAF479979
310
AFDDCA6F504B010214000A0000080000B670623B3DEE336E79000000790000001B00000000000000000000000000000000006175746F6465736B2D64657369676E2D7061636B6167652E786D6C504B01021400140006080800B670623BD486FD9CA0000000F40000001300000000000000000000000000B20000005B436F6E
310
74656E745F54797065735D2E786D6C504B01021400140006080800B670623BCA089DFFEC0000007C010000080000000000000000000000000083010000636F72652E786D6C504B01021400140006080800B670623B55019EA25F0000007C000000070000000000000000000000000095020000636E782E786D6C504B010214
310
00140006080800B670623B68FC0B7272010000D40300000C00000000000000000000000000190300006662782F636F72652E786D6C504B01021400140006080800B670623B0F71DDB67E0000009D0000000B00000000000000000000000000B50400006662782F636E782E786D6C504B01021400140006080800B670623BE1
310
34B4FB280100001202000031000000000000000000000000005C0500006662782F38353834323741342D343835462D343034322D383541392D4331303331363839454531452F636F72652E786D6C504B01021400140006080800B670623B1B8617914E010000330300003000000000000000000000000000D3060000666278
310
2F38353834323741342D343835462D343034322D383541392D4331303331363839454531452F636E782E786D6C504B01021400140006080800B670623B5933D422630500003B10000034000000000000000000000000006F0800006662782F38353834323741342D343835462D343034322D383541392D4331303331363839
310
454531452F6F626A656374732E786D6C504B01021400140006080000B670623B0000000000000000000000003500000000000000000000000000240E00006662782F38353834323741342D343835462D343034322D383541392D4331303331363839454531452F76657274696365732E62696E504B01021400140006080800
310
B670623BF270F13306000000040000003600000000000000000000000000770E00006662782F38353834323741342D343835462D343034322D383541392D4331303331363839454531452F747269616E676C65732E62696E504B01021400140006080000B670623B0000000000000000000000003700000000000000000000
310
000000D10E00006662782F38353834323741342D343835462D343034322D383541392D4331303331363839454531452F617474726962757465732E62696E504B01021400140006080800B670623B08DA0BD190000000410100003600000000000000000000000000260F00006662782F38353834323741342D343835462D34
310
3034322D383541392D4331303331363839454531452F6469726563746F72792E786D6C504B01021400140006080800B670623BD9A3B367FE000000A00100003B000000000000000000000000000A1000006662782F38353834323741342D343835462D343034322D383541392D4331303331363839454531452F7265736F75
310
726365732F636F72652E786D6C504B0506000000000E000E0080040000611100000000
  0
XRECORD
  5
113
102
{ACAD_REACTORS
330
110
102
}
330
110
100
AcDbXrecord
280
     1
270
     1
271
     1
  0
XRECORD
  5
114
102
{ACAD_REACTORS
330
110
102
}
330
110
100
AcDbXrecord
280
     1
270
     1
271
     1
  0
CELLSTYLEMAP
  5
BB83
102
{ACAD_REACTORS
330
104
102
}
330
104
100
AcDbCellStyleMap
 90
        3
300
CELLSTYLE
  1
TABLEFORMAT_BEGIN
 90
        5
170
     1
 91
        0
 92
    32768
 62
   257
 93
        1
300
CONTENTFORMAT
  1
CONTENTFORMAT_BEGIN
 90
        0
 91
        0
 92
      512
 93
        0
300

 40
0.0
140
1.0
 94
        5
 62
     0
340
11
144
0.25
309
CONTENTFORMAT_END
171
     1
301
MARGIN
  1
CELLMARGIN_BEGIN
 40
0.06
 40
0.06
 40
0.06
 40
0.06
 40
0.18
 40
0.18
309
CELLMARGIN_END
 94
        6
 95
        1
302
GRIDFORMAT
  1
GRIDFORMAT_BEGIN
 90
        0
 91
        1
 62
     0
 92
       -2
340
0
 93
        0
 40
0.045
309
GRIDFORMAT_END
 95
        2
302
GRIDFORMAT
  1
GRIDFORMAT_BEGIN
 90
        0
 91
        1
 62
     0
 92
       -2
340
0
 93
        0
 40
0.045
309
GRIDFORMAT_END
 95
        4
302
GRIDFORMAT
  1
GRIDFORMAT_BEGIN
 90
        0
 91
        1
 62
     0
 92
       -2
340
0
 93
        0
 40
0.045
309
GRIDFORMAT_END
 95
        8
302
GRIDFORMAT
  1
GRIDFORMAT_BEGIN
 90
        0
 91
        1
 62
     0
 92
       -2
340
0
 93
        0
 40
0.045
309
GRIDFORMAT_END
 95
       16
302
GRIDFORMAT
  1
GRIDFORMAT_BEGIN
 90
        0
 91
        1
 62
     0
 92
       -2
340
0
 93
        0
 40
0.045
309
GRIDFORMAT_END
 95
       32
302
GRIDFORMAT
  1
GRIDFORMAT_BEGIN
 90
        0
 91
        1
 62
     0
 92
       -2
340
0
 93
        0
 40
0.045
309
GRIDFORMAT_END
309
TABLEFORMAT_END
  1
CELLSTYLE_BEGIN
 90
        1
 91
        1
300
_TITLE
309
CELLSTYLE_END
300
CELLSTYLE
  1
TABLEFORMAT_BEGIN
 90
        5
170
     1
 91
        0
 92
        0
 62
   257
 93
        1
300
CONTENTFORMAT
  1
CONTENTFORMAT_BEGIN
 90
        0
 91
        0
 92
      512
 93
        0
300

 40
0.0
140
1.0
 94
        5
 62
     0
340
11
144
0.18
309
CONTENTFORMAT_END
171
     1
301
MARGIN
  1
CELLMARGIN_BEGIN
 40
0.06
 40
0.06
 40
0.06
 40
0.06
 40
0.18
 40
0.18
309
CELLMARGIN_END
 94
        6
 95
        1
302
GRIDFORMAT
  1
GRIDFORMAT_BEGIN
 90
        0
 91
        1
 62
     0
 92
       -2
340
0
 93
        0
 40
0.045
309
GRIDFORMAT_END
 95
        2
302
GRIDFORMAT
  1
GRIDFORMAT_BEGIN
 90
        0
 91
        1
 62
     0
 92
       -2
340
0
 93
        0
 40
0.045
309
GRIDFORMAT_END
 95
        4
302
GRIDFORMAT
  1
GRIDFORMAT_BEGIN
 90
        0
 91
        1
 62
     0
 92
       -2
340
0
 93
        0
 40
0.045
309
GRIDFORMAT_END
 95
        8
302
GRIDFORMAT
  1
GRIDFORMAT_BEGIN
 90
        0
 91
        1
 62
     0
 92
       -2
340
0
 93
        0
 40
0.045
309
GRIDFORMAT_END
 95
       16
302
GRIDFORMAT
  1
GRIDFORMAT_BEGIN
 90
        0
 91
        1
 62
     0
 92
       -2
340
0
 93
        0
 40
0.045
309
GRIDFORMAT_END
 95
       32
302
GRIDFORMAT
  1
GRIDFORMAT_BEGIN
 90
        0
 91
        1
 62
     0
 92
       -2
340
0
 93
        0
 40
0.045
309
GRIDFORMAT_END
309
TABLEFORMAT_END
  1
CELLSTYLE_BEGIN
 90
        2
 91
        1
300
_HEADER
309
CELLSTYLE_END
300
CELLSTYLE
  1
TABLEFORMAT_BEGIN
 90
        5
170
     1
 91
        0
 92
        0
 62
   257
 93
        1
300
CONTENTFORMAT
  1
CONTENTFORMAT_BEGIN
 90
        0
 91
        0
 92
      512
 93
        0
300

 40
0.0
140
1.0
 94
        2
 62
     0
340
11
144
0.18
309
CONTENTFORMAT_END
171
     1
301
MARGIN
  1
CELLMARGIN_BEGIN
 40
0.06
 40
0.06
 40
0.06
 40
0.06
 40
0.18
 40
0.18
309
CELLMARGIN_END
 94
        6
 95
        1
302
GRIDFORMAT
  1
GRIDFORMAT_BEGIN
 90
        0
 91
        1
 62
     0
 92
       -2
340
0
 93
        0
 40
0.045
309
GRIDFORMAT_END
 95
        2
302
GRIDFORMAT
  1
GRIDFORMAT_BEGIN
 90
        0
 91
        1
 62
     0
 92
       -2
340
0
 93
        0
 40
0.045
309
GRIDFORMAT_END
 95
        4
302
GRIDFORMAT
  1
GRIDFORMAT_BEGIN
 90
        0
 91
        1
 62
     0
 92
       -2
340
0
 93
        0
 40
0.045
309
GRIDFORMAT_END
 95
        8
302
GRIDFORMAT
  1
GRIDFORMAT_BEGIN
 90
        0
 91
        1
 62
     0
 92
       -2
340
0
 93
        0
 40
0.045
309
GRIDFORMAT_END
 95
       16
302
GRIDFORMAT
  1
GRIDFORMAT_BEGIN
 90
        0
 91
        1
 62
     0
 92
       -2
340
0
 93
        0
 40
0.045
309
GRIDFORMAT_END
 95
       32
302
GRIDFORMAT
  1
GRIDFORMAT_BEGIN
 90
        0
 91
        1
 62
     0
 92
       -2
340
0
 93
        0
 40
0.045
309
GRIDFORMAT_END
309
TABLEFORMAT_END
  1
CELLSTYLE_BEGIN
 90
        3
 91
        2
300
_DATA
309
CELLSTYLE_END
  0
ENDSEC
  0
SECTION
  2
ACDSDATA
 70
     2
 71
     8
  0
ACDSSCHEMA
 90
        0
  1
AcDb_Thumbnail_Schema
  2
AcDbDs::ID
280
    10
 91
        8
  2
Thumbnail_Data
280
    15
 91
        0
101
ACDSRECORD
 95
        0
 90
        1
  2
AcDbDs::TreatedAsObjectData
280
     1
291
     1
101
ACDSRECORD
 95
        0
 90
        2
  2
AcDbDs::Legacy
280
     1
291
     1
101
ACDSRECORD
  1
AcDbDs::ID
 90
        3
  2
AcDs:Indexable
280
     1
291
     1
101
ACDSRECORD
  1
AcDbDs::ID
 90
        4
  2
AcDbDs::HandleAttribute
280
     7
282
     1
  0
ACDSSCHEMA
 90
        1
  1
AcDbDs::TreatedAsObjectDataSchema
  2
AcDbDs::TreatedAsObjectData
280
     1
 91
        0
  0
ACDSSCHEMA
 90
        2
  1
AcDbDs::LegacySchema
  2
AcDbDs::Legacy
280
     1
 91
        0
  0
ACDSSCHEMA
 90
        3
  1
AcDbDs::IndexedPropertySchema
  2
AcDs:Indexable
280
     1
 91
        0
  0
ACDSSCHEMA
 90
        4
  1
AcDbDs::HandleAttributeSchema
  2
AcDbDs::HandleAttribute
280
     7
 91
        1
284
     1
  0
ACDSRECORD
 90
        0
  2
AcDbDs::ID
280
    10
320
22
  2
Thumbnail_Data
280
    15
 94
     1965
310
89504E470D0A1A0A0000000D49484452000001000000006D080300000079B14F6400000300504C5445212830FFFFFF2128300000000000000000000000000000000000000000000000000000330000660000990000CC0000FF0033000033330033660033990033CC0033FF0066000066330066660066990066CC0066FF0099
310
000099330099660099990099CC0099FF00CC0000CC3300CC6600CC9900CCCC00CCFF00FF0000FF3300FF6600FF9900FFCC00FFFF3300003300333300663300993300CC3300FF3333003333333333663333993333CC3333FF3366003366333366663366993366CC3366FF3399003399333399663399993399CC3399FF33CC00
310
33CC3333CC6633CC9933CCCC33CCFF33FF0033FF3333FF6633FF9933FFCC33FFFF6600006600336600666600996600CC6600FF6633006633336633666633996633CC6633FF6666006666336666666666996666CC6666FF6699006699336699666699996699CC6699FF66CC0066CC3366CC6666CC9966CCCC66CCFF66FF0066
310
FF3366FF6666FF9966FFCC66FFFF9900009900339900669900999900CC9900FF9933009933339933669933999933CC9933FF9966009966339966669966999966CC9966FF9999009999339999669999999999CC9999FF99CC0099CC3399CC6699CC9999CCCC99CCFF99FF0099FF3399FF6699FF9999FFCC99FFFFCC0000CC00
310
33CC0066CC0099CC00CCCC00FFCC3300CC3333CC3366CC3399CC33CCCC33FFCC6600CC6633CC6666CC6699CC66CCCC66FFCC9900CC9933CC9966CC9999CC99CCCC99FFCCCC00CCCC33CCCC66CCCC99CCCCCCCCCCFFCCFF00CCFF33CCFF66CCFF99CCFFCCCCFFFFFF0000FF0033FF0066FF0099FF00CCFF00FFFF3300FF3333
310
FF3366FF3399FF33CCFF33FFFF6600FF6633FF6666FF6699FF66CCFF66FFFF9900FF9933FF9966FF9999FF99CCFF99FFFFCC00FFCC33FFCC66FFCC99FFCCCCFFCCFFFFFF00FFFF33FFFF66FFFF99FFFFCCFFFFFF0000000D0D0D1A1A1A2828283535354343435050505D5D5D6B6B6B787878868686939393A1A1A1AEAEAEBB
310
BBBBC9C9C9D6D6D6E4E4E4F1F1F1FFFFFF0000000000000000000000000000000000000000000000000000000000002E4550F1000004684944415478DAED9DDD72E330088579FFF73DF7DBED3A96C4BF9BCE04A1F54D9BA4EE98CF0704487288FE1F050E9C6EFFF771B2FDF38F63ED3FD611A61B8F43DDFF64006BECD3A240
310
EFF8C86C93A65EEFF465B05806C9039E38DA1158D5CE691CE0055FBF8D5742F5071058007C198C63D2E5572AC88C3EC407264BB9EC0F0200D5C86300905E0D844952C372C0CE8B8E108017F77084FD4202F30780181AFBD96F13C0D53642E70810E090D5427B0528B1BF3D8080407FFB95D741CFA03B002E826E00227B2580
310
E6020825D1DE051241E134003809C05F6B231FE80CE07BCC3B1A80A200340F025C0108EF783700AC1A0645EDE0C30074F700D10F0915D04E009102F6F300DCC733EB9300AA13484CE9DEED2DCDB8184065026282DB0A7BEB3CE00A20ACFE50D8FECCA5C24DF336560032016BBDC590D38188E7035054FC48C4AB7FB9EEBDF0
310
056A18DC1340EA525FC16F58AE029846918D00646A5DC8090ED3C7A15546DEE0522BFCA9A5DE70F2B12420702A6C2D00B1E0E31EFC13CB63770260DE4725CDC51C305C35ABDD919200900570EBC05A13224EC61E00B295DEE5FC43DA91FD7B0C02480118F6CF058F9D3A40AD8D6B02C87C045ACDB11430A546D8A51A44AC8D
310
3BA761EF18CBC3A79337880188016058BCDC5FDD3A71566D0040F81946485B1784C10FFDD82208FA003017806C2DB0757B7753405823E2B5C26B6E02C1BEBD7392902A31EBDA3F4430AA40DF038404687700BC1332AF8D57DB2262ACACDD16C6D3BF8672A3C1A4D117C03A082CE1E00900EC0B8014002CE18901549200DE00
310
0090D619D80CC01B67B27248CD7ED00FC0DDF414B5CE504400A0D05AC9E797F20AF720D912D101A0970294ADD278AA80BD01885F2305144F051FFA80B20B884F266F06E0611850A73DC5A8A7E7C54533A16704D4996FD1228800542B87F053564D00CC35FE359F67757BF4E503FB0360FD0F63DEDB1CD0FB284003E03E0303
310
321AA600D46B0CD3D2E6E09B7EED056350CB00C88A816A6FA5F61BE3CE3801FEC30350792F35DC1E503C798A040036D1886D00901115A50F2800EC87CCEC2001DCAB5CCCB960700180754DC8488B512D19B21E0205F8570DD6FA3101F03555957A0286BEEF21D1130A0300BD64A4D13FA9F6EC39F82E103E0B066BE7034C0F
310
905AA8450071F327930DD3D222038D1925D2BB06550878E39B17F6350960F508109B2DA848C0B6DFDC2E60AEA70613FE5251E93910EA3A80B361C2F401E1FEA0280D46DD08A06F875014A0AD08829B0472AF291A029367D81D02B9A22A37F47C1200DE06004A0148AC32FC0400B0E3190120AF006715E567018423843A06BC
310
D2C53B6D06458F9B058A4401A73CCB542B57AD843575123B299C12A25018CCEC17923BA4603E4936F857F546C2F8AAA1BDA3CEFDB218E235988B64834635F8D827461701F033BE4A2551D0F20CFE28CEA340C501A42204F07BCE45724AB53C811FDCFF9407947FAE50761FB91604DC84E29D7CBCFCC19E381E6560CD099C68
310
7F3CCEBF155DF702E02BA0F1972FDC3BCC6D38DDBF9AC79A5775D0B4D380B127FFF0EF65FADDE30FBBDE7F22966E19450000000049454E44AE426082
  0
ENDSEC
  0
EOF
