  0
SECTION
  2
HEADER
  9
$ACADVER
  1
AC1032
  9
$ACADMAINTVER
 90
      197
  9
$DWGCODEPAGE
  3
ANSI_1252
  9
$LASTSAVEDBY
  1
gregb
  9
$REQUIREDVERSIONS
160
                 0
  9
$INSBASE
 10
0.0
 20
0.0
 30
0.0
  9
$EXTMIN
 10
10861.77658838602
 20
30121.50130500717
 30
0.0
  9
$EXTMAX
 10
11032.3260265357
 20
30284.74243606855
 30
0.0
  9
$LIMMIN
 10
0.0
 20
0.0
  9
$LIMMAX
 10
12.0
 20
9.0
  9
$ORTHOMODE
 70
     1
  9
$REGENMODE
 70
     1
  9
$FILLMODE
 70
     1
  9
$QTEXTMODE
 70
     0
  9
$MIRRTEXT
 70
     0
  9
$LTSCALE
 40
1.0
  9
$ATTMODE
 70
     1
  9
$TEXTSIZE
 40
0.2
  9
$TRACEWID
 40
0.05
  9
$TEXTSTYLE
  7
Standard
  9
$CLAYER
  8
freecads.com
  9
$CELTYPE
  6
ByLayer
  9
$CECOLOR
 62
   256
  9
$CELTSCALE
 40
1.0
  9
$DISPSILH
 70
     1
  9
$DIMSCALE
 40
1.0
  9
$DIMASZ
 40
0.18
  9
$DIMEXO
 40
0.0625
  9
$DIMDLI
 40
0.38
  9
$DIMRND
 40
0.0
  9
$DIMDLE
 40
0.0
  9
$DIMEXE
 40
0.18
  9
$DIMTP
 40
0.0
  9
$DIMTM
 40
0.0
  9
$DIMTXT
 40
0.18
  9
$DIMCEN
 40
0.09
  9
$DIMTSZ
 40
0.0
  9
$DIMTOL
 70
     0
  9
$DIMLIM
 70
     0
  9
$DIMTIH
 70
     1
  9
$DIMTOH
 70
     1
  9
$DIMSE1
 70
     0
  9
$DIMSE2
 70
     0
  9
$DIMTAD
 70
     0
  9
$DIMZIN
 70
     0
  9
$DIMBLK
  1

  9
$DIMASO
 70
     1
  9
$DIMSHO
 70
     1
  9
$DIMPOST
  1

  9
$DIMAPOST
  1

  9
$DIMALT
 70
     0
  9
$DIMALTD
 70
     2
  9
$DIMALTF
 40
25.4
  9
$DIMLFAC
 40
1.0
  9
$DIMTOFL
 70
     0
  9
$DIMTVP
 40
0.0
  9
$DIMTIX
 70
     0
  9
$DIMSOXD
 70
     0
  9
$DIMSAH
 70
     0
  9
$DIMBLK1
  1

  9
$DIMBLK2
  1

  9
$DIMSTYLE
  2
Standard
  9
$DIMCLRD
 70
     0
  9
$DIMCLRE
 70
     0
  9
$DIMCLRT
 70
     0
  9
$DIMTFAC
 40
1.0
  9
$DIMGAP
 40
0.09
  9
$DIMJUST
 70
     0
  9
$DIMSD1
 70
     0
  9
$DIMSD2
 70
     0
  9
$DIMTOLJ
 70
     1
  9
$DIMTZIN
 70
     0
  9
$DIMALTZ
 70
     0
  9
$DIMALTTZ
 70
     0
  9
$DIMUPT
 70
     0
  9
$DIMDEC
 70
     4
  9
$DIMTDEC
 70
     4
  9
$DIMALTU
 70
     2
  9
$DIMALTTD
 70
     2
  9
$DIMTXSTY
  7
Standard
  9
$DIMAUNIT
 70
     0
  9
$DIMADEC
 70
     0
  9
$DIMALTRND
 40
0.0
  9
$DIMAZIN
 70
     0
  9
$DIMDSEP
 70
    46
  9
$DIMATFIT
 70
     3
  9
$DIMFRAC
 70
     0
  9
$DIMLDRBLK
  1

  9
$DIMLUNIT
 70
     2
  9
$DIMLWD
 70
    -2
  9
$DIMLWE
 70
    -2
  9
$DIMTMOVE
 70
     0
  9
$DIMFXL
 40
1.0
  9
$DIMFXLON
 70
     0
  9
$DIMJOGANG
 40
0.7853981633974483
  9
$DIMTFILL
 70
     0
  9
$DIMTFILLCLR
 70
     0
  9
$DIMARCSYM
 70
     0
  9
$DIMLTYPE
  6

  9
$DIMLTEX1
  6

  9
$DIMLTEX2
  6

  9
$DIMTXTDIRECTION
 70
     0
  9
$LUNITS
 70
     2
  9
$LUPREC
 70
     4
  9
$SKETCHINC
 40
0.1
  9
$FILLETRAD
 40
0.0
  9
$AUNITS
 70
     0
  9
$AUPREC
 70
     0
  9
$MENU
  1
.
  9
$ELEVATION
 40
0.0
  9
$PELEVATION
 40
0.0
  9
$THICKNESS
 40
0.0
  9
$LIMCHECK
 70
     0
  9
$CHAMFERA
 40
0.0
  9
$CHAMFERB
 40
0.0
  9
$CHAMFERC
 40
0.0
  9
$CHAMFERD
 40
0.0
  9
$SKPOLY
 70
     0
  9
$TDCREATE
 40
2458157.371250000
  9
$TDUCREATE
 40
2458157.287916667
  9
$TDUPDATE
 40
2461016.545046297
  9
$TDUUPDATE
 40
2461016.461712963
  9
$TDINDWG
 40
0.1082060185
  9
$TDUSRTIMER
 40
0.1082060185
  9
$USRTIMER
 70
     1
  9
$ANGBASE
 50
0.0
  9
$ANGDIR
 70
     0
  9
$PDMODE
 70
     0
  9
$PDSIZE
 40
0.0
  9
$PLINEWID
 40
0.0
  9
$SPLFRAME
 70
     0
  9
$SPLINETYPE
 70
     6
  9
$SPLINESEGS
 70
     8
  9
$HANDSEED
  5
B989
  9
$SURFTAB1
 70
     6
  9
$SURFTAB2
 70
     6
  9
$SURFTYPE
 70
     6
  9
$SURFU
 70
     6
  9
$SURFV
 70
     6
  9
$UCSBASE
  2

  9
$UCSNAME
  2

  9
$UCSORG
 10
0.0
 20
0.0
 30
0.0
  9
$UCSXDIR
 10
1.0
 20
0.0
 30
0.0
  9
$UCSYDIR
 10
0.0
 20
1.0
 30
0.0
  9
$UCSORTHOREF
  2

  9
$UCSORTHOVIEW
 70
     0
  9
$UCSORGTOP
 10
0.0
 20
0.0
 30
0.0
  9
$UCSORGBOTTOM
 10
0.0
 20
0.0
 30
0.0
  9
$UCSORGLEFT
 10
0.0
 20
0.0
 30
0.0
  9
$UCSORGRIGHT
 10
0.0
 20
0.0
 30
0.0
  9
$UCSORGFRONT
 10
0.0
 20
0.0
 30
0.0
  9
$UCSORGBACK
 10
0.0
 20
0.0
 30
0.0
  9
$PUCSBASE
  2

  9
$PUCSNAME
  2

  9
$PUCSORG
 10
0.0
 20
0.0
 30
0.0
  9
$PUCSXDIR
 10
1.0
 20
0.0
 30
0.0
  9
$PUCSYDIR
 10
0.0
 20
1.0
 30
0.0
  9
$PUCSORTHOREF
  2

  9
$PUCSORTHOVIEW
 70
     0
  9
$PUCSORGTOP
 10
0.0
 20
0.0
 30
0.0
  9
$PUCSORGBOTTOM
 10
0.0
 20
0.0
 30
0.0
  9
$PUCSORGLEFT
 10
0.0
 20
0.0
 30
0.0
  9
$PUCSORGRIGHT
 10
0.0
 20
0.0
 30
0.0
  9
$PUCSORGFRONT
 10
0.0
 20
0.0
 30
0.0
  9
$PUCSORGBACK
 10
0.0
 20
0.0
 30
0.0
  9
$USERI1
 70
     0
  9
$USERI2
 70
     0
  9
$USERI3
 70
     0
  9
$USERI4
 70
     0
  9
$USERI5
 70
     0
  9
$USERR1
 40
0.0
  9
$USERR2
 40
0.0
  9
$USERR3
 40
0.0
  9
$USERR4
 40
0.0
  9
$USERR5
 40
0.0
  9
$WORLDVIEW
 70
     1
  9
$SHADEDGE
 70
     3
  9
$SHADEDIF
 70
    70
  9
$TILEMODE
 70
     1
  9
$MAXACTVP
 70
    64
  9
$PINSBASE
 10
0.0
 20
0.0
 30
0.0
  9
$PLIMCHECK
 70
     0
  9
$PEXTMIN
 10
0.0
 20
0.0
 30
0.0
  9
$PEXTMAX
 10
0.0
 20
0.0
 30
0.0
  9
$PLIMMIN
 10
0.0
 20
0.0
  9
$PLIMMAX
 10
12.0
 20
9.0
  9
$UNITMODE
 70
     0
  9
$VISRETAIN
 70
     1
  9
$PLINEGEN
 70
     0
  9
$PSLTSCALE
 70
     1
  9
$TREEDEPTH
 70
  3020
  9
$CMLSTYLE
  2
Standard
  9
$CMLJUST
 70
     0
  9
$CMLSCALE
 40
1.0
  9
$PROXYGRAPHICS
 70
     1
  9
$MEASUREMENT
 70
     0
  9
$CELWEIGHT
370
    -1
  9
$ENDCAPS
280
     0
  9
$JOINSTYLE
280
     0
  9
$LWDISPLAY
290
     0
  9
$INSUNITS
 70
     1
  9
$HYPERLINKBASE
  1

  9
$STYLESHEET
  1
monochrome.ctb
  9
$XEDIT
290
     1
  9
$CEPSNTYPE
380
     0
  9
$PSTYLEMODE
290
     1
  9
$FINGERPRINTGUID
  2
{358EB121-6EE0-9143-8A3E-6E8E8869FDA6}
  9
$VERSIONGUID
  2
{FC8DA047-76F9-7A46-8D77-F3F5F02ECF8E}
  9
$EXTNAMES
290
     1
  9
$PSVPSCALE
 40
0.0
  9
$OLESTARTUP
290
     0
  9
$SORTENTS
280
   127
  9
$INDEXCTL
280
     0
  9
$HIDETEXT
280
     1
  9
$XCLIPFRAME
280
     2
  9
$HALOGAP
280
     0
  9
$OBSCOLOR
 70
   257
  9
$OBSLTYPE
280
     0
  9
$INTERSECTIONDISPLAY
280
     0
  9
$INTERSECTIONCOLOR
 70
   257
  9
$DIMASSOC
280
     2
  9
$PROJECTNAME
  1

  9
$CAMERADISPLAY
290
     0
  9
$LENSLENGTH
 40
50.0
  9
$CAMERAHEIGHT
 40
0.0
  9
$STEPSPERSEC
 40
2.0
  9
$STEPSIZE
 40
6.0
  9
$3DDWFPREC
 40
2.0
  9
$PSOLWIDTH
 40
0.25
  9
$PSOLHEIGHT
 40
4.0
  9
$LOFTANG1
 40
1.570796326794896
  9
$LOFTANG2
 40
1.570796326794896
  9
$LOFTMAG1
 40
0.0
  9
$LOFTMAG2
 40
0.0
  9
$LOFTPARAM
 70
     7
  9
$LOFTNORMALS
280
     1
  9
$LATITUDE
 40
37.795
  9
$LONGITUDE
 40
-122.394
  9
$NORTHDIRECTION
 40
0.0
  9
$TIMEZONE
 70
 -8000
  9
$LIGHTGLYPHDISPLAY
280
     1
  9
$TILEMODELIGHTSYNCH
280
     1
  9
$CMATERIAL
347
96
  9
$SOLIDHIST
280
     0
  9
$SHOWHIST
280
     1
  9
$DWFFRAME
280
     2
  9
$DGNFRAME
280
     0
  9
$REALWORLDSCALE
290
     1
  9
$INTERFERECOLOR
 62
     1
  9
$INTERFEREOBJVS
345
A3
  9
$INTERFEREVPVS
346
A0
  9
$CSHADOW
280
     0
  9
$SHADOWPLANELOCATION
 40
0.0
  0
ENDSEC
  0
SECTION
  2
CLASSES
  0
CLASS
  1
ACDBDICTIONARYWDFLT
  2
AcDbDictionaryWithDefault
  3
ObjectDBX Classes
 90
        0
 91
        1
280
     0
281
     0
  0
CLASS
  1
DICTIONARYVAR
  2
AcDbDictionaryVar
  3
ObjectDBX Classes
 90
        0
 91
        9
280
     0
281
     0
  0
CLASS
  1
TABLESTYLE
  2
AcDbTableStyle
  3
ObjectDBX Classes
 90
     4095
 91
        1
280
     0
281
     0
  0
CLASS
  1
MATERIAL
  2
AcDbMaterial
  3
ObjectDBX Classes
 90
     1153
 91
        3
280
     0
281
     0
  0
CLASS
  1
VISUALSTYLE
  2
AcDbVisualStyle
  3
ObjectDBX Classes
 90
     4095
 91
       25
280
     0
281
     0
  0
CLASS
  1
SCALE
  2
AcDbScale
  3
ObjectDBX Classes
 90
     1153
 91
       35
280
     0
281
     0
  0
CLASS
  1
MLEADERSTYLE
  2
AcDbMLeaderStyle
  3
ACDB_MLEADERSTYLE_CLASS
 90
     4095
 91
        1
280
     0
281
     0
  0
CLASS
  1
CELLSTYLEMAP
  2
AcDbCellStyleMap
  3
ObjectDBX Classes
 90
     1152
 91
        1
280
     0
281
     0
  0
CLASS
  1
EXACXREFPANELOBJECT
  2
ExAcXREFPanelObject
  3
EXAC_ESW
 90
     1025
 91
        0
280
     0
281
     0
  0
CLASS
  1
NPOCOLLECTION
  2
AcDbImpNonPersistentObjectsCollection
  3
ObjectDBX Classes
 90
     1153
 91
        0
280
     0
281
     0
  0
CLASS
  1
LAYER_INDEX
  2
AcDbLayerIndex
  3
ObjectDBX Classes
 90
        0
 91
        0
280
     0
281
     0
  0
CLASS
  1
SPATIAL_INDEX
  2
AcDbSpatialIndex
  3
ObjectDBX Classes
 90
        0
 91
        0
280
     0
281
     0
  0
CLASS
  1
IDBUFFER
  2
AcDbIdBuffer
  3
ObjectDBX Classes
 90
        0
 91
        0
280
     0
281
     0
  0
CLASS
  1
ACDBSECTIONVIEWSTYLE
  2
AcDbSectionViewStyle
  3
ObjectDBX Classes
 90
     1025
 91
        2
280
     0
281
     0
  0
CLASS
  1
ACDBDETAILVIEWSTYLE
  2
AcDbDetailViewStyle
  3
ObjectDBX Classes
 90
     1025
 91
        2
280
     0
281
     0
  0
CLASS
  1
SORTENTSTABLE
  2
AcDbSortentsTable
  3
ObjectDBX Classes
 90
        0
 91
        1
280
     0
281
     0
  0
CLASS
  1
SPATIAL_FILTER
  2
AcDbSpatialFilter
  3
ObjectDBX Classes
 90
        0
 91
        0
280
     0
281
     0
  0
CLASS
  1
SOLID_BACKGROUND
  2
AcDbSolidBackground
  3
SCENEOE
 90
     4095
 91
        0
280
     0
281
     0
  0
ENDSEC
  0
SECTION
  2
TABLES
  0
TABLE
  2
VPORT
  5
8
330
0
100
AcDbSymbolTable
 70
     1
  0
VPORT
  5
94
330
8
100
AcDbSymbolTableRecord
100
AcDbViewportTableRecord
  2
*Active
 70
     0
 10
0.0
 20
0.0
 11
1.0
 21
1.0
 12
10946.9285863349
 22
30215.92290939581
 13
0.0
 23
0.0
 14
0.5
 24
0.5
 15
0.5
 25
0.5
 16
0.0
 26
0.0
 36
1.0
 17
0.0
 27
0.0
 37
0.0
 40
185.7425392719941
 41
2.066284779050736
 42
50.0
 43
0.0
 44
0.0
 50
0.0
 51
0.0
 71
     0
 72
  1000
 73
     1
 74
     3
 75
     0
 76
     0
 77
     0
 78
     0
281
     0
 65
     1
110
0.0
120
0.0
130
0.0
111
1.0
121
0.0
131
0.0
112
0.0
122
1.0
132
0.0
 79
     0
146
0.0
348
9F
 60
     3
 61
     5
292
     1
282
     1
141
0.0
142
0.0
 63
   250
421
  3355443
1001
ACAD_NAV_VCDISPLAY
1070
     3
  0
ENDTAB
  0
TABLE
  2
LTYPE
  5
5
330
0
100
AcDbSymbolTable
 70
     1
  0
LTYPE
  5
14
330
5
100
AcDbSymbolTableRecord
100
AcDbLinetypeTableRecord
  2
ByBlock
 70
     0
  3

 72
    65
 73
     0
 40
0.0
  0
LTYPE
  5
15
330
5
100
AcDbSymbolTableRecord
100
AcDbLinetypeTableRecord
  2
ByLayer
 70
     0
  3

 72
    65
 73
     0
 40
0.0
  0
LTYPE
  5
16
330
5
100
AcDbSymbolTableRecord
100
AcDbLinetypeTableRecord
  2
Continuous
 70
     0
  3
Solid line
 72
    65
 73
     0
 40
0.0
  0
ENDTAB
  0
TABLE
  2
LAYER
  5
2
102
{ACAD_XDICTIONARY
360
18E
102
}
330
0
100
AcDbSymbolTable
 70
     2
  0
LAYER
  5
10
102
{ACAD_XDICTIONARY
360
E6
102
}
330
2
100
AcDbSymbolTableRecord
100
AcDbLayerTableRecord
  2
0
 70
     0
 62
     7
  6
Continuous
370
    -3
390
F
347
98
348
0
  0
LAYER
  5
204
330
2
100
AcDbSymbolTableRecord
100
AcDbLayerTableRecord
  2
freecads.com
 70
     0
 62
     7
  6
Continuous
370
    -3
390
F
347
98
348
0
1001
AcAecLayerStandard
1000

1000

1001
AcCmTransparency
1071
        0
  0
ENDTAB
  0
TABLE
  2
STYLE
  5
3
330
0
100
AcDbSymbolTable
 70
     1
  0
STYLE
  5
11
330
3
100
AcDbSymbolTableRecord
100
AcDbTextStyleTableRecord
  2
Standard
 70
     0
 40
0.0
 41
1.0
 50
0.0
 71
     0
 42
0.2
  3
arial.ttf
  4

1001
ACAD
1000
Arial
1071
       34
  0
ENDTAB
  0
TABLE
  2
VIEW
  5
6
330
0
100
AcDbSymbolTable
 70
     0
  0
ENDTAB
  0
TABLE
  2
UCS
  5
7
330
0
100
AcDbSymbolTable
 70
     0
  0
ENDTAB
  0
TABLE
  2
APPID
  5
9
330
0
100
AcDbSymbolTable
 70
    23
  0
APPID
  5
12
330
9
100
AcDbSymbolTableRecord
100
AcDbRegAppTableRecord
  2
ACAD
 70
     0
  0
APPID
  5
DD
330
9
100
AcDbSymbolTableRecord
100
AcDbRegAppTableRecord
  2
AcadAnnoPO
 70
     0
  0
APPID
  5
DE
330
9
100
AcDbSymbolTableRecord
100
AcDbRegAppTableRecord
  2
AcadAnnotative
 70
     0
  0
APPID
  5
DF
330
9
100
AcDbSymbolTableRecord
100
AcDbRegAppTableRecord
  2
ACAD_DSTYLE_DIMJAG
 70
     0
  0
APPID
  5
E0
330
9
100
AcDbSymbolTableRecord
100
AcDbRegAppTableRecord
  2
ACAD_DSTYLE_DIMTALN
 70
     0
  0
APPID
  5
107
330
9
100
AcDbSymbolTableRecord
100
AcDbRegAppTableRecord
  2
ACAD_MLEADERVER
 70
     0
  0
APPID
  5
1A6
330
9
100
AcDbSymbolTableRecord
100
AcDbRegAppTableRecord
  2
ACAD_NAV_VCDISPLAY
 70
     0
  0
APPID
  5
205
330
9
100
AcDbSymbolTableRecord
100
AcDbRegAppTableRecord
  2
AcAecLayerStandard
 70
     0
  0
APPID
  5
206
330
9
100
AcDbSymbolTableRecord
100
AcDbRegAppTableRecord
  2
AcCmTransparency
 70
     0
  0
APPID
  5
222
330
9
100
AcDbSymbolTableRecord
100
AcDbRegAppTableRecord
  2
ACAD_PSEXT
 70
     0
  0
APPID
  5
2DA
330
9
100
AcDbSymbolTableRecord
100
AcDbRegAppTableRecord
  2
GradientColor1ACI
 70
     0
  0
APPID
  5
2DB
330
9
100
AcDbSymbolTableRecord
100
AcDbRegAppTableRecord
  2
GradientColor2ACI
 70
     0
  0
APPID
  5
2F3
330
9
100
AcDbSymbolTableRecord
100
AcDbRegAppTableRecord
  2
ACAD_EXEMPT_FROM_CAD_STANDARDS
 70
     0
  0
APPID
  5
A1A
330
9
100
AcDbSymbolTableRecord
100
AcDbRegAppTableRecord
  2
AcDbBlockRepETag
 70
     0
  0
APPID
  5
228C
330
9
100
AcDbSymbolTableRecord
100
AcDbRegAppTableRecord
  2
RAK
 70
     0
  0
APPID
  5
2683
330
9
100
AcDbSymbolTableRecord
100
AcDbRegAppTableRecord
  2
ACAD_DSTYLE_DIMJOGGED_JOGANGLE_SYMBOL
 70
     0
  0
APPID
  5
47CF
330
9
100
AcDbSymbolTableRecord
100
AcDbRegAppTableRecord
  2
ACAD_DSTYLE_DIMBREAK
 70
     0
  0
APPID
  5
47D0
330
9
100
AcDbSymbolTableRecord
100
AcDbRegAppTableRecord
  2
AcDbDynamicBlockGUID
 70
     0
  0
APPID
  5
8BD5
330
9
100
AcDbSymbolTableRecord
100
AcDbRegAppTableRecord
  2
AcLayerTools
 70
     0
  0
APPID
  5
92D9
330
9
100
AcDbSymbolTableRecord
100
AcDbRegAppTableRecord
  2
AutoGrph01
 70
     0
  0
APPID
  5
92DA
330
9
100
AcDbSymbolTableRecord
100
AcDbRegAppTableRecord
  2
AutoGrphVars
 70
     0
  0
APPID
  5
92DB
330
9
100
AcDbSymbolTableRecord
100
AcDbRegAppTableRecord
  2
AutoGrphZ
 70
     0
  0
APPID
  5
92DC
330
9
100
AcDbSymbolTableRecord
100
AcDbRegAppTableRecord
  2
AutoGrph05
 70
     0
  0
ENDTAB
  0
TABLE
  2
DIMSTYLE
  5
A
330
0
100
AcDbSymbolTable
 70
     1
100
AcDbDimStyleTable
 71
     1
340
27
  0
DIMSTYLE
105
27
330
A
100
AcDbSymbolTableRecord
100
AcDbDimStyleTableRecord
  2
Standard
 70
     0
340
11
  0
ENDTAB
  0
TABLE
  2
BLOCK_RECORD
  5
1
330
0
100
AcDbSymbolTable
 70
     1
  0
BLOCK_RECORD
  5
1F
102
{ACAD_XDICTIONARY
360
15D
102
}
330
1
100
AcDbSymbolTableRecord
100
AcDbBlockTableRecord
  2
*Model_Space
340
22
 70
     0
280
     1
281
     0
  0
BLOCK_RECORD
  5
58
330
1
100
AcDbSymbolTableRecord
100
AcDbBlockTableRecord
  2
*Paper_Space
340
59
 70
     0
280
     1
281
     0
  0
BLOCK_RECORD
  5
5D
330
1
100
AcDbSymbolTableRecord
100
AcDbBlockTableRecord
  2
*Paper_Space0
340
5E
 70
     0
280
     1
281
     0
  0
ENDTAB
  0
ENDSEC
  0
SECTION
  2
BLOCKS
  0
BLOCK
  5
20
330
1F
100
AcDbEntity
  8
0
100
AcDbBlockBegin
  2
*Model_Space
 70
     0
 10
0.0
 20
0.0
 30
0.0
  3
*Model_Space
  1

  0
ENDBLK
  5
21
330
1F
100
AcDbEntity
  8
0
100
AcDbBlockEnd
  0
BLOCK
  5
5A
330
58
100
AcDbEntity
 67
     1
  8
0
100
AcDbBlockBegin
  2
*Paper_Space
 70
     0
 10
0.0
 20
0.0
 30
0.0
  3
*Paper_Space
  1

  0
ENDBLK
  5
5B
330
58
100
AcDbEntity
 67
     1
  8
0
100
AcDbBlockEnd
  0
BLOCK
  5
5F
330
5D
100
AcDbEntity
 67
     1
  8
0
100
AcDbBlockBegin
  2
*Paper_Space0
 70
     0
 10
0.0
 20
0.0
 30
0.0
  3
*Paper_Space0
  1

  0
ENDBLK
  5
60
330
5D
100
AcDbEntity
 67
     1
  8
0
100
AcDbBlockEnd
  0
ENDSEC
  0
SECTION
  2
ENTITIES
  0
ARC
  5
B6F9
330
1F
100
AcDbEntity
  8
freecads.com
100
AcDbCircle
 10
10972.34052951513
 20
30273.3459911853
 30
0.0
 40
12.99036186278979
100
AcDbArc
 50
134.9999759315936
 51
148.4289260765146
  0
ARC
  5
B6FA
330
1F
100
AcDbEntity
  8
freecads.com
100
AcDbCircle
 10
10970.20100261689
 20
30274.66074863686
 30
0.0
 40
10.47915448291909
100
AcDbArc
 50
148.4289271123871
 51
164.2047639766939
  0
ARC
  5
B6FB
330
1F
100
AcDbEntity
  8
freecads.com
100
AcDbCircle
 10
10968.49810970196
 20
30275.14245988023
 30
0.0
 40
8.709439816188652
100
AcDbArc
 50
164.2047262754554
 51
181.6149724403762
  0
ARC
  5
B6FC
330
1F
100
AcDbEntity
  8
freecads.com
100
AcDbCircle
 10
10965.84520932088
 20
30275.06765729687
 30
0.0
 40
6.055485058021456
100
AcDbArc
 50
181.614910315963
 51
204.4752089301503
  0
ARC
  5
B6FD
330
1F
100
AcDbEntity
  8
freecads.com
100
AcDbCircle
 10
11448.73235848331
 20
30494.87935991756
 30
0.0
 40
536.6185665433716
100
AcDbArc
 50
204.4751732307303
 51
204.997022288638
  0
ARC
  5
B6FE
330
1F
100
AcDbEntity
  8
freecads.com
100
AcDbCircle
 10
11063.75720643547
 20
30315.38680712329
 30
0.0
 40
111.8557571981414
100
AcDbArc
 50
204.99699973417
 51
206.6665692142115
  0
ARC
  5
B6FF
330
1F
100
AcDbEntity
  8
freecads.com
100
AcDbCircle
 10
11012.51724807697
 20
30289.65323935544
 30
0.0
 40
54.51685380225477
100
AcDbArc
 50
206.6665667651025
 51
209.088712954942
  0
ARC
  5
B700
330
1F
100
AcDbEntity
  8
freecads.com
100
AcDbCircle
 10
10976.82563773148
 20
30269.79673988951
 30
0.0
 40
13.67359707492312
100
AcDbArc
 50
209.0886679225555
 51
215.8599748114996
  0
ARC
  5
B701
330
1F
100
AcDbEntity
  8
freecads.com
100
AcDbCircle
 10
10964.02553750899
 20
30260.54463507235
 30
0.0
 40
2.120199468451333
100
AcDbArc
 50
7.02234325785248
 51
35.85992947099393
  0
ARC
  5
B702
330
1F
100
AcDbEntity
  8
freecads.com
100
AcDbCircle
 10
10964.47079540346
 20
30260.59948406558
 30
0.0
 40
1.671576013147603
100
AcDbArc
 50
332.5653195644901
 51
7.02227733795896
  0
ARC
  5
B703
330
1F
100
AcDbEntity
  8
freecads.com
100
AcDbCircle
 10
10961.46296245963
 20
30262.16091621089
 30
0.0
 40
5.060547739558867
100
AcDbArc
 50
315.6518042980603
 51
332.5652277995827
  0
ARC
  5
B704
330
1F
100
AcDbEntity
  8
freecads.com
100
AcDbCircle
 10
10929.38409090244
 20
30293.51819611617
 30
0.0
 40
49.91958254237506
100
AcDbArc
 50
312.5031764473572
 51
315.6517252093318
  0
ARC
  5
B705
330
1F
100
AcDbEntity
  8
freecads.com
100
AcDbCircle
 10
10983.59214782067
 20
30234.36706424747
 30
0.0
 40
30.31363898211505
100
AcDbArc
 50
132.5031732184413
 51
138.5973198796246
  0
ARC
  5
B706
330
1F
100
AcDbEntity
  8
freecads.com
100
AcDbCircle
 10
10965.20112176319
 20
30250.58246541935
 30
0.0
 40
5.79488953171179
100
AcDbArc
 50
138.5973323229996
 51
159.3591158695117
  0
ARC
  5
B707
330
1F
100
AcDbEntity
  8
freecads.com
100
AcDbCircle
 10
10968.53040026066
 20
30249.32835692427
 30
0.0
 40
9.352540924287936
100
AcDbArc
 50
159.359098874998
 51
174.2238920063578
  0
ARC
  5
B708
330
1F
100
AcDbEntity
  8
freecads.com
100
AcDbCircle
 10
11092.65023028766
 20
30236.77308636885
 30
0.0
 40
134.1057654303212
100
AcDbArc
 50
174.2239230214095
 51
176.3481605097885
  0
ARC
  5
B709
330
1F
100
AcDbEntity
  8
freecads.com
100
AcDbCircle
 10
10902.46797360477
 20
30248.91102499613
 30
0.0
 40
56.46343541581053
100
AcDbArc
 50
351.5372456298404
 51
356.348238397398
  0
ARC
  5
B70A
330
1F
100
AcDbEntity
  8
freecads.com
100
AcDbCircle
 10
10933.9511272898
 20
30244.22673303348
 30
0.0
 40
24.6337078463521
100
AcDbArc
 50
342.5943047793694
 51
351.5373010991752
  0
ARC
  5
B70B
330
1F
100
AcDbEntity
  8
freecads.com
100
AcDbCircle
 10
10942.15757383441
 20
30241.65406578331
 30
0.0
 40
16.03345310194865
100
AcDbArc
 50
331.3669968726633
 51
342.5943966091564
  0
ARC
  5
B70C
330
1F
100
AcDbEntity
  8
freecads.com
100
AcDbCircle
 10
10949.03177441015
 20
30237.90099052225
 30
0.0
 40
8.201454157194559
100
AcDbArc
 50
312.8265347614538
 51
331.3670038896209
  0
ARC
  5
B70D
330
1F
100
AcDbEntity
  8
freecads.com
100
AcDbCircle
 10
10955.67370509955
 20
30230.73502203566
 30
0.0
 40
1.569234029084762
100
AcDbArc
 50
132.8266420778015
 51
151.8328803851665
  0
ARC
  5
B70E
330
1F
100
AcDbEntity
  8
freecads.com
100
AcDbCircle
 10
11138.83733490889
 20
30132.6586778126
 30
0.0
 40
209.3380588828086
100
AcDbArc
 50
151.8328421055073
 51
152.4193204245724
  0
ARC
  5
B70F
330
1F
100
AcDbEntity
  8
freecads.com
100
AcDbCircle
 10
11066.38518267337
 20
30170.50441831451
 30
0.0
 40
127.5969160131934
100
AcDbArc
 50
152.4192303243473
 51
153.5566568003414
  0
ARC
  5
B710
330
1F
100
AcDbEntity
  8
freecads.com
100
AcDbCircle
 10
11140.92050665102
 20
30133.43407278269
 30
0.0
 40
210.8418860608146
100
AcDbArc
 50
153.5565633084972
 51
154.3373871704817
  0
ARC
  5
B711
330
1F
100
AcDbEntity
  8
freecads.com
100
AcDbCircle
 10
10905.92205817227
 20
30246.34242062448
 30
0.0
 40
49.87360216301383
100
AcDbArc
 50
330.2253319392116
 51
334.3373525081687
  0
ARC
  5
B712
330
1F
100
AcDbEntity
  8
freecads.com
100
AcDbCircle
 10
10930.01853151346
 20
30232.55639159628
 30
0.0
 40
22.1122148805063
100
AcDbArc
 50
322.6725717840956
 51
330.2253162638069
  0
ARC
  5
B713
330
1F
100
AcDbEntity
  8
freecads.com
100
AcDbCircle
 10
10935.22627216499
 20
30228.58520988755
 30
0.0
 40
15.5631044938016
100
AcDbArc
 50
313.5261641953579
 51
322.6725871304365
  0
ARC
  5
B714
330
1F
100
AcDbEntity
  8
freecads.com
100
AcDbCircle
 10
10938.32200896286
 20
30225.32595107228
 30
0.0
 40
11.06795662676594
100
AcDbArc
 50
301.7174762454522
 51
313.5262175238602
  0
ARC
  5
B715
330
1F
100
AcDbEntity
  8
freecads.com
100
AcDbCircle
 10
10950.49607615579
 20
30205.62790724024
 30
0.0
 40
12.08848616627024
100
AcDbArc
 50
121.717499313522
 51
129.9020434554041
  0
ARC
  5
B716
330
1F
100
AcDbEntity
  8
freecads.com
100
AcDbCircle
 10
10951.2180347334
 20
30204.76452748411
 30
0.0
 40
13.21394109252259
100
AcDbArc
 50
129.9020724890438
 51
137.5580648007356
  0
ARC
  5
B717
330
1F
100
AcDbEntity
  8
freecads.com
100
AcDbCircle
 10
10949.77050678392
 20
30206.08826217042
 30
0.0
 40
11.25240835405617
100
AcDbArc
 50
137.5581245602096
 51
145.6140294180739
  0
ARC
  5
B718
330
1F
100
AcDbEntity
  8
freecads.com
100
AcDbCircle
 10
10943.16843467724
 20
30210.60642170924
 30
0.0
 40
3.252338246852632
100
AcDbArc
 50
145.6140368484451
 51
165.9106642668606
  0
ARC
  5
B719
330
1F
100
AcDbEntity
  8
freecads.com
100
AcDbCircle
 10
10934.52304747799
 20
30212.77628177998
 30
0.0
 40
5.661191500195336
100
AcDbArc
 50
324.6286872250232
 51
345.9106693276796
  0
ARC
  5
B71A
330
1F
100
AcDbEntity
  8
freecads.com
100
AcDbCircle
 10
10913.48609787924
 20
30227.71062822469
 30
0.0
 40
31.46018280123492
100
AcDbArc
 50
318.6494937855467
 51
324.6286703259875
  0
ARC
  5
B71B
330
1F
100
AcDbEntity
  8
freecads.com
100
AcDbCircle
 10
10920.96361314336
 20
30221.12974438012
 30
0.0
 40
21.49919556604359
100
AcDbArc
 50
311.3498076937994
 51
318.6495706613664
  0
ARC
  5
B71C
330
1F
100
AcDbEntity
  8
freecads.com
100
AcDbCircle
 10
10934.94161209792
 20
30205.24678960123
 30
0.0
 40
0.341390687418692
100
AcDbArc
 50
179.999931871531
 51
311.3498119764233
  0
ARC
  5
B71D
330
1F
100
AcDbEntity
  8
freecads.com
100
AcDbCircle
 10
10934.4132996251
 20
30205.24679033679
 30
0.0
 40
0.1869217854019276
100
AcDbArc
 50
359.9998989656023
 51
81.71007766206786
  0
ARC
  5
B71E
330
1F
100
AcDbEntity
  8
freecads.com
100
AcDbCircle
 10
10934.24605027617
 20
30204.0989092188
 30
0.0
 40
1.346923253395301
100
AcDbArc
 50
81.71017050749965
 51
100.9612959041742
  0
ARC
  5
B71F
330
1F
100
AcDbEntity
  8
freecads.com
100
AcDbCircle
 10
10934.65872796335
 20
30201.96816260264
 30
0.0
 40
3.517265165579343
100
AcDbArc
 50
100.9612325454671
 51
112.3726749969121
  0
ARC
  5
B720
330
1F
100
AcDbEntity
  8
freecads.com
100
AcDbCircle
 10
10936.64652480921
 20
30197.13891084494
 30
0.0
 40
8.739621802148652
100
AcDbArc
 50
112.3727766476857
 51
118.1549854598786
  0
ARC
  5
B721
330
1F
100
AcDbEntity
  8
freecads.com
100
AcDbCircle
 10
10934.41737243969
 20
30201.30411899599
 30
0.0
 40
4.015420364009856
100
AcDbArc
 50
118.1550003216822
 51
131.5275355569685
  0
ARC
  5
B722
330
1F
100
AcDbEntity
  8
freecads.com
100
AcDbCircle
 10
10933.69554594223
 20
30202.11920060288
 30
0.0
 40
2.926663495696688
100
AcDbArc
 50
131.5274684149825
 51
148.4775893699913
  0
ARC
  5
B723
330
1F
100
AcDbEntity
  8
freecads.com
100
AcDbCircle
 10
10933.00756055298
 20
30202.54116823717
 30
0.0
 40
2.119581975512192
100
AcDbArc
 50
148.4775756742797
 51
168.6448115238354
  0
ARC
  5
B724
330
1F
100
AcDbEntity
  8
freecads.com
100
AcDbCircle
 10
10932.03440368088
 20
30202.73659936683
 30
0.0
 40
1.126995644677843
100
AcDbArc
 50
168.6448224124697
 51
200.9935874289828
  0
ARC
  5
B725
330
1F
100
AcDbEntity
  8
freecads.com
100
AcDbCircle
 10
10929.27607521641
 20
30201.67813050088
 30
0.0
 40
1.827447155254951
100
AcDbArc
 50
328.9705642654845
 51
20.99358623697599
  0
ARC
  5
B726
330
1F
100
AcDbEntity
  8
freecads.com
100
AcDbCircle
 10
10868.5458587001
 20
30238.21099955255
 30
0.0
 40
72.69923081606513
100
AcDbArc
 50
325.3064703388365
 51
328.9705669947933
  0
ARC
  5
B727
330
1F
100
AcDbEntity
  8
freecads.com
100
AcDbCircle
 10
10878.35744080405
 20
30231.41876978123
 30
0.0
 40
60.76601965356236
100
AcDbArc
 50
320.255181487982
 51
325.3064760431211
  0
ARC
  5
B728
330
1F
100
AcDbEntity
  8
freecads.com
100
AcDbCircle
 10
10880.01624236583
 20
30230.03939103761
 30
0.0
 40
58.60863504727567
100
AcDbArc
 50
315.0650876810891
 51
320.2551978786163
  0
ARC
  5
B729
330
1F
100
AcDbEntity
  8
freecads.com
100
AcDbCircle
 10
10908.94083250226
 20
30201.18045714347
 30
0.0
 40
17.74948698877168
100
AcDbArc
 50
308.298556439565
 51
315.0650546801688
  0
ARC
  5
B72A
330
1F
100
AcDbEntity
  8
freecads.com
100
AcDbCircle
 10
10917.13517901223
 20
30190.80409164705
 30
0.0
 40
4.527676385068132
100
AcDbArc
 50
289.6149951439333
 51
308.2984441429322
  0
ARC
  5
B72B
330
1F
100
AcDbEntity
  8
freecads.com
100
AcDbCircle
 10
10917.3271515158
 20
30190.26542256447
 30
0.0
 40
3.955821663444531
100
AcDbArc
 50
269.2542151843337
 51
289.6149650804505
  0
ARC
  5
B72C
330
1F
100
AcDbEntity
  8
freecads.com
100
AcDbCircle
 10
10917.4274005734
 20
30197.96496990715
 30
0.0
 40
11.65602160600691
100
AcDbArc
 50
260.1587061078104
 51
269.2541021116507
  0
ARC
  5
B72D
330
1F
100
AcDbEntity
  8
freecads.com
100
AcDbCircle
 10
10937.24992766909
 20
30312.23366446921
 30
0.0
 40
127.6313083587357
100
AcDbArc
 50
258.448770069237
 51
260.1586735853249
  0
ARC
  5
B72E
330
1F
100
AcDbEntity
  8
freecads.com
100
AcDbCircle
 10
10912.31668791386
 20
30190.2412904301
 30
0.0
 40
3.117028983272466
100
AcDbArc
 50
233.6572858226866
 51
258.4487317851394
  0
ARC
  5
B72F
330
1F
100
AcDbEntity
  8
freecads.com
100
AcDbCircle
 10
10910.99552709204
 20
30188.44555235269
 30
0.0
 40
0.8876476431362661
100
AcDbArc
 50
172.6327034785975
 51
233.6571731097897
  0
ARC
  5
B730
330
1F
100
AcDbEntity
  8
freecads.com
100
AcDbCircle
 10
10916.53202342448
 20
30187.72969510838
 30
0.0
 40
6.470231563992869
100
AcDbArc
 50
158.4889583405137
 51
172.6326584635376
  0
ARC
  5
B731
330
1F
100
AcDbEntity
  8
freecads.com
100
AcDbCircle
 10
10902.76679821173
 20
30193.15503517659
 30
0.0
 40
8.325569867949351
100
AcDbArc
 50
338.4889002762003
 51
348.6506324988709
  0
ARC
  5
B732
330
1F
100
AcDbEntity
  8
freecads.com
100
AcDbCircle
 10
10781.89537693561
 20
30217.41602378356
 30
0.0
 40
131.6077504517461
100
AcDbArc
 50
348.650558897631
 51
350.0066195817293
  0
ARC
  5
B733
330
1F
100
AcDbEntity
  8
freecads.com
100
AcDbCircle
 10
10777.62699437305
 20
30218.16833581467
 30
0.0
 40
135.9419243129093
100
AcDbArc
 50
350.0065409309618
 51
351.5670246659963
  0
ARC
  5
B734
330
1F
100
AcDbEntity
  8
freecads.com
100
AcDbCircle
 10
10740.60604408716
 20
30223.65708138333
 30
0.0
 40
173.3675450553808
100
AcDbArc
 50
351.5669611799054
 51
352.8673322370729
  0
ARC
  5
B735
330
1F
100
AcDbEntity
  8
freecads.com
100
AcDbCircle
 10
10777.12697892047
 20
30219.08711693667
 30
0.0
 40
136.5617947420288
100
AcDbArc
 50
352.8672881966289
 51
356.6535071819564
  0
ARC
  5
B736
330
1F
100
AcDbEntity
  8
freecads.com
100
AcDbCircle
 10
10908.76066224305
 20
30211.38999680778
 30
0.0
 40
4.703263568097958
100
AcDbArc
 50
356.653446758225
 51
39.95003074342078
  0
ARC
  5
B737
330
1F
100
AcDbEntity
  8
freecads.com
100
AcDbCircle
 10
10909.14772310954
 20
30211.71421413355
 30
0.0
 40
4.198354676672721
100
AcDbArc
 50
39.94993116316015
 51
87.04278179609731
  0
ARC
  5
B738
330
1F
100
AcDbEntity
  8
freecads.com
100
AcDbCircle
 10
10903.97924916524
 20
30111.66549955733
 30
0.0
 40
104.3804808832315
100
AcDbArc
 50
87.04275441302312
 51
91.62924213692333
  0
ARC
  5
B739
330
1F
100
AcDbEntity
  8
freecads.com
100
AcDbCircle
 10
10903.73250084096
 20
30120.34363406591
 30
0.0
 40
95.69883914468505
100
AcDbArc
 50
91.62929391246045
 51
95.81600368942487
  0
ARC
  5
B73A
330
1F
100
AcDbEntity
  8
freecads.com
100
AcDbCircle
 10
10895.84325047589
 20
30197.79685610162
 30
0.0
 40
17.84486124353233
100
AcDbArc
 50
95.81606396677775
 51
110.3394066834778
  0
ARC
  5
B73B
330
1F
100
AcDbEntity
  8
freecads.com
100
AcDbCircle
 10
10894.85584159527
 20
30200.46055790619
 30
0.0
 40
15.00403678553939
100
AcDbArc
 50
110.3394338339078
 51
126.6062943400365
  0
ARC
  5
B73C
330
1F
100
AcDbEntity
  8
freecads.com
100
AcDbCircle
 10
10918.7663702255
 20
30168.27245102659
 30
0.0
 40
55.10126367055982
100
AcDbArc
 50
126.6063310109617
 51
132.7861307112566
  0
ARC
  5
B73D
330
1F
100
AcDbEntity
  8
freecads.com
100
AcDbCircle
 10
9955.45691484466
 20
31209.05428785395
 30
0.0
 40
1363.063726271028
100
AcDbArc
 50
312.7076064561379
 51
312.7862162625885
  0
ARC
  5
B73E
330
1F
100
AcDbEntity
  8
freecads.com
100
AcDbCircle
 10
9739.324759760924
 20
31443.20779170176
 30
0.0
 40
1681.71866789047
100
AcDbArc
 50
312.6405548959828
 51
312.7077055475711
  0
ARC
  5
B73F
330
1F
100
AcDbEntity
  8
freecads.com
100
AcDbCircle
 10
9849.744365475174
 20
31323.29553390038
 30
0.0
 40
1518.711186790866
100
AcDbArc
 50
312.5730045436188
 51
312.640613561511
  0
ARC
  5
B740
330
1F
100
AcDbEntity
  8
freecads.com
100
AcDbCircle
 10
10626.01683234235
 20
30478.30704419327
 30
0.0
 40
371.2773148167531
100
AcDbArc
 50
312.3804718203308
 51
312.5729855941691
  0
ARC
  5
B741
330
1F
100
AcDbEntity
  8
freecads.com
100
AcDbCircle
 10
10879.75616772627
 20
30200.23673420932
 30
0.0
 40
5.162252199843802
100
AcDbArc
 50
132.3804239459594
 51
144.8135434075283
  0
ARC
  5
B742
330
1F
100
AcDbEntity
  8
freecads.com
100
AcDbCircle
 10
10884.58910948995
 20
30196.82917966874
 30
0.0
 40
11.07569062753698
100
AcDbArc
 50
144.8135444679711
 51
151.8387852121863
  0
ARC
  5
B743
330
1F
100
AcDbEntity
  8
freecads.com
100
AcDbCircle
 10
10884.99794675801
 20
30196.61031435057
 30
0.0
 40
11.53942540004588
100
AcDbArc
 50
151.8387637997695
 51
158.7719583446316
  0
ARC
  5
B744
330
1F
100
AcDbEntity
  8
freecads.com
100
AcDbCircle
 10
10880.9347650273
 20
30198.18860029948
 30
0.0
 40
7.180476867061789
100
AcDbArc
 50
158.7719093166137
 51
168.6637227939477
  0
ARC
  5
B745
330
1F
100
AcDbEntity
  8
freecads.com
100
AcDbCircle
 10
10867.99942203868
 20
30200.78185066427
 30
0.0
 40
6.01225013260597
100
AcDbArc
 50
336.9704561988228
 51
348.6637640092999
  0
ARC
  5
B746
330
1F
100
AcDbEntity
  8
freecads.com
100
AcDbCircle
 10
10865.0606596601
 20
30202.03108362192
 30
0.0
 40
9.205509799490076
100
AcDbArc
 50
328.472498045286
 51
336.9703784067242
  0
ARC
  5
B747
330
1F
100
AcDbEntity
  8
freecads.com
100
AcDbCircle
 10
10865.42240675641
 20
30201.8091565882
 30
0.0
 40
8.781113086583985
100
AcDbArc
 50
319.8270525059411
 51
328.4725492892803
  0
ARC
  5
B748
330
1F
100
AcDbEntity
  8
freecads.com
100
AcDbCircle
 10
10868.86732534768
 20
30198.90076121041
 30
0.0
 40
4.27265128969736
100
AcDbArc
 50
305.0083651114431
 51
319.8270571324874
  0
ARC
  5
B749
330
1F
100
AcDbEntity
  8
freecads.com
100
AcDbCircle
 10
10875.06046844943
 20
30190.05879249771
 30
0.0
 40
6.522506522726505
100
AcDbArc
 50
125.0084077015365
 51
150.8066645818017
  0
ARC
  5
B74A
330
1F
100
AcDbEntity
  8
freecads.com
100
AcDbCircle
 10
10948.33956009418
 20
30149.11571240655
 30
0.0
 40
90.46392109045003
100
AcDbArc
 50
150.806683694125
 51
154.5809883993553
  0
ARC
  5
B74B
330
1F
100
AcDbEntity
  8
freecads.com
100
AcDbCircle
 10
10942.88706618985
 20
30151.70711064341
 30
0.0
 40
84.42694878804211
100
AcDbArc
 50
154.5810780662658
 51
158.6346754856327
  0
ARC
  5
B74C
330
1F
100
AcDbEntity
  8
freecads.com
100
AcDbCircle
 10
10872.8642995336
 20
30179.09987652144
 30
0.0
 40
9.236846562805139
100
AcDbArc
 50
158.6347822215243
 51
179.259491951194
  0
ARC
  5
B74D
330
1F
100
AcDbEntity
  8
freecads.com
100
AcDbCircle
 10
10867.63678716074
 20
30179.1674448918
 30
0.0
 40
4.008897529669629
100
AcDbArc
 50
179.2595298420223
 51
191.6471754664833
  0
ARC
  5
B74E
330
1F
100
AcDbEntity
  8
freecads.com
100
AcDbCircle
 10
10867.21380096191
 20
30179.08026285934
 30
0.0
 40
3.577020196244653
100
AcDbArc
 50
191.6472942847372
 51
205.1404229732531
  0
ARC
  5
B74F
330
1F
100
AcDbEntity
  8
freecads.com
100
AcDbCircle
 10
10866.48360651914
 20
30178.73758625984
 30
0.0
 40
2.770415475146284
100
AcDbArc
 50
205.1404208079773
 51
220.3995342275894
  0
ARC
  5
B750
330
1F
100
AcDbEntity
  8
freecads.com
100
AcDbCircle
 10
10865.2148615808
 20
30177.65781784619
 30
0.0
 40
1.104398204630748
100
AcDbArc
 50
220.3995492812683
 51
250.7208500890752
  0
ARC
  5
B751
330
1F
100
AcDbEntity
  8
freecads.com
100
AcDbCircle
 10
10864.50739359619
 20
30175.63524953216
 30
0.0
 40
1.038332187686947
100
AcDbArc
 50
39.10202538773282
 51
70.72080790767472
  0
ARC
  5
B752
330
1F
100
AcDbEntity
  8
freecads.com
100
AcDbCircle
 10
10864.88667388956
 20
30175.94350341553
 30
0.0
 40
0.5495848116845993
100
AcDbArc
 50
348.2889709942047
 51
39.10211542872676
  0
ARC
  5
B753
330
1F
100
AcDbEntity
  8
freecads.com
100
AcDbCircle
 10
10863.76241247012
 20
30176.17655037199
 30
0.0
 40
1.697746221568585
100
AcDbArc
 50
323.8154378961155
 51
348.289040151838
  0
ARC
  5
B754
330
1F
100
AcDbEntity
  8
freecads.com
100
AcDbCircle
 10
10854.37249614487
 20
30183.04502065983
 30
0.0
 40
13.3315939380446
100
AcDbArc
 50
318.4543055376728
 51
323.815524814657
  0
ARC
  5
B755
330
1F
100
AcDbEntity
  8
freecads.com
100
AcDbCircle
 10
10872.11937625119
 20
30167.31867360343
 30
0.0
 40
10.38063381994434
100
AcDbArc
 50
138.4543712336851
 51
153.1272206631426
  0
ARC
  5
B756
330
1F
100
AcDbEntity
  8
freecads.com
100
AcDbCircle
 10
10864.6703017059
 20
30171.0933554046
 30
0.0
 40
2.029769536445436
100
AcDbArc
 50
153.1272049230821
 51
202.2372207046783
  0
ARC
  5
B757
330
1F
100
AcDbEntity
  8
freecads.com
100
AcDbCircle
 10
10865.2330197899
 20
30171.32342184279
 30
0.0
 40
2.637702269596479
100
AcDbArc
 50
202.2371984719557
 51
243.4592061963742
  0
ARC
  5
B758
330
1F
100
AcDbEntity
  8
freecads.com
100
AcDbCircle
 10
10871.98846008646
 20
30184.8486056438
 30
0.0
 40
17.75612052190292
100
AcDbArc
 50
243.4591929303937
 51
253.5500169974834
  0
ARC
  5
B759
330
1F
100
AcDbEntity
  8
freecads.com
100
AcDbCircle
 10
10856.45404252437
 20
30132.23683223901
 30
0.0
 40
37.10111992812145
100
AcDbArc
 50
69.81597065954884
 51
73.54994995821664
  0
ARC
  5
B75A
330
1F
100
AcDbEntity
  8
freecads.com
100
AcDbCircle
 10
10867.96261358005
 20
30163.54316241545
 30
0.0
 40
3.746457332624065
100
AcDbArc
 50
49.70227553996064
 51
69.81584080074455
  0
ARC
  5
B75B
330
1F
100
AcDbEntity
  8
freecads.com
100
AcDbCircle
 10
10869.5085364733
 20
30165.36620112834
 30
0.0
 40
1.356196313292173
100
AcDbArc
 50
10.69451817127621
 51
49.70221447114031
  0
ARC
  5
B75C
330
1F
100
AcDbEntity
  8
freecads.com
100
AcDbCircle
 10
10868.46957127661
 20
30165.16999373238
 30
0.0
 40
2.413525979072254
100
AcDbArc
 50
345.3449986607336
 51
10.6944210176744
  0
ARC
  5
B75D
330
1F
100
AcDbEntity
  8
freecads.com
100
AcDbCircle
 10
10873.59320905982
 20
30163.8301335903
 30
0.0
 40
2.882405415293904
100
AcDbArc
 50
165.345018407798
 51
182.4574182562477
  0
ARC
  5
B75E
330
1F
100
AcDbEntity
  8
freecads.com
100
AcDbCircle
 10
10873.99020551418
 20
30163.84717601693
 30
0.0
 40
3.279767503398175
100
AcDbArc
 50
182.4575017610706
 51
197.9903956326732
  0
ARC
  5
B75F
330
1F
100
AcDbEntity
  8
freecads.com
100
AcDbCircle
 10
10873.8420032759
 20
30163.79905301726
 30
0.0
 40
3.12394797151384
100
AcDbArc
 50
197.990454288836
 51
213.915233041017
  0
ARC
  5
B760
330
1F
100
AcDbEntity
  8
freecads.com
100
AcDbCircle
 10
10873.1740196125
 20
30163.34993175118
 30
0.0
 40
2.31901810735382
100
AcDbArc
 50
213.9152937424315
 51
233.8250726091307
  0
ARC
  5
B761
330
1F
100
AcDbEntity
  8
freecads.com
100
AcDbCircle
 10
10868.944465296
 20
30157.56567048365
 30
0.0
 40
4.846650607234781
100
AcDbArc
 50
31.17898940602691
 51
53.82506460112128
  0
ARC
  5
B762
330
1F
100
AcDbEntity
  8
freecads.com
100
AcDbCircle
 10
10726.48312584423
 20
30071.35949870586
 30
0.0
 40
171.3601254102521
100
AcDbArc
 50
29.45118315451358
 51
31.17896194818333
  0
ARC
  5
B763
330
1F
100
AcDbEntity
  8
freecads.com
100
AcDbCircle
 10
10704.73227577645
 20
30059.07799802516
 30
0.0
 40
196.3388110769599
100
AcDbArc
 50
27.92849110949022
 51
29.45116134110765
  0
ARC
  5
B764
330
1F
100
AcDbEntity
  8
freecads.com
100
AcDbCircle
 10
10875.19876542346
 20
30149.44391470018
 30
0.0
 40
3.401455987040867
100
AcDbArc
 50
0.0000051710001504
 51
27.92852955039223
  0
ARC
  5
B765
330
1F
100
AcDbEntity
  8
freecads.com
100
AcDbCircle
 10
10878.45909706931
 20
30149.44391496446
 30
0.0
 40
0.1411243411925007
100
AcDbArc
 50
265.7373195196392
 51
0.000017339150577
  0
ARC
  5
B766
330
1F
100
AcDbEntity
  8
freecads.com
100
AcDbCircle
 10
10878.86466131519
 20
30154.88534169292
 30
0.0
 40
5.597644037725965
100
AcDbArc
 50
258.9883726369162
 51
265.7374681001692
  0
ARC
  5
B767
330
1F
100
AcDbEntity
  8
freecads.com
100
AcDbCircle
 10
10879.37933738369
 20
30157.5302758886
 30
0.0
 40
8.292188220885602
100
AcDbArc
 50
252.6860787661641
 51
258.9884005283201
  0
ARC
  5
B768
330
1F
100
AcDbEntity
  8
freecads.com
100
AcDbCircle
 10
10882.32507127977
 20
30166.979788071
 30
0.0
 40
18.1901995702289
100
AcDbArc
 50
249.1832282939132
 51
252.6860194831615
  0
ARC
  5
B769
330
1F
100
AcDbEntity
  8
freecads.com
100
AcDbCircle
 10
10872.07977433807
 20
30140.03264561492
 30
0.0
 40
10.63885861717227
100
AcDbArc
 50
69.18317521731032
 51
95.32918198186829
  0
ARC
  5
B76A
330
1F
100
AcDbEntity
  8
freecads.com
100
AcDbCircle
 10
10871.97107702432
 20
30141.19775427237
 30
0.0
 40
9.468690556834324
100
AcDbArc
 50
95.32909220271958
 51
123.8609747145757
  0
ARC
  5
B76B
330
1F
100
AcDbEntity
  8
freecads.com
100
AcDbCircle
 10
10872.40094226298
 20
30140.55708259335
 30
0.0
 40
10.24021134304924
100
AcDbArc
 50
123.8609043919919
 51
151.1014017432461
  0
ARC
  5
B76C
330
1F
100
AcDbEntity
  8
freecads.com
100
AcDbCircle
 10
10875.0285965532
 20
30139.10662184668
 30
0.0
 40
13.24161159068521
100
AcDbArc
 50
151.1013959748184
 51
173.5690726306626
  0
ARC
  5
B76D
330
1F
100
AcDbEntity
  8
freecads.com
100
AcDbCircle
 10
10876.6707175207
 20
30138.92154629045
 30
0.0
 40
14.89412913468156
100
AcDbArc
 50
173.5691315784616
 51
208.557328321915
  0
ARC
  5
B76E
330
1F
100
AcDbEntity
  8
freecads.com
100
AcDbCircle
 10
10873.72055547918
 20
30137.31592960524
 30
0.0
 40
11.53534051215032
100
AcDbArc
 50
208.5573925884611
 51
250.9111316066981
  0
ARC
  5
B76F
330
1F
100
AcDbEntity
  8
freecads.com
100
AcDbCircle
 10
10873.0911569757
 20
30135.49719676338
 30
0.0
 40
9.61078039974873
100
AcDbArc
 50
250.9111399622383
 51
298.4560466450997
  0
ARC
  5
B770
330
1F
100
AcDbEntity
  8
freecads.com
100
AcDbCircle
 10
10872.01946363418
 20
30137.47460663716
 30
0.0
 40
11.85993055638601
100
AcDbArc
 50
298.4560920388168
 51
339.0979225186292
  0
LINE
  5
B771
330
1F
100
AcDbEntity
  8
freecads.com
100
AcDbLine
 10
10883.0989104105
 20
30133.24331700717
 30
0.0
 11
10884.77928141051
 21
30137.64330400717
 31
0.0
  0
LINE
  5
B772
330
1F
100
AcDbEntity
  8
freecads.com
100
AcDbLine
 10
10884.77928141051
 20
30137.64330400717
 30
0.0
 11
10887.65589541051
 21
30136.20826000717
 31
0.0
  0
ARC
  5
B773
330
1F
100
AcDbEntity
  8
freecads.com
100
AcDbCircle
 10
10892.57870003629
 20
30146.07623578525
 30
0.0
 40
11.02773554908184
100
AcDbArc
 50
243.4869184847363
 51
252.4953606911885
  0
ARC
  5
B774
330
1F
100
AcDbEntity
  8
freecads.com
100
AcDbCircle
 10
10891.06729555747
 20
30141.28404744509
 30
0.0
 40
6.002856188728403
100
AcDbArc
 50
252.4954215304077
 51
266.6980250493749
  0
ARC
  5
B775
330
1F
100
AcDbEntity
  8
freecads.com
100
AcDbCircle
 10
10891.13044904775
 20
30142.37880006446
 30
0.0
 40
7.099428877110123
100
AcDbArc
 50
266.698084749006
 51
279.5301433081265
  0
ARC
  5
B776
330
1F
100
AcDbEntity
  8
freecads.com
100
AcDbCircle
 10
10889.04260795114
 20
30154.81488654143
 30
0.0
 40
19.70955684263999
100
AcDbArc
 50
279.5302221602841
 51
285.5199339375758
  0
ARC
  5
B777
330
1F
100
AcDbEntity
  8
freecads.com
100
AcDbCircle
 10
10900.74741292935
 20
30112.66575673702
 30
0.0
 40
24.0346039430788
100
AcDbArc
 50
101.3903252978597
 51
105.5199872621592
  0
ARC
  5
B778
330
1F
100
AcDbEntity
  8
freecads.com
100
AcDbCircle
 10
10903.87498073228
 20
30097.14135725388
 30
0.0
 40
39.8709122146952
100
AcDbArc
 50
98.56376298835513
 51
101.3903642375338
  0
ARC
  5
B779
330
1F
100
AcDbEntity
  8
freecads.com
100
AcDbCircle
 10
10903.621459987
 20
30098.82463225313
 30
0.0
 40
38.16865268985583
100
AcDbArc
 50
95.71144049906273
 51
98.56370631763512
  0
ARC
  5
B77A
330
1F
100
AcDbEntity
  8
freecads.com
100
AcDbCircle
 10
10901.35779504222
 20
30121.45780490141
 30
0.0
 40
15.42256108913107
100
AcDbArc
 50
90.09891593707022
 51
95.71140499459573
  0
ARC
  5
B77B
330
1F
100
AcDbEntity
  8
freecads.com
100
AcDbCircle
 10
10901.35467005452
 20
30123.26555383094
 30
0.0
 40
13.61480945858233
100
AcDbArc
 50
82.74029599278808
 51
90.09889880508426
  0
ARC
  5
B77C
330
1F
100
AcDbEntity
  8
freecads.com
100
AcDbCircle
 10
10902.79971106629
 20
30134.60917520384
 30
0.0
 40
2.179518059698563
100
AcDbArc
 50
54.24175113092052
 51
82.74023692457413
  0
ARC
  5
B77D
330
1F
100
AcDbEntity
  8
freecads.com
100
AcDbCircle
 10
10903.00510242661
 20
30134.89439331872
 30
0.0
 40
1.828042621080474
100
AcDbArc
 50
22.20107061695064
 51
54.2417854200547
  0
ARC
  5
B77E
330
1F
100
AcDbEntity
  8
freecads.com
100
AcDbCircle
 10
10896.87104729402
 20
30132.39100916142
 30
0.0
 40
8.453264474625354
100
AcDbArc
 50
11.9125539635345
 51
22.20100106538529
  0
ARC
  5
B77F
330
1F
100
AcDbEntity
  8
freecads.com
100
AcDbCircle
 10
10933.62890282076
 20
30140.14548734126
 30
0.0
 40
29.11363418319492
100
AcDbArc
 50
191.9124982887141
 51
203.750039856301
  0
ARC
  5
B780
330
1F
100
AcDbEntity
  8
freecads.com
100
AcDbCircle
 10
10917.97330684422
 20
30133.2568583133
 30
0.0
 40
12.00951493474573
100
AcDbArc
 50
203.7500881885569
 51
226.6870799555204
  0
ARC
  5
B781
330
1F
100
AcDbEntity
  8
freecads.com
100
AcDbCircle
 10
10916.56052773188
 20
30131.75832941823
 30
0.0
 40
9.950016532307664
100
AcDbArc
 50
226.6870748913637
 51
252.4006952764359
  0
ARC
  5
B782
330
1F
100
AcDbEntity
  8
freecads.com
100
AcDbCircle
 10
10918.54374644274
 20
30138.01045335886
 30
0.0
 40
16.50914835168904
100
AcDbArc
 50
252.4006566539481
 51
270.0000172408707
  0
ARC
  5
B783
330
1F
100
AcDbEntity
  8
freecads.com
100
AcDbCircle
 10
10918.54375648957
 20
30136.68669411097
 30
0.0
 40
15.18538910380374
100
AcDbArc
 50
269.9999808362626
 51
285.0112853225319
  0
ARC
  5
B784
330
1F
100
AcDbEntity
  8
freecads.com
100
AcDbCircle
 10
10918.80117456068
 20
30135.72680092919
 30
0.0
 40
14.19157876797229
100
AcDbArc
 50
285.0112353428979
 51
300.8041795366881
  0
ARC
  5
B785
330
1F
100
AcDbEntity
  8
freecads.com
100
AcDbCircle
 10
10920.11378422258
 20
30133.52527847524
 30
0.0
 40
11.62844684796698
100
AcDbArc
 50
300.8040897454841
 51
318.2986428796522
  0
ARC
  5
B786
330
1F
100
AcDbEntity
  8
freecads.com
100
AcDbCircle
 10
10924.07762842588
 20
30129.99345892253
 30
0.0
 40
6.31941584213796
100
AcDbArc
 50
318.298607474305
 51
345.9107376335057
  0
ARC
  5
B787
330
1F
100
AcDbEntity
  8
freecads.com
100
AcDbCircle
 10
10933.4500088175
 20
30127.64114677308
 30
0.0
 40
3.343652337992563
100
AcDbArc
 50
144.3534032860279
 51
165.910736047085
  0
ARC
  5
B788
330
1F
100
AcDbEntity
  8
freecads.com
100
AcDbCircle
 10
10943.10223910191
 20
30120.71896551034
 30
0.0
 40
15.2214527613618
100
AcDbArc
 50
137.3531725165405
 51
144.3534556832996
  0
ARC
  5
B789
330
1F
100
AcDbEntity
  8
freecads.com
100
AcDbCircle
 10
10945.30690547241
 20
30118.68840000684
 30
0.0
 40
18.21874321571222
100
AcDbArc
 50
130.6577918667081
 51
137.3533046065467
  0
ARC
  5
B78A
330
1F
100
AcDbEntity
  8
freecads.com
100
AcDbCircle
 10
10945.43259450938
 20
30118.54210109328
 30
0.0
 40
18.41161909609734
100
AcDbArc
 50
124.0150398929757
 51
130.6578851396816
  0
LINE
  5
B78B
330
1F
100
AcDbEntity
  8
freecads.com
100
AcDbLine
 10
10935.13294141051
 20
30133.80332200717
 30
0.0
 11
10939.44744541051
 21
30136.71514600717
 31
0.0
  0
LINE
  5
B78C
330
1F
100
AcDbEntity
  8
freecads.com
100
AcDbLine
 10
10939.44744541051
 20
30136.71514600717
 30
0.0
 11
10945.54268741051
 21
30134.25316800717
 31
0.0
  0
ARC
  5
B78D
330
1F
100
AcDbEntity
  8
freecads.com
100
AcDbCircle
 10
10963.80856000346
 20
30179.47496909998
 30
0.0
 40
48.77144036892508
100
AcDbArc
 50
248.0053601723685
 51
251.0235273459057
  0
ARC
  5
B78E
330
1F
100
AcDbEntity
  8
freecads.com
100
AcDbCircle
 10
10957.88931507742
 20
30162.26129949207
 30
0.0
 40
30.56847682272053
100
AcDbArc
 50
251.0235424563567
 51
255.3064762799872
  0
ARC
  5
B78F
330
1F
100
AcDbEntity
  8
freecads.com
100
AcDbCircle
 10
10957.99000292372
 20
30162.64550548378
 30
0.0
 40
30.96565723902592
100
AcDbArc
 50
255.3065841926194
 51
258.7410944562106
  0
ARC
  5
B790
330
1F
100
AcDbEntity
  8
freecads.com
100
AcDbCircle
 10
10952.12694685465
 20
30133.1938547136
 30
0.0
 40
0.936085820879988
100
AcDbArc
 50
258.741065686426
 51
301.7174108188207
  0
ARC
  5
B791
330
1F
100
AcDbEntity
  8
freecads.com
100
AcDbCircle
 10
10952.09751045895
 20
30133.24148157581
 30
0.0
 40
0.9920752787581898
100
AcDbArc
 50
301.7174820118841
 51
335.1041165457951
  0
ARC
  5
B792
330
1F
100
AcDbEntity
  8
freecads.com
100
AcDbCircle
 10
10947.87950458931
 20
30135.19904002306
 30
0.0
 40
5.642194480537411
100
AcDbArc
 50
335.1041750530917
 51
344.3304544567703
  0
ARC
  5
B793
330
1F
100
AcDbEntity
  8
freecads.com
100
AcDbCircle
 10
10946.22027848358
 20
30135.66447790307
 30
0.0
 40
7.365465698330133
100
AcDbArc
 50
344.3304400452563
 51
352.8207677479178
  0
ARC
  5
B794
330
1F
100
AcDbEntity
  8
freecads.com
100
AcDbCircle
 10
10944.38834190078
 20
30135.89524254425
 30
0.0
 40
9.211879509726424
100
AcDbArc
 50
352.820694859178
 51
0.0000277582739856
  0
ARC
  5
B795
330
1F
100
AcDbEntity
  8
freecads.com
100
AcDbCircle
 10
10959.71092417673
 20
30135.8952511448
 30
0.0
 40
6.110702766232443
100
AcDbArc
 50
168.9692721273901
 51
180.0000387956329
  0
ARC
  5
B796
330
1F
100
AcDbEntity
  8
freecads.com
100
AcDbCircle
 10
10959.65582127698
 20
30135.9059867662
 30
0.0
 40
6.054563803878498
100
AcDbArc
 50
157.8618526299354
 51
168.9692166860572
  0
ARC
  5
B797
330
1F
100
AcDbEntity
  8
freecads.com
100
AcDbCircle
 10
10958.60263931037
 20
30136.33446273678
 30
0.0
 40
4.917557246237231
100
AcDbArc
 50
145.720396594396
 51
157.8619182186746
  0
ARC
  5
B798
330
1F
100
AcDbEntity
  8
freecads.com
100
AcDbCircle
 10
10955.96716316167
 20
30138.13088541704
 30
0.0
 40
1.728063716458071
100
AcDbArc
 50
119.2325631302206
 51
145.7203193988103
  0
ARC
  5
B799
330
1F
100
AcDbEntity
  8
freecads.com
100
AcDbCircle
 10
10954.27945778515
 20
30141.14664789335
 30
0.0
 40
1.727825858083124
100
AcDbArc
 50
299.2326404104192
 51
328.7512010253344
  0
ARC
  5
B79A
330
1F
100
AcDbEntity
  8
freecads.com
100
AcDbCircle
 10
10951.00484690084
 20
30143.1336329665
 30
0.0
 40
5.558124296135007
100
AcDbArc
 50
328.7512334109551
 51
341.1135138071678
  0
ARC
  5
B79B
330
1F
100
AcDbEntity
  8
freecads.com
100
AcDbCircle
 10
10948.48110310513
 20
30143.99703813412
 30
0.0
 40
8.225473397748551
100
AcDbArc
 50
341.1135170431899
 51
351.3749748580405
  0
ARC
  5
B79C
330
1F
100
AcDbEntity
  8
freecads.com
100
AcDbCircle
 10
10942.79315115344
 20
30144.85978791793
 30
0.0
 40
13.97848431326641
100
AcDbArc
 50
351.3750291414754
 51
358.2731905881487
  0
ARC
  5
B79D
330
1F
100
AcDbEntity
  8
freecads.com
100
AcDbCircle
 10
10974.9319054055
 20
30143.89087488651
 30
0.0
 40
18.17487192425391
100
AcDbArc
 50
157.2227424694997
 51
178.2731732844961
  0
ARC
  5
B79E
330
1F
100
AcDbEntity
  8
freecads.com
100
AcDbCircle
 10
11535.97251404731
 20
29908.31260150539
 30
0.0
 40
626.6678360860327
100
AcDbArc
 50
155.5886507546097
 51
157.2226986965995
  0
ARC
  5
B79F
330
1F
100
AcDbEntity
  8
freecads.com
100
AcDbCircle
 10
12184.62740609409
 20
29613.9145237894
 30
0.0
 40
1339.004411827492
100
AcDbArc
 50
154.7828372899459
 51
155.5886418124995
  0
ARC
  5
B7A0
330
1F
100
AcDbEntity
  8
freecads.com
100
AcDbCircle
 10
10975.57655015059
 20
30183.29309514597
 30
0.0
 40
2.592824861201104
100
AcDbArc
 50
89.99995006070335
 51
154.7828610720875
  0
ARC
  5
B7A1
330
1F
100
AcDbEntity
  8
freecads.com
100
AcDbCircle
 10
10975.57655418623
 20
30183.44110410241
 30
0.0
 40
2.444815904762853
100
AcDbArc
 50
25.36743159268148
 51
90.00004161521204
  0
ARC
  5
B7A2
330
1F
100
AcDbEntity
  8
freecads.com
100
AcDbCircle
 10
10926.9982757052
 20
30160.4082201468
 30
0.0
 40
56.2069111345129
100
AcDbArc
 50
18.70562744857412
 51
25.36747887177533
  0
ARC
  5
B7A3
330
1F
100
AcDbEntity
  8
freecads.com
100
AcDbCircle
 10
10906.22385979646
 20
30153.374220038
 30
0.0
 40
78.13984331147795
100
AcDbArc
 50
12.27252507884446
 51
18.70560940103804
  0
ARC
  5
B7A4
330
1F
100
AcDbEntity
  8
freecads.com
100
AcDbCircle
 10
10812.2958153452
 20
30132.94184317302
 30
0.0
 40
174.2645516792462
100
AcDbArc
 50
8.740611562907981
 51
12.27250215296972
  0
ARC
  5
B7A5
330
1F
100
AcDbEntity
  8
freecads.com
100
AcDbCircle
 10
11127.98275432755
 20
30181.47772727953
 30
0.0
 40
145.1317155031489
100
AcDbArc
 50
188.7405995577733
 51
190.5875463219777
  0
ARC
  5
B7A6
330
1F
100
AcDbEntity
  8
freecads.com
100
AcDbCircle
 10
11064.48007008937
 20
30169.60780830228
 30
0.0
 40
80.52919324603093
100
AcDbArc
 50
190.5875461258267
 51
193.4581437360515
  0
ARC
  5
B7A7
330
1F
100
AcDbEntity
  8
freecads.com
100
AcDbCircle
 10
11106.48235853756
 20
30179.65935637364
 30
0.0
 40
123.7174538443088
100
AcDbArc
 50
193.458205696263
 51
195.0067724575413
  0
ARC
  5
B7A8
330
1F
100
AcDbEntity
  8
freecads.com
100
AcDbCircle
 10
10987.73316760838
 20
30147.82556196686
 30
0.0
 40
0.7753503456807083
100
AcDbArc
 50
195.0067724657316
 51
251.5650597310036
  0
ARC
  5
B7A9
330
1F
100
AcDbEntity
  8
freecads.com
100
AcDbCircle
 10
10987.02835168019
 20
30145.7111166607
 30
0.0
 40
1.453470967339962
100
AcDbArc
 50
22.78245587636611
 51
71.56501571894795
  0
ARC
  5
B7AA
330
1F
100
AcDbEntity
  8
freecads.com
100
AcDbCircle
 10
10986.88181984692
 20
30145.64957218892
 30
0.0
 40
1.612402714226537
100
AcDbArc
 50
337.628927647862
 51
22.78248703094795
  0
ARC
  5
B7AB
330
1F
100
AcDbEntity
  8
freecads.com
100
AcDbCircle
 10
10982.90815587592
 20
30147.2850471339
 30
0.0
 40
5.909469580128098
100
AcDbArc
 50
317.5276843353258
 51
337.6289687266138
  0
ARC
  5
B7AC
330
1F
100
AcDbEntity
  8
freecads.com
100
AcDbCircle
 10
10965.02834460177
 20
30163.65294082209
 30
0.0
 40
30.14984076101179
100
AcDbArc
 50
311.5194895000474
 51
317.5277523935526
  0
ARC
  5
B7AD
330
1F
100
AcDbEntity
  8
freecads.com
100
AcDbCircle
 10
10998.11201838856
 20
30126.28429228932
 30
0.0
 40
19.75953074772167
100
AcDbArc
 50
131.51953034366
 51
136.9577124095106
  0
ARC
  5
B7AE
330
1F
100
AcDbEntity
  8
freecads.com
100
AcDbCircle
 10
10993.13420182517
 20
30130.93308509411
 30
0.0
 40
12.94851523754509
100
AcDbArc
 50
136.9578105138725
 51
144.4221852321388
  0
ARC
  5
B7AF
330
1F
100
AcDbEntity
  8
freecads.com
100
AcDbCircle
 10
10990.61489356761
 20
30132.73525491328
 30
0.0
 40
9.850979095106339
100
AcDbArc
 50
144.4221726014792
 51
152.2237596675447
  0
ARC
  5
B7B0
330
1F
100
AcDbEntity
  8
freecads.com
100
AcDbCircle
 10
10982.67291149457
 20
30136.91837965944
 30
0.0
 40
0.8746985797488823
100
AcDbArc
 50
152.2237959794283
 51
198.2232899367275
  0
ARC
  5
B7B1
330
1F
100
AcDbEntity
  8
freecads.com
100
AcDbCircle
 10
10983.63675801321
 20
30137.23570653914
 30
0.0
 40
1.889438181845511
100
AcDbArc
 50
198.2231766923871
 51
260.3239232580769
  0
ARC
  5
B7B2
330
1F
100
AcDbEntity
  8
freecads.com
100
AcDbCircle
 10
10987.00895766093
 20
30157.01377311196
 30
0.0
 40
21.95292860158158
100
AcDbArc
 50
260.3239962650345
 51
270.6488098354907
  0
ARC
  5
B7B3
330
1F
100
AcDbEntity
  8
freecads.com
100
AcDbCircle
 10
10986.97748962853
 20
30159.7909535305
 30
0.0
 40
24.73028729535955
100
AcDbArc
 50
270.6488521474203
 51
281.1012873092107
  0
ARC
  5
B7B4
330
1F
100
AcDbEntity
  8
freecads.com
100
AcDbCircle
 10
10989.02622518198
 20
30149.34975741061
 30
0.0
 40
14.08999153904498
100
AcDbArc
 50
281.1012446310248
 51
297.0289883991705
  0
ARC
  5
B7B5
330
1F
100
AcDbEntity
  8
freecads.com
100
AcDbCircle
 10
10984.26501293129
 20
30158.6825089993
 30
0.0
 40
24.56708055805363
100
AcDbArc
 50
297.0289646361135
 51
302.9978349422141
  0
ARC
  5
B7B6
330
1F
100
AcDbEntity
  8
freecads.com
100
AcDbCircle
 10
10995.36164011886
 20
30141.59378101415
 30
0.0
 40
4.191611015234212
100
AcDbArc
 50
302.9978863114005
 51
325.076895797367
  0
ARC
  5
B7B7
330
1F
100
AcDbEntity
  8
freecads.com
100
AcDbCircle
 10
10995.47422713357
 20
30141.51516751952
 30
0.0
 40
4.054294164825544
100
AcDbArc
 50
325.0769443690601
 51
347.6542508575176
  0
ARC
  5
B7B8
330
1F
100
AcDbEntity
  8
freecads.com
100
AcDbCircle
 10
10977.70526597421
 20
30145.4042412746
 30
0.0
 40
22.2438756705826
100
AcDbArc
 50
347.6543802905954
 51
354.0565491459274
  0
ARC
  5
B7B9
330
1F
100
AcDbEntity
  8
freecads.com
100
AcDbCircle
 10
10978.97582146905
 20
30145.27193856541
 30
0.0
 40
20.96645041977412
100
AcDbArc
 50
354.0566297792554
 51
359.0119423681404
  0
ARC
  5
B7BA
330
1F
100
AcDbEntity
  8
freecads.com
100
AcDbCircle
 10
10974.98814574113
 20
30145.34069919823
 30
0.0
 40
24.95471893324161
100
AcDbArc
 50
359.0119724181037
 51
3.360658473670609
  0
ARC
  5
B7BB
330
1F
100
AcDbEntity
  8
freecads.com
100
AcDbCircle
 10
10977.82807917623
 20
30145.50743746524
 30
0.0
 40
22.10989493788083
100
AcDbArc
 50
3.360731050848899
 51
7.806325882384954
  0
ARC
  5
B7BC
330
1F
100
AcDbEntity
  8
freecads.com
100
AcDbCircle
 10
10994.02237417413
 20
30147.72759670737
 30
0.0
 40
5.764121859215801
100
AcDbArc
 50
7.806372965698298
 51
19.88755905866906
  0
ARC
  5
B7BD
330
1F
100
AcDbEntity
  8
freecads.com
100
AcDbCircle
 10
11008.05661177197
 20
30152.80447961095
 30
0.0
 40
9.160172595442547
100
AcDbArc
 50
191.0031813623303
 51
199.8875955106757
  0
ARC
  5
B7BE
330
1F
100
AcDbEntity
  8
freecads.com
100
AcDbCircle
 10
11102.59566172719
 20
30171.18639199595
 30
0.0
 40
105.4697083090284
100
AcDbArc
 50
189.5210400992129
 51
191.00314666227
  0
ARC
  5
B7BF
330
1F
100
AcDbEntity
  8
freecads.com
100
AcDbCircle
 10
11110.93055097603
 20
30172.58430369563
 30
0.0
 40
113.9210121084543
100
AcDbArc
 50
187.9037132266798
 51
189.5210316430098
  0
ARC
  5
B7C0
330
1F
100
AcDbEntity
  8
freecads.com
100
AcDbCircle
 10
11132.16495167878
 20
30175.53223877718
 30
0.0
 40
135.3590645957857
100
AcDbArc
 50
186.4825735608661
 51
187.9037198605899
  0
ARC
  5
B7C1
330
1F
100
AcDbEntity
  8
freecads.com
100
AcDbCircle
 10
10741.44456503524
 20
30131.1355549651
 30
0.0
 40
257.8755804603068
100
AcDbArc
 50
6.482594421390984
 51
7.238437604266805
  0
ARC
  5
B7C2
330
1F
100
AcDbEntity
  8
freecads.com
100
AcDbCircle
 10
10757.18751582434
 20
30133.13543444807
 30
0.0
 40
242.0061123732811
100
AcDbArc
 50
7.238355054570019
 51
8.031096298268431
  0
ARC
  5
B7C3
330
1F
100
AcDbEntity
  8
freecads.com
100
AcDbCircle
 10
10781.09858127914
 20
30136.50939982313
 30
0.0
 40
217.8581788495201
100
AcDbArc
 50
8.031031292522708
 51
8.791228907045249
  0
ARC
  5
B7C4
330
1F
100
AcDbEntity
  8
freecads.com
100
AcDbCircle
 10
10969.54937946841
 20
30165.6535992888
 30
0.0
 40
27.16709961227914
100
AcDbArc
 50
8.791199494002247
 51
12.31415405967972
  0
ARC
  5
B7C5
330
1F
100
AcDbEntity
  8
freecads.com
100
AcDbCircle
 10
10998.90316661614
 20
30172.06135735151
 30
0.0
 40
2.877936305569162
100
AcDbArc
 50
168.5239228940687
 51
192.3141713567684
  0
ARC
  5
B7C6
330
1F
100
AcDbEntity
  8
freecads.com
100
AcDbCircle
 10
10996.40964760965
 20
30172.56758578555
 30
0.0
 40
0.333549490799206
100
AcDbArc
 50
57.67543791973453
 51
168.5239883488475
  0
ARC
  5
B7C7
330
1F
100
AcDbEntity
  8
freecads.com
100
AcDbCircle
 10
10992.26157404036
 20
30166.01220082901
 30
0.0
 40
8.091099765506941
100
AcDbArc
 50
44.95534930337077
 51
57.67545676221907
  0
ARC
  5
B7C8
330
1F
100
AcDbEntity
  8
freecads.com
100
AcDbCircle
 10
10689.82048377462
 20
29864.04170729059
 30
0.0
 40
435.474758845926
100
AcDbArc
 50
44.22796382028323
 51
44.95538859407314
  0
LINE
  5
B7C9
330
1F
100
AcDbEntity
  8
freecads.com
100
AcDbLine
 10
11001.8687464105
 20
30167.79184700717
 30
0.0
 11
11008.2874754105
 21
30161.19777300717
 31
0.0
  0
LINE
  5
B7CA
330
1F
100
AcDbEntity
  8
freecads.com
100
AcDbLine
 10
11008.2874754105
 20
30161.19777300717
 30
0.0
 11
11007.89764241051
 21
30151.79184700717
 31
0.0
  0
ARC
  5
B7CB
330
1F
100
AcDbEntity
  8
freecads.com
100
AcDbCircle
 10
10354.81864326941
 20
30178.85917332007
 30
0.0
 40
653.639670822432
100
AcDbArc
 50
356.8431196945727
 51
357.6266937218597
  0
ARC
  5
B7CC
330
1F
100
AcDbEntity
  8
freecads.com
100
AcDbCircle
 10
10976.35283507723
 20
30144.57924933596
 30
0.0
 40
31.16086413539128
100
AcDbArc
 50
349.6877630725156
 51
356.843055271964
  0
ARC
  5
B7CD
330
1F
100
AcDbEntity
  8
freecads.com
100
AcDbCircle
 10
10998.44296845042
 20
30140.55993224403
 30
0.0
 40
8.708049115213617
100
AcDbArc
 50
333.118697365451
 51
349.6876697569694
  0
ARC
  5
B7CE
330
1F
100
AcDbEntity
  8
freecads.com
100
AcDbCircle
 10
10998.29134358086
 20
30140.6368036716
 30
0.0
 40
8.878047107464514
100
AcDbArc
 50
316.7881603642106
 51
333.118640115286
  0
ARC
  5
B7CF
330
1F
100
AcDbEntity
  8
freecads.com
100
AcDbCircle
 10
11018.74436255411
 20
30121.42219774576
 30
0.0
 40
19.18486553548084
100
AcDbArc
 50
136.7881871688446
 51
144.3356661554878
  0
ARC
  5
B7D0
330
1F
100
AcDbEntity
  8
freecads.com
100
AcDbCircle
 10
11005.10474569709
 20
30131.21038860271
 30
0.0
 40
2.396541370790716
100
AcDbArc
 50
144.3356805964227
 51
179.2596201430045
  0
ARC
  5
B7D1
330
1F
100
AcDbEntity
  8
freecads.com
100
AcDbCircle
 10
11003.8919538375
 20
30131.22605983183
 30
0.0
 40
1.183648266635809
100
AcDbArc
 50
179.2595514143233
 51
235.0881975948939
  0
ARC
  5
B7D2
330
1F
100
AcDbEntity
  8
freecads.com
100
AcDbCircle
 10
11005.87238525847
 20
30134.06369145631
 30
0.0
 40
4.644032905580647
100
AcDbArc
 50
235.0881665888483
 51
255.3450000867765
  0
ARC
  5
B7D3
330
1F
100
AcDbEntity
  8
freecads.com
100
AcDbCircle
 10
11006.28594357056
 20
30135.64512598641
 30
0.0
 40
6.278647738036643
100
AcDbArc
 50
255.3449647788405
 51
275.0529731180501
  0
ARC
  5
B7D4
330
1F
100
AcDbEntity
  8
freecads.com
100
AcDbCircle
 10
11006.30462270287
 20
30135.433911711
 30
0.0
 40
6.066609109219
100
AcDbArc
 50
275.0529403071051
 51
295.2752089487594
  0
ARC
  5
B7D5
330
1F
100
AcDbEntity
  8
freecads.com
100
AcDbCircle
 10
11003.67196795479
 20
30141.00955087822
 30
0.0
 40
12.23253346373331
100
AcDbArc
 50
295.2752645993064
 51
308.4381140598698
  0
ARC
  5
B7D6
330
1F
100
AcDbEntity
  8
freecads.com
100
AcDbCircle
 10
10970.31653357195
 20
30183.03616206615
 30
0.0
 40
65.88717958882833
100
AcDbArc
 50
308.438120601442
 51
312.2206736565402
  0
LINE
  5
B7D7
330
1F
100
AcDbEntity
  8
freecads.com
100
AcDbLine
 10
11014.59191741051
 20
30134.24260900717
 30
0.0
 11
11018.8421664105
 21
30138.09929700717
 31
0.0
  0
LINE
  5
B7D8
330
1F
100
AcDbEntity
  8
freecads.com
100
AcDbLine
 10
11018.8421664105
 20
30138.09929700717
 30
0.0
 11
11019.9285784105
 21
30149.24260900717
 31
0.0
  0
ARC
  5
B7D9
330
1F
100
AcDbEntity
  8
freecads.com
100
AcDbCircle
 10
11143.25812571992
 20
30137.21857829898
 30
0.0
 40
123.914303266475
100
AcDbArc
 50
172.3506135881902
 51
174.4315391131543
  0
ARC
  5
B7DA
330
1F
100
AcDbEntity
  8
freecads.com
100
AcDbCircle
 10
11090.86131943531
 20
30144.25575265337
 30
0.0
 40
71.04704372221849
100
AcDbArc
 50
169.1944829725405
 51
172.3505933466703
  0
ARC
  5
B7DB
330
1F
100
AcDbEntity
  8
freecads.com
100
AcDbCircle
 10
11091.95451030857
 20
30144.04702797367
 30
0.0
 40
72.15998229710961
100
AcDbArc
 50
166.6842796098223
 51
169.1944219260849
  0
ARC
  5
B7DC
330
1F
100
AcDbEntity
  8
freecads.com
100
AcDbCircle
 10
11023.89397572273
 20
30160.15557272011
 30
0.0
 40
2.219138850962252
100
AcDbArc
 50
135.631568550051
 51
166.6842144304341
  0
ARC
  5
B7DD
330
1F
100
AcDbEntity
  8
freecads.com
100
AcDbCircle
 10
11019.22443296545
 20
30164.7232941306
 30
0.0
 40
4.31299008575642
100
AcDbArc
 50
315.6315245492008
 51
340.6822945363237
  0
ARC
  5
B7DE
330
1F
100
AcDbEntity
  8
freecads.com
100
AcDbCircle
 10
11019.20150376695
 20
30164.73133198227
 30
0.0
 40
4.337287312003533
100
AcDbArc
 50
340.6822919783623
 51
5.62775469692749
  0
ARC
  5
B7DF
330
1F
100
AcDbEntity
  8
freecads.com
100
AcDbCircle
 10
11018.35922937677
 20
30164.64832900313
 30
0.0
 40
5.183641636664537
100
AcDbArc
 50
5.627813041844466
 51
28.12794846847087
  0
ARC
  5
B7E0
330
1F
100
AcDbEntity
  8
freecads.com
100
AcDbCircle
 10
11016.21799193887
 20
30163.50368463124
 30
0.0
 40
7.611626089557635
100
AcDbArc
 50
28.12786510579496
 51
45.0000314266273
  0
ARC
  5
B7E1
330
1F
100
AcDbEntity
  8
freecads.com
100
AcDbCircle
 10
11025.83536612834
 20
30173.12105567198
 30
0.0
 40
5.989392697120352
100
AcDbArc
 50
190.9947830338061
 51
224.9999387622863
  0
ARC
  5
B7E2
330
1F
100
AcDbEntity
  8
freecads.com
100
AcDbCircle
 10
11041.99161667988
 20
30176.2599533623
 30
0.0
 40
22.4477374071469
100
AcDbArc
 50
178.263398379826
 51
190.9947012232075
  0
ARC
  5
B7E3
330
1F
100
AcDbEntity
  8
freecads.com
100
AcDbCircle
 10
11052.53469832374
 20
30175.94027232934
 30
0.0
 40
32.99566452632321
100
AcDbArc
 50
167.5938805092672
 51
178.2633489226575
  0
ARC
  5
B7E4
330
1F
100
AcDbEntity
  8
freecads.com
100
AcDbCircle
 10
11071.04626658736
 20
30171.86815438476
 30
0.0
 40
51.94982776644435
100
AcDbArc
 50
160.0001430912645
 51
167.5938665698685
  0
ARC
  5
B7E5
330
1F
100
AcDbEntity
  8
freecads.com
100
AcDbCircle
 10
11070.89226386893
 20
30171.92414670662
 30
0.0
 40
51.78596204629224
100
AcDbArc
 50
156.6322484129066
 51
160.0000810767348
  0
ARC
  5
B7E6
330
1F
100
AcDbEntity
  8
freecads.com
100
AcDbCircle
 10
11048.60155765235
 20
30181.55528794388
 30
0.0
 40
27.5035720246056
100
AcDbArc
 50
151.224040425319
 51
156.6322163106771
  0
ARC
  5
B7E7
330
1F
100
AcDbEntity
  8
freecads.com
100
AcDbCircle
 10
11045.57489374178
 20
30183.21752700872
 30
0.0
 40
24.05049612977568
100
AcDbArc
 50
146.3969490255522
 51
151.22397751913
  0
ARC
  5
B7E8
330
1F
100
AcDbEntity
  8
freecads.com
100
AcDbCircle
 10
11026.21111658808
 20
30196.08427456695
 30
0.0
 40
0.8016454402220743
100
AcDbArc
 50
90.00001269144112
 51
146.3968568953886
  0
ARC
  5
B7E9
330
1F
100
AcDbEntity
  8
freecads.com
100
AcDbCircle
 10
11026.21111427716
 20
30198.929800311
 30
0.0
 40
2.04388030383186
100
AcDbArc
 50
270.0000598035505
 51
315.4541679600805
  0
ARC
  5
B7EA
330
1F
100
AcDbEntity
  8
freecads.com
100
AcDbCircle
 10
11020.01996916376
 20
30205.02355607252
 30
0.0
 40
10.73088997899071
100
AcDbArc
 50
315.454199166972
 51
328.7735156113849
  0
ARC
  5
B7EB
330
1F
100
AcDbEntity
  8
freecads.com
100
AcDbCircle
 10
11019.81745402232
 20
30205.14632309343
 30
0.0
 40
10.96771084775974
100
AcDbArc
 50
328.7735535330999
 51
342.0291425813718
  0
ARC
  5
B7EC
330
1F
100
AcDbEntity
  8
freecads.com
100
AcDbCircle
 10
11027.80898388388
 20
30202.55420945707
 30
0.0
 40
2.566306046651514
100
AcDbArc
 50
342.0291708570038
 51
20.99367985583702
  0
ARC
  5
B7ED
330
1F
100
AcDbEntity
  8
freecads.com
100
AcDbCircle
 10
11032.61715682516
 20
30204.39928266852
 30
0.0
 40
2.583725233731487
100
AcDbArc
 50
176.7860539020952
 51
200.993618735736
  0
ARC
  5
B7EE
330
1F
100
AcDbEntity
  8
freecads.com
100
AcDbCircle
 10
11113.60563623792
 20
30199.85173778246
 30
0.0
 40
83.69977766529663
100
AcDbArc
 50
174.8244234952713
 51
176.7861830717668
  0
ARC
  5
B7EF
330
1F
100
AcDbEntity
  8
freecads.com
100
AcDbCircle
 10
11106.77755003979
 20
30200.47031478932
 30
0.0
 40
76.84372934063005
100
AcDbArc
 50
172.2497390141552
 51
174.8245030157411
  0
ARC
  5
B7F0
330
1F
100
AcDbEntity
  8
freecads.com
100
AcDbCircle
 10
11143.0146604541
 20
30195.53858815801
 30
0.0
 40
113.4148941940887
100
AcDbArc
 50
170.3265273775833
 51
172.2497869561699
  0
ARC
  5
B7F1
330
1F
100
AcDbEntity
  8
freecads.com
100
AcDbCircle
 10
10870.39980807881
 20
30242.00766664714
 30
0.0
 40
163.1320873320818
100
AcDbArc
 50
350.3265052365063
 51
352.464263359803
  0
ARC
  5
B7F2
330
1F
100
AcDbEntity
  8
freecads.com
100
AcDbCircle
 10
11008.81468950602
 20
30223.69716380055
 30
0.0
 40
23.51133702968654
100
AcDbArc
 50
352.4642682442871
 51
1.394678649076566
  0
ARC
  5
B7F3
330
1F
100
AcDbEntity
  8
freecads.com
100
AcDbCircle
 10
11005.8327298282
 20
30223.6245581738
 30
0.0
 40
26.49418048805738
100
AcDbArc
 50
1.39468992698266
 51
9.614711970715188
  0
ARC
  5
B7F4
330
1F
100
AcDbEntity
  8
freecads.com
100
AcDbCircle
 10
10794.93542546136
 20
30187.89815677335
 30
0.0
 40
240.3961410826794
100
AcDbArc
 50
9.614732696777524
 51
11.23869709127361
  0
ARC
  5
B7F5
330
1F
100
AcDbEntity
  8
freecads.com
100
AcDbCircle
 10
11706.0701301971
 20
30368.94777506923
 30
0.0
 40
688.5524120993876
100
AcDbArc
 50
190.4808324013163
 51
191.2387382097504
  0
ARC
  5
B7F6
330
1F
100
AcDbEntity
  8
freecads.com
100
AcDbCircle
 10
11091.17576042738
 20
30255.19663405874
 30
0.0
 40
63.22497142876304
100
AcDbArc
 50
186.1133921616681
 51
190.4808644383342
  0
ARC
  5
B7F7
330
1F
100
AcDbEntity
  8
freecads.com
100
AcDbCircle
 10
11048.92299641366
 20
30250.67114874862
 30
0.0
 40
20.73054727581798
100
AcDbArc
 50
178.4911117807293
 51
186.113451590737
  0
ARC
  5
B7F8
330
1F
100
AcDbEntity
  8
freecads.com
100
AcDbCircle
 10
11028.88638221911
 20
30251.19893700584
 30
0.0
 40
0.6869830013280502
100
AcDbArc
 50
90.00006743925931
 51
178.491166112998
  0
ARC
  5
B7F9
330
1F
100
AcDbEntity
  8
freecads.com
100
AcDbCircle
 10
11028.88638187545
 20
30252.12552031586
 30
0.0
 40
0.2396003086930668
100
AcDbArc
 50
269.9998888178689
 51
343.5017097793159
  0
ARC
  5
B7FA
330
1F
100
AcDbEntity
  8
freecads.com
100
AcDbCircle
 10
11028.52525687035
 20
30252.23247872236
 30
0.0
 40
0.6162319191892826
100
AcDbArc
 50
343.5017072382335
 51
20.13873778796508
  0
ARC
  5
B7FB
330
1F
100
AcDbEntity
  8
freecads.com
100
AcDbCircle
 10
11026.70244493244
 20
30251.56402414831
 30
0.0
 40
2.557745472730471
100
AcDbArc
 50
20.13878692265873
 51
35.70681275431004
  0
ARC
  5
B7FC
330
1F
100
AcDbEntity
  8
freecads.com
100
AcDbCircle
 10
11021.98401869584
 20
30248.17265815261
 30
0.0
 40
8.368503552956966
100
AcDbArc
 50
35.70671258051817
 51
42.14460595432239
  0
ARC
  5
B7FD
330
1F
100
AcDbEntity
  8
freecads.com
100
AcDbCircle
 10
11033.49448687429
 20
30258.58946177653
 30
0.0
 40
7.155692897306766
100
AcDbArc
 50
213.7371815433531
 51
222.144657659669
  0
ARC
  5
B7FE
330
1F
100
AcDbEntity
  8
freecads.com
100
AcDbCircle
 10
11033.46978109673
 20
30258.57296101912
 30
0.0
 40
7.125983463799268
100
AcDbArc
 50
205.303379058811
 51
213.7371756698026
  0
ARC
  5
B7FF
330
1F
100
AcDbEntity
  8
freecads.com
100
AcDbCircle
 10
11032.32483605244
 20
30258.03167478568
 30
0.0
 40
5.859535699036083
100
AcDbArc
 50
196.2920453791112
 51
205.3034623637335
  0
ARC
  5
B800
330
1F
100
AcDbEntity
  8
freecads.com
100
AcDbCircle
 10
11028.19920354344
 20
30256.82587425114
 30
0.0
 40
1.561303675480026
100
AcDbArc
 50
172.1929425435822
 51
196.2919434432871
  0
ARC
  5
B801
330
1F
100
AcDbEntity
  8
freecads.com
100
AcDbCircle
 10
11017.4302101229
 20
30258.30238535484
 30
0.0
 40
9.30843893100066
100
AcDbArc
 50
352.1929967651005
 51
3.549113627394893
  0
ARC
  5
B802
330
1F
100
AcDbEntity
  8
freecads.com
100
AcDbCircle
 10
11022.40766756036
 20
30258.61110774409
 30
0.0
 40
4.321416567370096
100
AcDbArc
 50
3.549044617026209
 51
23.70536459392228
  0
ARC
  5
B803
330
1F
100
AcDbEntity
  8
freecads.com
100
AcDbCircle
 10
11020.00971715702
 20
30257.55821510805
 30
0.0
 40
6.940337917828259
100
AcDbArc
 50
23.70535104927488
 51
38.5868041868813
  0
ARC
  5
B804
330
1F
100
AcDbEntity
  8
freecads.com
100
AcDbCircle
 10
10992.69199736079
 20
30235.76108224972
 30
0.0
 40
41.8884825854501
100
AcDbArc
 50
38.58678569400176
 51
42.52536816460479
  0
ARC
  5
B805
330
1F
100
AcDbEntity
  8
freecads.com
100
AcDbCircle
 10
11032.58381505511
 20
30272.3477129304
 30
0.0
 40
12.24042525056834
100
AcDbArc
 50
212.6694988380656
 51
222.5253973113164
  0
ARC
  5
B806
330
1F
100
AcDbEntity
  8
freecads.com
100
AcDbCircle
 10
11047.59683451997
 20
30281.97462586943
 30
0.0
 40
30.07489205471396
100
AcDbArc
 50
207.6337939327511
 51
212.6695115819411
  0
ARC
  5
B807
330
1F
100
AcDbEntity
  8
freecads.com
100
AcDbCircle
 10
11049.32390328068
 20
30282.87876347111
 30
0.0
 40
32.02431025129423
100
AcDbArc
 50
202.684816883551
 51
207.6337153408601
  0
ARC
  5
B808
330
1F
100
AcDbEntity
  8
freecads.com
100
AcDbCircle
 10
11039.51461666156
 20
30278.77849205869
 30
0.0
 40
21.3925498311534
100
AcDbArc
 50
195.9888168543384
 51
202.6847875691512
  0
ARC
  5
B809
330
1F
100
AcDbEntity
  8
freecads.com
100
AcDbCircle
 10
10984.83436988632
 20
30263.110714602
 30
0.0
 40
35.48810274802835
100
AcDbArc
 50
15.98884561362217
 51
23.8396496131443
  0
ARC
  5
B80A
330
1F
100
AcDbEntity
  8
freecads.com
100
AcDbCircle
 10
11006.66631904537
 20
30272.75778389967
 30
0.0
 40
11.61971465590384
100
AcDbArc
 50
23.83974026923824
 51
41.88558855743418
  0
ARC
  5
B80B
330
1F
100
AcDbEntity
  8
freecads.com
100
AcDbCircle
 10
11010.03072828422
 20
30275.77495774762
 30
0.0
 40
7.100578947045057
100
AcDbArc
 50
41.8856531304491
 51
66.0952576830922
  0
ARC
  5
B80C
330
1F
100
AcDbEntity
  8
freecads.com
100
AcDbCircle
 10
11009.98167448063
 20
30275.6642771506
 30
0.0
 40
7.221642856564782
100
AcDbArc
 50
66.09528703145588
 51
90.00002435808291
  0
ARC
  5
B80D
330
1F
100
AcDbEntity
  8
freecads.com
100
AcDbCircle
 10
11009.98167092251
 20
30273.20544731042
 30
0.0
 40
9.680472696745495
100
AcDbArc
 50
89.99999711173961
 51
111.5271170346651
  0
ARC
  5
B80E
330
1F
100
AcDbEntity
  8
freecads.com
100
AcDbCircle
 10
11009.16647121741
 20
30275.27210351367
 30
0.0
 40
7.458847520995163
100
AcDbArc
 50
111.5271735773098
 51
137.6994207296924
  0
ARC
  5
B80F
330
1F
100
AcDbEntity
  8
freecads.com
100
AcDbCircle
 10
11010.45355460448
 20
30274.10092623562
 30
0.0
 40
9.199031379634437
100
AcDbArc
 50
137.6994312334448
 51
160.7979609244318
  0
ARC
  5
B810
330
1F
100
AcDbEntity
  8
freecads.com
100
AcDbCircle
 10
11019.06399596299
 20
30271.10209311542
 30
0.0
 40
18.31674493463845
100
AcDbArc
 50
160.7979118952948
 51
174.5961450049066
  0
ARC
  5
B811
330
1F
100
AcDbEntity
  8
freecads.com
100
AcDbCircle
 10
10979.07203217829
 20
30274.8851958345
 30
0.0
 40
21.85375460844308
100
AcDbArc
 50
347.6211879861645
 51
354.5960554674416
  0
ARC
  5
B812
330
1F
100
AcDbEntity
  8
freecads.com
100
AcDbCircle
 10
10971.7299413612
 20
30276.4966379394
 30
0.0
 40
29.37060522712181
100
AcDbArc
 50
342.0327014034659
 51
347.6211406006515
  0
ARC
  5
B813
330
1F
100
AcDbEntity
  8
freecads.com
100
AcDbCircle
 10
10970.50319810662
 20
30276.89444130098
 30
0.0
 40
30.66023561096166
100
AcDbArc
 50
336.5546920849143
 51
342.0327293995588
  0
ARC
  5
B814
330
1F
100
AcDbEntity
  8
freecads.com
100
AcDbCircle
 10
10973.18704714414
 20
30275.73047157066
 30
0.0
 40
27.7348516724781
100
AcDbArc
 50
330.6488881148904
 51
336.5547753543946
  0
ARC
  5
B815
330
1F
100
AcDbEntity
  8
freecads.com
100
AcDbCircle
 10
10881.49692906106
 20
30327.2922155152
 30
0.0
 40
132.9284407960177
100
AcDbArc
 50
328.7473831951794
 51
330.6488718936138
  0
ARC
  5
B816
330
1F
100
AcDbEntity
  8
freecads.com
100
AcDbCircle
 10
10988.52695625589
 20
30262.33811448311
 30
0.0
 40
7.730749274911013
100
AcDbArc
 50
313.633376929171
 51
328.7473689735042
  0
ARC
  5
B817
330
1F
100
AcDbEntity
  8
freecads.com
100
AcDbCircle
 10
10993.29043460783
 20
30257.34180180945
 30
0.0
 40
0.8275712863081475
100
AcDbArc
 50
248.811948814552
 51
313.6333242997547
  0
ARC
  5
B818
330
1F
100
AcDbEntity
  8
freecads.com
100
AcDbCircle
 10
10993.44296634999
 20
30257.73529532409
 30
0.0
 40
1.249593890472959
100
AcDbArc
 50
200.9936603817104
 51
248.8119459812296
  0
ARC
  5
B819
330
1F
100
AcDbEntity
  8
freecads.com
100
AcDbCircle
 10
10990.99981471219
 20
30256.797769041
 30
0.0
 40
1.367264045441723
100
AcDbArc
 50
20.99359720423347
 51
55.72450803271392
  0
ARC
  5
B81A
330
1F
100
AcDbEntity
  8
freecads.com
100
AcDbCircle
 10
10982.50150922511
 20
30244.32827205922
 30
0.0
 40
16.45731212787714
100
AcDbArc
 50
55.72449407876056
 51
61.34087691153879
  0
ARC
  5
B81B
330
1F
100
AcDbEntity
  8
freecads.com
100
AcDbCircle
 10
10981.00085852253
 20
30241.58267332135
 30
0.0
 40
19.58625203785022
100
AcDbArc
 50
61.34081466475874
 51
67.10767795426288
  0
ARC
  5
B81C
330
1F
100
AcDbEntity
  8
freecads.com
100
AcDbCircle
 10
10978.07077724633
 20
30234.64367963026
 30
0.0
 40
27.11851661960322
100
AcDbArc
 50
67.10761702311225
 51
71.62629330948199
  0
ARC
  5
B81D
330
1F
100
AcDbEntity
  8
freecads.com
100
AcDbCircle
 10
10993.83828694037
 20
30282.11527785076
 30
0.0
 40
22.90314868214522
100
AcDbArc
 50
246.1301543154133
 51
251.6262867200108
  0
ARC
  5
B81E
330
1F
100
AcDbEntity
  8
freecads.com
100
AcDbCircle
 10
10993.0859100062
 20
30280.41503789187
 30
0.0
 40
21.0438781346265
100
AcDbArc
 50
240.2737494525752
 51
246.1301657299454
  0
ARC
  5
B81F
330
1F
100
AcDbEntity
  8
freecads.com
100
AcDbCircle
 10
10991.36878143538
 20
30277.40780455814
 30
0.0
 40
17.58093388844567
100
AcDbArc
 50
234.2556566869824
 51
240.2737676719898
  0
ARC
  5
B820
330
1F
100
AcDbEntity
  8
freecads.com
100
AcDbCircle
 10
10982.84983279634
 20
30265.57176498058
 30
0.0
 40
2.997919152255302
100
AcDbArc
 50
211.9851466847009
 51
234.2555544885672
  0
ARC
  5
B821
330
1F
100
AcDbEntity
  8
freecads.com
100
AcDbCircle
 10
10975.41904254366
 20
30260.93116117625
 30
0.0
 40
5.7628940205173
100
AcDbArc
 50
31.98522089900342
 51
40.99503608039912
  0
ARC
  5
B822
330
1F
100
AcDbEntity
  8
freecads.com
100
AcDbCircle
 10
10975.81896603892
 20
30261.2787638629
 30
0.0
 40
5.233020045229668
100
AcDbArc
 50
40.99490946392216
 51
50.68060543803944
  0
ARC
  5
B823
330
1F
100
AcDbEntity
  8
freecads.com
100
AcDbCircle
 10
10976.52653508824
 20
30262.14266122019
 30
0.0
 40
4.116340770152932
100
AcDbArc
 50
50.68048468593866
 51
61.29621112293846
  0
ARC
  5
B824
330
1F
100
AcDbEntity
  8
freecads.com
100
AcDbCircle
 10
10977.984674853
 20
30264.80558987532
 30
0.0
 40
1.08033013184632
100
AcDbArc
 50
61.29621229689945
 51
90.00002346804057
  0
ARC
  5
B825
330
1F
100
AcDbEntity
  8
freecads.com
100
AcDbCircle
 10
10977.9846751758
 20
30266.40988351074
 30
0.0
 40
0.523963503575364
100
AcDbArc
 50
198.9954517997643
 51
269.9999163148623
  0
ARC
  5
B826
330
1F
100
AcDbEntity
  8
freecads.com
100
AcDbCircle
 10
10985.673139182
 20
30269.05655705753
 30
0.0
 40
8.655221686536135
100
AcDbArc
 50
189.7616575782932
 51
198.995487764325
  0
ARC
  5
B827
330
1F
100
AcDbEntity
  8
freecads.com
100
AcDbCircle
 10
10993.76441512523
 20
30270.44858349634
 30
0.0
 40
16.86536687379102
100
AcDbArc
 50
182.7538050547791
 51
189.7616442028349
  0
ARC
  5
B828
330
1F
100
AcDbEntity
  8
freecads.com
100
AcDbCircle
 10
11035.99944241794
 20
30272.48003371244
 30
0.0
 40
59.14922100743558
100
AcDbArc
 50
180.0000200563852
 51
182.7537518761815
  0
ARC
  5
B829
330
1F
100
AcDbEntity
  8
freecads.com
100
AcDbCircle
 10
10941.23217688478
 20
30272.48001448844
 30
0.0
 40
35.61804452572089
100
AcDbArc
 50
359.9999976171044
 51
8.746189864984767
  0
ARC
  5
B82A
330
1F
100
AcDbEntity
  8
freecads.com
100
AcDbCircle
 10
10966.89044681447
 20
30276.42745761745
 30
0.0
 40
9.657899629331371
100
AcDbArc
 50
8.746164461010357
 51
31.83856883514899
  0
ARC
  5
B82B
330
1F
100
AcDbEntity
  8
freecads.com
100
AcDbCircle
 10
10969.98643263841
 20
30278.34993628597
 30
0.0
 40
6.013581798388091
100
AcDbArc
 50
31.83857153899738
 51
62.82438935074176
  0
ARC
  5
B82C
330
1F
100
AcDbEntity
  8
freecads.com
100
AcDbCircle
 10
10968.47413105024
 20
30275.4042218093
 30
0.0
 40
9.324818708011198
100
AcDbArc
 50
62.82441809536024
 51
85.13500878549974
  0
ARC
  5
B82D
330
1F
100
AcDbEntity
  8
freecads.com
100
AcDbCircle
 10
10968.15879585804
 20
30271.69937828031
 30
0.0
 40
13.04305778824797
100
AcDbArc
 50
85.13501619390913
 51
93.48847738369036
  0
ARC
  5
B82E
330
1F
100
AcDbEntity
  8
freecads.com
100
AcDbCircle
 10
10967.6973361702
 20
30279.26923442764
 30
0.0
 40
5.459149354283169
100
AcDbArc
 50
93.48852469915387
 51
109.501795474518
  0
ARC
  5
B82F
330
1F
100
AcDbEntity
  8
freecads.com
100
AcDbCircle
 10
10967.63083659648
 20
30279.45702267689
 30
0.0
 40
5.259934345252826
100
AcDbArc
 50
109.5018607352988
 51
125.8809083209363
  0
ARC
  5
B830
330
1F
100
AcDbEntity
  8
freecads.com
100
AcDbCircle
 10
10971.29536696935
 20
30274.39115346186
 30
0.0
 40
11.51227900603401
100
AcDbArc
 50
125.8810072847488
 51
134.9999718938466
  0
ARC
  5
B831
330
1F
100
AcDbEntity
  8
freecads.com
100
AcDbCircle
 10
10920.34295041963
 20
30225.22017607579
 30
0.0
 40
43.82309267819094
100
AcDbArc
 50
350.9392779949369
 51
355.3085830704151
  0
ARC
  5
B832
330
1F
100
AcDbEntity
  8
freecads.com
100
AcDbCircle
 10
10868.9099923044
 20
30233.42239016471
 30
0.0
 40
95.9059641085672
100
AcDbArc
 50
348.5065029984338
 51
350.9391904291416
  0
ARC
  5
B833
330
1F
100
AcDbEntity
  8
freecads.com
100
AcDbCircle
 10
10867.22620117701
 20
30233.76490854718
 30
0.0
 40
97.62423980904031
100
AcDbArc
 50
346.082668610506
 51
348.5064189027089
  0
ARC
  5
B834
330
1F
100
AcDbEntity
  8
freecads.com
100
AcDbCircle
 10
10911.03462751805
 20
30222.90939030654
 30
0.0
 40
52.49087637633734
100
AcDbArc
 50
342.2260724037102
 51
346.0826310462345
  0
ARC
  5
B835
330
1F
100
AcDbEntity
  8
freecads.com
100
AcDbCircle
 10
11059.15016241488
 20
30175.42901606173
 30
0.0
 40
103.0488215023812
100
AcDbArc
 50
162.2260643341818
 51
164.397051073377
  0
ARC
  5
B836
330
1F
100
AcDbEntity
  8
freecads.com
100
AcDbCircle
 10
11318.21828756258
 20
30103.0818946313
 30
0.0
 40
372.0291171501813
100
AcDbArc
 50
164.3971062964638
 51
165.2322458821635
  0
ARC
  5
B837
330
1F
100
AcDbEntity
  8
freecads.com
100
AcDbCircle
 10
11352.86795179716
 20
30093.94778260136
 30
0.0
 40
407.8624987116355
100
AcDbArc
 50
165.2322275758084
 51
166.0588874976158
  0
ARC
  5
B838
330
1F
100
AcDbEntity
  8
freecads.com
100
AcDbCircle
 10
11257.31800128357
 20
30117.66638744128
 30
0.0
 40
309.4126878509185
100
AcDbArc
 50
166.0588172337783
 51
167.0756960556421
  0
ARC
  5
B839
330
1F
100
AcDbEntity
  8
freecads.com
100
AcDbCircle
 10
10819.21336574732
 20
30218.20144928836
 30
0.0
 40
140.0792145666566
100
AcDbArc
 50
344.8980230966318
 51
347.0756555478296
  0
ARC
  5
B83A
330
1F
100
AcDbEntity
  8
freecads.com
100
AcDbCircle
 10
10813.0586973677
 20
30219.86240923157
 30
0.0
 40
146.4540659995168
100
AcDbArc
 50
342.7918611493431
 51
344.8979947137069
  0
ARC
  5
B83B
330
1F
100
AcDbEntity
  8
freecads.com
100
AcDbCircle
 10
10829.14520093642
 20
30214.88029246287
 30
0.0
 40
129.613725012365
100
AcDbArc
 50
340.6967308005421
 51
342.7918644994735
  0
ARC
  5
B83C
330
1F
100
AcDbEntity
  8
freecads.com
100
AcDbCircle
 10
10929.90994303219
 20
30179.58649239374
 30
0.0
 40
22.84675646431796
100
AcDbArc
 50
333.1268980671393
 51
340.6968125774457
  0
ARC
  5
B83D
330
1F
100
AcDbEntity
  8
freecads.com
100
AcDbCircle
 10
10971.94410606653
 20
30158.28613440819
 30
0.0
 40
24.27623274806449
100
AcDbArc
 50
153.126863496716
 51
159.4307883273117
  0
ARC
  5
B83E
330
1F
100
AcDbEntity
  8
freecads.com
100
AcDbCircle
 10
11005.6104440739
 20
30145.65235500697
 30
0.0
 40
60.23502439605195
100
AcDbArc
 50
159.4307193149448
 51
162.6283038632849
  0
ARC
  5
B83F
330
1F
100
AcDbEntity
  8
freecads.com
100
AcDbCircle
 10
11008.30142903906
 20
30144.81053547194
 30
0.0
 40
63.05460950945777
100
AcDbArc
 50
162.628325002267
 51
165.7945175153136
  0
ARC
  5
B840
330
1F
100
AcDbEntity
  8
freecads.com
100
AcDbCircle
 10
10984.39633894554
 20
30150.86192742567
 30
0.0
 40
38.39547982176659
100
AcDbArc
 50
165.7945758053897
 51
170.3856453542276
  0
ARC
  5
B841
330
1F
100
AcDbEntity
  8
freecads.com
100
AcDbCircle
 10
10874.83272025648
 20
30169.42142251455
 30
0.0
 40
72.72896122608265
100
AcDbArc
 50
348.2146896707874
 51
350.3856764097551
  0
ARC
  5
B842
330
1F
100
AcDbEntity
  8
freecads.com
100
AcDbCircle
 10
10897.51392395854
 20
30164.689191075
 30
0.0
 40
49.5593471643781
100
AcDbArc
 50
345.3206621093255
 51
348.2146327002313
  0
ARC
  5
B843
330
1F
100
AcDbEntity
  8
freecads.com
100
AcDbCircle
 10
10894.84285978407
 20
30165.38895313532
 30
0.0
 40
52.32055174986691
100
AcDbArc
 50
343.0506236016295
 51
345.3206081526541
  0
ARC
  5
B844
330
1F
100
AcDbEntity
  8
freecads.com
100
AcDbCircle
 10
10943.17655271849
 20
30150.65854760886
 30
0.0
 40
1.792037823047555
100
AcDbArc
 50
316.9798544079793
 51
343.0505293395662
  0
ARC
  5
B845
330
1F
100
AcDbEntity
  8
freecads.com
100
AcDbCircle
 10
10945.982860588
 20
30148.03977748205
 30
0.0
 40
2.046362994424015
100
AcDbArc
 50
136.9798473275604
 51
153.807792028639
  0
ARC
  5
B846
330
1F
100
AcDbEntity
  8
freecads.com
100
AcDbCircle
 10
10948.85972077565
 20
30146.62467818068
 30
0.0
 40
5.252424530327576
100
AcDbArc
 50
153.8078455357269
 51
162.1322389864341
  0
ARC
  5
B847
330
1F
100
AcDbEntity
  8
freecads.com
100
AcDbCircle
 10
10949.39767309277
 20
30146.45126342576
 30
0.0
 40
5.817637209502267
100
AcDbArc
 50
162.1322849061051
 51
170.1669019882972
  0
ARC
  5
B848
330
1F
100
AcDbEntity
  8
freecads.com
100
AcDbCircle
 10
10948.0438538131
 20
30146.68591757001
 30
0.0
 40
4.443632402597709
100
AcDbArc
 50
170.1669461535031
 51
179.9999685754602
  0
ARC
  5
B849
330
1F
100
AcDbEntity
  8
freecads.com
100
AcDbCircle
 10
10941.76195291003
 20
30146.68592064611
 30
0.0
 40
1.838268500476599
100
AcDbArc
 50
314.9114428238864
 51
359.9999800855629
  0
ARC
  5
B84A
330
1F
100
AcDbEntity
  8
freecads.com
100
AcDbCircle
 10
10941.93916835366
 20
30146.5081589766
 30
0.0
 40
1.587261479453641
100
AcDbArc
 50
264.614523306279
 51
314.9113807410385
  0
ARC
  5
B84B
330
1F
100
AcDbEntity
  8
freecads.com
100
AcDbCircle
 10
10942.05531277841
 20
30147.74019787454
 30
0.0
 40
2.824762741441104
100
AcDbArc
 50
229.5972720280645
 51
264.6145729951772
  0
ARC
  5
B84C
330
1F
100
AcDbEntity
  8
freecads.com
100
AcDbCircle
 10
10942.99560805684
 20
30148.8449340948
 30
0.0
 40
4.275485777378421
100
AcDbArc
 50
203.920537215946
 51
229.5972683670573
  0
ARC
  5
B84D
330
1F
100
AcDbEntity
  8
freecads.com
100
AcDbCircle
 10
10934.86048508273
 20
30145.23645938717
 30
0.0
 40
4.624026317089622
100
AcDbArc
 50
23.92048374010769
 51
38.73255718619632
  0
ARC
  5
B84E
330
1F
100
AcDbEntity
  8
freecads.com
100
AcDbCircle
 10
10925.22901579761
 20
30137.51116699912
 30
0.0
 40
16.97090215961
100
AcDbArc
 50
38.73266447569299
 51
44.36233192916648
  0
ARC
  5
B84F
330
1F
100
AcDbEntity
  8
freecads.com
100
AcDbCircle
 10
10923.54209417219
 20
30135.86133296775
 30
0.0
 40
19.33049045003438
100
AcDbArc
 50
44.36243682577527
 51
49.82558572413324
  0
ARC
  5
B850
330
1F
100
AcDbEntity
  8
freecads.com
100
AcDbCircle
 10
10925.37024424182
 20
30138.02658726508
 30
0.0
 40
16.49668402601783
100
AcDbArc
 50
49.82565234499687
 51
55.97842800981661
  0
ARC
  5
B851
330
1F
100
AcDbEntity
  8
freecads.com
100
AcDbCircle
 10
10923.9379531662
 20
30135.90479085868
 30
0.0
 40
19.05666014202487
100
AcDbArc
 50
55.97853087552308
 51
62.80250352230935
  0
ARC
  5
B852
330
1F
100
AcDbEntity
  8
freecads.com
100
AcDbCircle
 10
10929.25909281972
 20
30146.25969725718
 30
0.0
 40
7.414554931467101
100
AcDbArc
 50
62.8025899244159
 51
76.61132726070722
  0
ARC
  5
B853
330
1F
100
AcDbEntity
  8
freecads.com
100
AcDbCircle
 10
10929.28461894377
 20
30146.36691657226
 30
0.0
 40
7.304338941201371
100
AcDbArc
 50
76.61136754577817
 51
90.54752107855227
  0
ARC
  5
B854
330
1F
100
AcDbEntity
  8
freecads.com
100
AcDbCircle
 10
10929.38793190372
 20
30135.55826129396
 30
0.0
 40
18.11348795917727
100
AcDbArc
 50
90.54759007551336
 51
97.61953996627282
  0
ARC
  5
B855
330
1F
100
AcDbEntity
  8
freecads.com
100
AcDbCircle
 10
10922.67433590933
 20
30185.74333175747
 30
0.0
 40
32.51865270864512
100
AcDbArc
 50
273.5392369887589
 51
277.6196403897279
  0
ARC
  5
B856
330
1F
100
AcDbEntity
  8
freecads.com
100
AcDbCircle
 10
10924.47106987562
 20
30156.69342726988
 30
0.0
 40
3.413237341676347
100
AcDbArc
 50
252.1564330676641
 51
273.5392933979825
  0
ARC
  5
B857
330
1F
100
AcDbEntity
  8
freecads.com
100
AcDbCircle
 10
10923.9673168228
 20
30155.12850985266
 30
0.0
 40
1.76923805306884
100
AcDbArc
 50
219.0630872595763
 51
252.1564365190816
  0
ARC
  5
B858
330
1F
100
AcDbEntity
  8
freecads.com
100
AcDbCircle
 10
10926.55793450401
 20
30157.23107858599
 30
0.0
 40
5.105717522295299
100
AcDbArc
 50
204.046996569766
 51
219.063093276624
  0
ARC
  5
B859
330
1F
100
AcDbEntity
  8
freecads.com
100
AcDbCircle
 10
10924.68314950746
 20
30156.39452847113
 30
0.0
 40
3.052759929463262
100
AcDbArc
 50
178.8015139038359
 51
204.0470177074
  0
ARC
  5
B85A
330
1F
100
AcDbEntity
  8
freecads.com
100
AcDbCircle
 10
10922.91007971157
 20
30156.43162160098
 30
0.0
 40
1.279302176551089
100
AcDbArc
 50
130.5207943392237
 51
178.801490702004
  0
ARC
  5
B85B
330
1F
100
AcDbEntity
  8
freecads.com
100
AcDbCircle
 10
10925.80087709974
 20
30153.04941968347
 30
0.0
 40
5.728571706516042
100
AcDbArc
 50
113.1978259836261
 51
130.5207980694175
  0
ARC
  5
B85C
330
1F
100
AcDbEntity
  8
freecads.com
100
AcDbCircle
 10
10984.05187573901
 20
30017.12523146676
 30
0.0
 40
153.6088063048
100
AcDbArc
 50
111.5981270394149
 51
113.1977992249077
  0
ARC
  5
B85D
330
1F
100
AcDbEntity
  8
freecads.com
100
AcDbCircle
 10
10916.58912386952
 20
30187.53296962513
 30
0.0
 40
29.66699710104204
100
AcDbArc
 50
291.5981253805213
 51
301.475069647546
  0
ARC
  5
B85E
330
1F
100
AcDbEntity
  8
freecads.com
100
AcDbCircle
 10
10925.4509029831
 20
30173.05772047938
 30
0.0
 40
12.69454981464915
100
AcDbArc
 50
301.4750836710231
 51
320.1007049808199
  0
ARC
  5
B85F
330
1F
100
AcDbEntity
  8
freecads.com
100
AcDbCircle
 10
10927.69589683832
 20
30171.18065692466
 30
0.0
 40
9.768227037096419
100
AcDbArc
 50
320.1007241717477
 51
341.8549898297544
  0
ARC
  5
B860
330
1F
100
AcDbEntity
  8
freecads.com
100
AcDbCircle
 10
10925.12485401169
 20
30172.02324109903
 30
0.0
 40
12.4738155696121
100
AcDbArc
 50
341.8549821918146
 51
359.9661975979847
  0
ARC
  5
B861
330
1F
100
AcDbEntity
  8
freecads.com
100
AcDbCircle
 10
10944.26698550139
 20
30172.01194087657
 30
0.0
 40
6.66831925553344
100
AcDbArc
 50
166.6175841729749
 51
179.96613686978
  0
ARC
  5
B862
330
1F
100
AcDbEntity
  8
freecads.com
100
AcDbCircle
 10
10938.79455667434
 20
30173.31388117082
 30
0.0
 40
1.04315029835229
100
AcDbArc
 50
114.1364819144343
 51
166.6175061459858
  0
ARC
  5
B863
330
1F
100
AcDbEntity
  8
freecads.com
100
AcDbCircle
 10
10939.66395915022
 20
30171.37362623181
 30
0.0
 40
3.169285264292313
100
AcDbArc
 50
90.46302571145742
 51
114.1365059304862
  0
ARC
  5
B864
330
1F
100
AcDbEntity
  8
freecads.com
100
AcDbCircle
 10
10940.55013725896
 20
30061.73835842876
 30
0.0
 40
112.8081344824764
100
AcDbArc
 50
88.66520269595465
 51
90.46310737425901
  0
ARC
  5
B865
330
1F
100
AcDbEntity
  8
freecads.com
100
AcDbCircle
 10
10943.75322369564
 20
30199.20532065339
 30
0.0
 40
24.69613987286735
100
AcDbArc
 50
268.6652188452267
 51
278.4520310458425
  0
ARC
  5
B866
330
1F
100
AcDbEntity
  8
freecads.com
100
AcDbCircle
 10
10946.74013482018
 20
30179.1043379604
 30
0.0
 40
4.374448425311435
100
AcDbArc
 50
278.4520085605642
 51
313.6763643586428
  0
ARC
  5
B867
330
1F
100
AcDbEntity
  8
freecads.com
100
AcDbCircle
 10
10945.72733993353
 20
30180.16504366749
 30
0.0
 40
5.841026101221267
100
AcDbArc
 50
313.6763594982694
 51
342.5937952646529
  0
ARC
  5
B868
330
1F
100
AcDbEntity
  8
freecads.com
100
AcDbCircle
 10
10900.28408309924
 20
30194.4115280023
 30
0.0
 40
53.4650946759385
100
AcDbArc
 50
342.5937684635692
 51
348.2719931735155
  0
ARC
  5
B869
330
1F
100
AcDbEntity
  8
freecads.com
100
AcDbCircle
 10
10905.78864700512
 20
30193.26874354689
 30
0.0
 40
47.84315727820762
100
AcDbArc
 50
348.2720373797379
 51
352.1554028021202
  0
ARC
  5
B86A
330
1F
100
AcDbEntity
  8
freecads.com
100
AcDbCircle
 10
10944.82442773489
 20
30187.89054694268
 30
0.0
 40
8.438624849869249
100
AcDbArc
 50
352.1554172126711
 51
6.179934982444499
  0
ARC
  5
B86B
330
1F
100
AcDbEntity
  8
freecads.com
100
AcDbCircle
 10
10945.54991791736
 20
30187.96910633263
 30
0.0
 40
7.708893678404161
100
AcDbArc
 50
6.179912883942935
 51
21.07209224352945
  0
ARC
  5
B86C
330
1F
100
AcDbEntity
  8
freecads.com
100
AcDbCircle
 10
10919.27112706774
 20
30177.84367470301
 30
0.0
 40
35.8709109038179
100
AcDbArc
 50
21.07208205476939
 51
25.83130201370007
  0
ARC
  5
B86D
330
1F
100
AcDbEntity
  8
freecads.com
100
AcDbCircle
 10
10977.01144332179
 20
30205.79533099426
 30
0.0
 40
28.27921934190773
100
AcDbArc
 50
200.1079011039776
 51
205.8312469585678
  0
ARC
  5
B86E
330
1F
100
AcDbEntity
  8
freecads.com
100
AcDbCircle
 10
10960.85321877109
 20
30199.8797342516
 30
0.0
 40
11.07217120887018
100
AcDbArc
 50
188.5800988158633
 51
200.1079035471933
  0
ARC
  5
B86F
330
1F
100
AcDbEntity
  8
freecads.com
100
AcDbCircle
 10
10962.15470806834
 20
30200.07609363169
 30
0.0
 40
12.38838980656717
100
AcDbArc
 50
177.8316890322192
 51
188.5800531116674
  0
ARC
  5
B870
330
1F
100
AcDbEntity
  8
freecads.com
100
AcDbCircle
 10
10991.14765573531
 20
30198.97833477661
 30
0.0
 40
41.4021122310172
100
AcDbArc
 50
173.4557112467985
 51
177.8316602136082
  0
ARC
  5
B871
330
1F
100
AcDbEntity
  8
freecads.com
100
AcDbCircle
 10
12752.50422254443
 20
29996.91529718833
 30
0.0
 40
1814.311141651561
100
AcDbArc
 50
173.3359989701996
 51
173.4556325467968
  0
ARC
  5
B872
330
1F
100
AcDbEntity
  8
freecads.com
100
AcDbCircle
 10
11887.24136977627
 20
30098.00922775977
 30
0.0
 40
943.1625968103947
100
AcDbArc
 50
173.1407357874982
 51
173.3359997569594
  0
ARC
  5
B873
330
1F
100
AcDbEntity
  8
freecads.com
100
AcDbCircle
 10
11623.40978196672
 20
30129.74667557754
 30
0.0
 40
677.4289476058657
100
AcDbArc
 50
172.9111469022936
 51
173.1407883096986
  0
ARC
  5
B874
330
1F
100
AcDbEntity
  8
freecads.com
100
AcDbCircle
 10
11267.41003497202
 20
30174.01877748708
 30
0.0
 40
318.6869248826174
100
AcDbArc
 50
172.5076132989798
 51
172.9112043527159
  0
ARC
  5
B875
330
1F
100
AcDbEntity
  8
freecads.com
100
AcDbCircle
 10
10952.6034322587
 20
30215.42129647055
 30
0.0
 40
1.1694203414081
100
AcDbArc
 50
138.1233927912208
 51
172.5075335622226
  0
ARC
  5
B876
330
1F
100
AcDbEntity
  8
freecads.com
100
AcDbCircle
 10
10967.47881595834
 20
30202.08535624725
 30
0.0
 40
21.14751689365293
100
AcDbArc
 50
133.946344894821
 51
138.1234321853108
  0
ARC
  5
B877
330
1F
100
AcDbEntity
  8
freecads.com
100
AcDbCircle
 10
10968.87400601086
 20
30200.63790416686
 30
0.0
 40
23.15790810123381
100
AcDbArc
 50
129.2840622810126
 51
133.9463787347847
  0
ARC
  5
B878
330
1F
100
AcDbEntity
  8
freecads.com
100
AcDbCircle
 10
10975.40741439372
 20
30192.65110063997
 30
0.0
 40
33.47655412066066
100
AcDbArc
 50
125.746894576752
 51
129.2840551248865
  0
ARC
  5
B879
330
1F
100
AcDbEntity
  8
freecads.com
100
AcDbCircle
 10
10939.82825614529
 20
30242.07930363199
 30
0.0
 40
27.4252008022154
100
AcDbArc
 50
305.7469132331641
 51
310.4573380205533
  0
ARC
  5
B87A
330
1F
100
AcDbEntity
  8
freecads.com
100
AcDbCircle
 10
10932.65990800921
 20
30250.4850174129
 30
0.0
 40
38.47242847103173
100
AcDbArc
 50
310.4573468861977
 51
314.1122785546006
  0
ARC
  5
B87B
330
1F
100
AcDbEntity
  8
freecads.com
100
AcDbCircle
 10
10934.79182565799
 20
30248.28602364863
 30
0.0
 40
35.40964437221293
100
AcDbArc
 50
314.1122431676324
 51
317.8292673966435
  0
ARC
  5
B87C
330
1F
100
AcDbEntity
  8
freecads.com
100
AcDbCircle
 10
10952.35600491968
 20
30232.37614923395
 30
0.0
 40
11.71102633176284
100
AcDbArc
 50
317.8292321529888
 51
326.3104050929375
  0
ARC
  5
B87D
330
1F
100
AcDbEntity
  8
freecads.com
100
AcDbCircle
 10
11014.7318180801
 20
30190.79297555715
 30
0.0
 40
63.25498196838958
100
AcDbArc
 50
145.0489627227989
 51
146.3103738669157
  0
ARC
  5
B87E
330
1F
100
AcDbEntity
  8
freecads.com
100
AcDbCircle
 10
10991.32638395584
 20
30207.15186022879
 30
0.0
 40
34.69929156797176
100
AcDbArc
 50
143.0716378323655
 51
145.0489807097573
  0
ARC
  5
B87F
330
1F
100
AcDbEntity
  8
freecads.com
100
AcDbCircle
 10
11020.95992285948
 20
30184.87948397034
 30
0.0
 40
71.76956769521597
100
AcDbArc
 50
142.2615178266771
 51
143.0716767744066
  0
ARC
  5
B880
330
1F
100
AcDbEntity
  8
freecads.com
100
AcDbCircle
 10
10964.35940723402
 20
30228.68608961837
 30
0.0
 40
0.1969677182034386
100
AcDbArc
 50
90.6410818096678
 51
142.2616435962101
  0
ARC
  5
B881
330
1F
100
AcDbEntity
  8
freecads.com
100
AcDbCircle
 10
10964.35827012077
 20
30228.78771487041
 30
0.0
 40
0.0953361046316372
100
AcDbArc
 50
357.6116684177514
 51
90.64109260695207
  0
ARC
  5
B882
330
1F
100
AcDbEntity
  8
freecads.com
100
AcDbCircle
 10
10552.14227545858
 20
30245.9803098138
 30
0.0
 40
412.6697070685053
100
AcDbArc
 50
357.3298119803214
 51
357.6117070733304
  0
ARC
  5
B883
330
1F
100
AcDbEntity
  8
freecads.com
100
AcDbCircle
 10
10858.37792252483
 20
30231.69835936978
 30
0.0
 40
106.1012063340769
100
AcDbArc
 50
356.0642401004064
 51
357.3297764152581
  0
ARC
  5
B884
330
1F
100
AcDbEntity
  8
freecads.com
100
AcDbCircle
 10
10753.33859161607
 20
30238.9252115516
 30
0.0
 40
211.3888524764842
100
AcDbArc
 50
355.3085926995034
 51
356.064206701754
  0
ARC
  5
B885
330
1F
100
AcDbEntity
  8
freecads.com
100
AcDbCircle
 10
10944.92795407415
 20
30209.94792772776
 30
0.0
 40
3.307386173940444
100
AcDbArc
 50
348.6494502911757
 51
17.60883808048181
  0
ARC
  5
B886
330
1F
100
AcDbEntity
  8
freecads.com
100
AcDbCircle
 10
10938.49478092049
 20
30211.23930573073
 30
0.0
 40
9.868893163315021
100
AcDbArc
 50
335.8308725247218
 51
348.6494515810187
  0
ARC
  5
B887
330
1F
100
AcDbEntity
  8
freecads.com
100
AcDbCircle
 10
10939.2122863778
 20
30210.91730759577
 30
0.0
 40
9.082447437163088
100
AcDbArc
 50
322.7920804560565
 51
335.83088968817
  0
ARC
  5
B888
330
1F
100
AcDbEntity
  8
freecads.com
100
AcDbCircle
 10
10945.35967534304
 20
30206.2498434515
 30
0.0
 40
1.363923444322286
100
AcDbArc
 50
269.9999608258386
 51
322.7921659172209
  0
ARC
  5
B889
330
1F
100
AcDbEntity
  8
freecads.com
100
AcDbCircle
 10
10945.3596745681
 20
30205.48237941748
 30
0.0
 40
0.5964594103081917
100
AcDbArc
 50
185.4184894385682
 51
269.9999848612551
  0
ARC
  5
B88A
330
1F
100
AcDbEntity
  8
freecads.com
100
AcDbCircle
 10
10978.61270625234
 20
30208.63658380307
 30
0.0
 40
33.99875156966175
100
AcDbArc
 50
180.7248557542459
 51
185.4185572153944
  0
ARC
  5
B88B
330
1F
100
AcDbEntity
  8
freecads.com
100
AcDbCircle
 10
10974.43582803855
 20
30208.58377304658
 30
0.0
 40
29.82153951046864
100
AcDbArc
 50
175.3016280235483
 51
180.7249215496914
  0
ARC
  5
B88C
330
1F
100
AcDbEntity
  8
freecads.com
100
AcDbCircle
 10
10946.61595692343
 20
30210.87018494585
 30
0.0
 40
1.907870668219327
100
AcDbArc
 50
135.0000095901466
 51
175.3015673721088
  0
ARC
  5
B88D
330
1F
100
AcDbEntity
  8
freecads.com
100
AcDbCircle
 10
10947.1070651761
 20
30210.37907537766
 30
0.0
 40
2.602403549944782
100
AcDbArc
 50
112.5786162794659
 51
134.9999865505219
  0
ARC
  5
B88E
330
1F
100
AcDbEntity
  8
freecads.com
100
AcDbCircle
 10
10946.47911676779
 20
30211.88920991903
 30
0.0
 40
0.966914162477378
100
AcDbArc
 50
65.69242005507499
 51
112.5785489130392
  0
ARC
  5
B88F
330
1F
100
AcDbEntity
  8
freecads.com
100
AcDbCircle
 10
10946.27283445645
 20
30211.43250891302
 30
0.0
 40
1.468041093363874
100
AcDbArc
 50
29.87940977561409
 51
65.69237882808707
  0
ARC
  5
B890
330
1F
100
AcDbEntity
  8
freecads.com
100
AcDbCircle
 10
10942.15972225745
 20
30209.06933136616
 30
0.0
 40
6.211700027093561
100
AcDbArc
 50
17.60876336520171
 51
29.87940649689071
  0
ARC
  5
B891
330
1F
100
AcDbEntity
  8
freecads.com
100
AcDbCircle
 10
10985.45596904318
 20
30210.54332678825
 30
0.0
 40
10.69185100202565
100
AcDbArc
 50
324.1511350892986
 51
329.7972937435265
  0
ARC
  5
B892
330
1F
100
AcDbEntity
  8
freecads.com
100
AcDbCircle
 10
10993.9802729798
 20
30204.38434755348
 30
0.0
 40
0.1753504995699686
100
AcDbArc
 50
219.2471944980427
 51
324.1508650512537
  0
ARC
  5
B893
330
1F
100
AcDbEntity
  8
freecads.com
100
AcDbCircle
 10
10994.43803356555
 20
30204.75831897635
 30
0.0
 40
0.7664506425086666
100
AcDbArc
 50
182.167728002758
 51
219.2473515215043
  0
ARC
  5
B894
330
1F
100
AcDbEntity
  8
freecads.com
100
AcDbCircle
 10
11055.85072003901
 20
30207.08288018671
 30
0.0
 40
62.22311541295884
100
AcDbArc
 50
180.5650443127311
 51
182.1676957332458
  0
ARC
  5
B895
330
1F
100
AcDbEntity
  8
freecads.com
100
AcDbCircle
 10
11007.37850919116
 20
30206.60483181689
 30
0.0
 40
13.74854728984729
100
AcDbArc
 50
175.4081255368781
 51
180.5650211133892
  0
ARC
  5
B896
330
1F
100
AcDbEntity
  8
freecads.com
100
AcDbCircle
 10
11004.85147997353
 20
30206.80777559411
 30
0.0
 40
11.21338204017301
100
AcDbArc
 50
169.3995548079894
 51
175.4080467271474
  0
ARC
  5
B897
330
1F
100
AcDbEntity
  8
freecads.com
100
AcDbCircle
 10
11002.92407762978
 20
30207.16849625232
 30
0.0
 40
9.252515092123564
100
AcDbArc
 50
163.3031277559662
 51
169.3995646276409
  0
ARC
  5
B898
330
1F
100
AcDbEntity
  8
freecads.com
100
AcDbCircle
 10
10995.18828832911
 20
30209.4888853009
 30
0.0
 40
1.176213869343546
100
AcDbArc
 50
135.4396971439796
 51
163.3031898648287
  0
ARC
  5
B899
330
1F
100
AcDbEntity
  8
freecads.com
100
AcDbCircle
 10
10994.64891935088
 20
30210.02003931382
 30
0.0
 40
0.419217515239491
100
AcDbArc
 50
29.2965518304291
 51
135.4397516257646
  0
ARC
  5
B89A
330
1F
100
AcDbEntity
  8
freecads.com
100
AcDbCircle
 10
10992.3407772124
 20
30208.7249542946
 30
0.0
 40
3.06586923740518
100
AcDbArc
 50
3.846143097051848
 51
29.29653075567274
  0
ARC
  5
B89B
330
1F
100
AcDbEntity
  8
freecads.com
100
AcDbCircle
 10
10986.31520933462
 20
30208.31986280491
 30
0.0
 40
9.105038664133253
100
AcDbArc
 50
350.669583975522
 51
3.846139066317896
  0
ARC
  5
B89C
330
1F
100
AcDbEntity
  8
freecads.com
100
AcDbCircle
 10
10990.44018907904
 20
30207.64212609697
 30
0.0
 40
4.924753394305194
100
AcDbArc
 50
329.7972955890369
 51
350.6695457057763
  0
ARC
  5
B89D
330
1F
100
AcDbEntity
  8
freecads.com
100
AcDbCircle
 10
10935.37652031173
 20
30205.77982900256
 30
0.0
 40
6.947427805086878
100
AcDbArc
 50
336.5585882192307
 51
345.9107113686004
  0
ARC
  5
B89E
330
1F
100
AcDbEntity
  8
freecads.com
100
AcDbCircle
 10
10933.05964103775
 20
30206.78443706149
 30
0.0
 40
9.472733117740251
100
AcDbArc
 50
329.1458650843996
 51
336.5584989619581
  0
ARC
  5
B89F
330
1F
100
AcDbEntity
  8
freecads.com
100
AcDbCircle
 10
10933.76120270074
 20
30206.36532857579
 30
0.0
 40
8.655517913673682
100
AcDbArc
 50
321.5097604365003
 51
329.1458360013737
  0
ARC
  5
B8A0
330
1F
100
AcDbEntity
  8
freecads.com
100
AcDbCircle
 10
10937.87279667528
 20
30203.09597442515
 30
0.0
 40
3.402530042613448
100
AcDbArc
 50
306.1749674493896
 51
321.5096030331588
  0
ARC
  5
B8A1
330
1F
100
AcDbEntity
  8
freecads.com
100
AcDbCircle
 10
10941.78980558834
 20
30197.73914992507
 30
0.0
 40
3.233623025968465
100
AcDbArc
 50
126.1749526186087
 51
139.7427632785698
  0
ARC
  5
B8A2
330
1F
100
AcDbEntity
  8
freecads.com
100
AcDbCircle
 10
10941.16228944706
 20
30198.27051437309
 30
0.0
 40
2.411355013591565
100
AcDbArc
 50
139.7427042868771
 51
156.6483779044673
  0
ARC
  5
B8A3
330
1F
100
AcDbEntity
  8
freecads.com
100
AcDbCircle
 10
10940.52269403371
 20
30198.54665473325
 30
0.0
 40
1.71469455736624
100
AcDbArc
 50
156.648489889536
 51
176.9405694934634
  0
ARC
  5
B8A4
330
1F
100
AcDbEntity
  8
freecads.com
100
AcDbCircle
 10
10939.64331713514
 20
30198.59365412119
 30
0.0
 40
0.8340625841787034
100
AcDbArc
 50
176.9404667002652
 51
211.717511887743
  0
ARC
  5
B8A5
330
1F
100
AcDbEntity
  8
freecads.com
100
AcDbCircle
 10
10937.18197493407
 20
30197.07246003849
 30
0.0
 40
2.059419205641809
100
AcDbArc
 50
323.1557107979171
 51
31.71748158625778
  0
ARC
  5
B8A6
330
1F
100
AcDbEntity
  8
freecads.com
100
AcDbCircle
 10
10882.97969373277
 20
30237.68639810993
 30
0.0
 40
69.78961375057541
100
AcDbArc
 50
317.7488650294607
 51
323.1556665815258
  0
ARC
  5
B8A7
330
1F
100
AcDbEntity
  8
freecads.com
100
AcDbCircle
 10
10888.25203861164
 20
30232.89712773359
 30
0.0
 40
62.66678206231975
100
AcDbArc
 50
311.6721367712397
 51
317.7488777931577
  0
ARC
  5
B8A8
330
1F
100
AcDbEntity
  8
freecads.com
100
AcDbCircle
 10
10926.8422211764
 20
30189.54202375517
 30
0.0
 40
4.624838337451019
100
AcDbArc
 50
270.8302861165234
 51
311.6721533761866
  0
ARC
  5
B8A9
330
1F
100
AcDbEntity
  8
freecads.com
100
AcDbCircle
 10
10926.86613998268
 20
30187.89181151868
 30
0.0
 40
2.974452765918409
100
AcDbArc
 50
222.3597613439405
 51
270.8302180689749
  0
ARC
  5
B8AA
330
1F
100
AcDbEntity
  8
freecads.com
100
AcDbCircle
 10
10926.08352440347
 20
30187.17819095308
 30
0.0
 40
1.915329800224586
100
AcDbArc
 50
155.3191357787348
 51
222.3597259527573
  0
ARC
  5
B8AB
330
1F
100
AcDbEntity
  8
freecads.com
100
AcDbCircle
 10
10941.32680510726
 20
30180.17320883425
 30
0.0
 40
18.69112728051384
100
AcDbArc
 50
140.0492333085687
 51
155.3190706217587
  0
ARC
  5
B8AC
330
1F
100
AcDbEntity
  8
freecads.com
100
AcDbCircle
 10
11154.24644171565
 20
30001.82380980506
 30
0.0
 40
296.4379180585828
100
AcDbArc
 50
138.0161790465309
 51
140.0492091583103
  0
ARC
  5
B8AD
330
1F
100
AcDbEntity
  8
freecads.com
100
AcDbCircle
 10
11042.94362341068
 20
30101.98438833234
 30
0.0
 40
146.7032899542382
100
AcDbArc
 50
135.3983244063502
 51
138.0161693047097
  0
ARC
  5
B8AE
330
1F
100
AcDbEntity
  8
freecads.com
100
AcDbCircle
 10
10945.09911461112
 20
30198.47782245535
 30
0.0
 40
9.282291809564506
100
AcDbArc
 50
115.7842674156681
 51
135.3983180155896
  0
ARC
  5
B8AF
330
1F
100
AcDbEntity
  8
freecads.com
100
AcDbCircle
 10
10941.39135694383
 20
30206.15306559372
 30
0.0
 40
0.7583945698931371
100
AcDbArc
 50
13.35869158785572
 51
115.7842782726077
  0
ARC
  5
B8B0
330
1F
100
AcDbEntity
  8
freecads.com
100
AcDbCircle
 10
10937.53665598883
 20
30205.23767454242
 30
0.0
 40
4.720295657655511
100
AcDbArc
 50
345.9106545591111
 51
13.35878713695644
  0
ARC
  5
B8B1
330
1F
100
AcDbEntity
  8
freecads.com
100
AcDbCircle
 10
10943.92825151578
 20
30197.7560114813
 30
0.0
 40
3.582955265444226
100
AcDbArc
 50
359.1509721727339
 51
10.97091360801145
  0
ARC
  5
B8B2
330
1F
100
AcDbEntity
  8
freecads.com
100
AcDbCircle
 10
10946.71225444163
 20
30197.71475371534
 30
0.0
 40
0.7986466449110075
100
AcDbArc
 50
323.1493156790484
 51
359.1510058285758
  0
ARC
  5
B8B3
330
1F
100
AcDbEntity
  8
freecads.com
100
AcDbCircle
 10
10946.95082567931
 20
30197.53594808767
 30
0.0
 40
0.5005062619826937
100
AcDbArc
 50
274.4372439901248
 51
323.1495144852141
  0
ARC
  5
B8B4
330
1F
100
AcDbEntity
  8
freecads.com
100
AcDbCircle
 10
10946.88257200997
 20
30198.41553073369
 30
0.0
 40
1.382733100481079
100
AcDbArc
 50
251.5830019050277
 51
274.4371739211692
  0
ARC
  5
B8B5
330
1F
100
AcDbEntity
  8
freecads.com
100
AcDbCircle
 10
10946.96727636558
 20
30198.66990105213
 30
0.0
 40
1.650835854575348
100
AcDbArc
 50
229.9608380336823
 51
251.5829100594037
  0
ARC
  5
B8B6
330
1F
100
AcDbEntity
  8
freecads.com
100
AcDbCircle
 10
10948.047441375
 20
30199.95541594793
 30
0.0
 40
3.329914469443059
100
AcDbArc
 50
217.1688697602617
 51
229.9609464844285
  0
ARC
  5
B8B7
330
1F
100
AcDbEntity
  8
freecads.com
100
AcDbCircle
 10
10948.35797380831
 20
30200.19086309598
 30
0.0
 40
3.719614035315878
100
AcDbArc
 50
204.9981690394576
 51
217.1689436486238
  0
ARC
  5
B8B8
330
1F
100
AcDbEntity
  8
freecads.com
100
AcDbCircle
 10
10947.77649013083
 20
30199.91972973409
 30
0.0
 40
3.078024940120416
100
AcDbArc
 50
190.9708153274894
 51
204.998073007203
  0
ARC
  5
B8B9
330
1F
100
AcDbEntity
  8
freecads.com
100
AcDbCircle
 10
10948.27219130523
 20
30200.01582853304
 30
0.0
 40
3.582955265444226
100
AcDbArc
 50
179.1509721727339
 51
190.9709136080114
  0
ARC
  5
B8BA
330
1F
100
AcDbEntity
  8
freecads.com
100
AcDbCircle
 10
10945.48818837938
 20
30200.057086299
 30
0.0
 40
0.7986466449110075
100
AcDbArc
 50
143.1493156790484
 51
179.1510058285757
  0
ARC
  5
B8BB
330
1F
100
AcDbEntity
  8
freecads.com
100
AcDbCircle
 10
10945.2496171417
 20
30200.23589192668
 30
0.0
 40
0.5005062619826937
100
AcDbArc
 50
94.43724399012477
 51
143.1495144852141
  0
ARC
  5
B8BC
330
1F
100
AcDbEntity
  8
freecads.com
100
AcDbCircle
 10
10945.31787081104
 20
30199.35630928065
 30
0.0
 40
1.382733100481079
100
AcDbArc
 50
71.58300190502766
 51
94.43717392116917
  0
ARC
  5
B8BD
330
1F
100
AcDbEntity
  8
freecads.com
100
AcDbCircle
 10
10945.23316645543
 20
30199.10193896221
 30
0.0
 40
1.650835854575348
100
AcDbArc
 50
49.96083803368226
 51
71.58291005940371
  0
ARC
  5
B8BE
330
1F
100
AcDbEntity
  8
freecads.com
100
AcDbCircle
 10
10944.15300144601
 20
30197.81642406641
 30
0.0
 40
3.329914469443059
100
AcDbArc
 50
37.16886976026169
 51
49.96094648442855
  0
ARC
  5
B8BF
330
1F
100
AcDbEntity
  8
freecads.com
100
AcDbCircle
 10
10943.8424690127
 20
30197.58097691836
 30
0.0
 40
3.719614035315878
100
AcDbArc
 50
24.99816903945759
 51
37.16894364862376
  0
ARC
  5
B8C0
330
1F
100
AcDbEntity
  8
freecads.com
100
AcDbCircle
 10
10944.42395269018
 20
30197.85211028025
 30
0.0
 40
3.078024940120416
100
AcDbArc
 50
10.97081532748942
 51
24.99807300720301
  0
ARC
  5
B8C1
330
1F
100
AcDbEntity
  8
freecads.com
100
AcDbCircle
 10
10348.35388658414
 20
30277.14654631212
 30
0.0
 40
667.0588100356139
100
AcDbArc
 50
351.7393420014658
 51
352.2233760271273
  0
ARC
  5
B8C2
330
1F
100
AcDbEntity
  8
freecads.com
100
AcDbCircle
 10
10998.52442005508
 20
30182.75282407471
 30
0.0
 40
10.07182584817145
100
AcDbArc
 50
341.9872607019558
 51
351.7393003297156
  0
ARC
  5
B8C3
330
1F
100
AcDbEntity
  8
freecads.com
100
AcDbCircle
 10
11007.39072079381
 20
30179.8698090554
 30
0.0
 40
0.748571888789789
100
AcDbArc
 50
284.5159058498453
 51
341.9872345088543
  0
ARC
  5
B8C4
330
1F
100
AcDbEntity
  8
freecads.com
100
AcDbCircle
 10
11007.32678256323
 20
30180.11675884359
 30
0.0
 40
1.003664607643095
100
AcDbArc
 50
238.2824959023224
 51
284.5158797011704
  0
ARC
  5
B8C5
330
1F
100
AcDbEntity
  8
freecads.com
100
AcDbCircle
 10
11007.40336128721
 20
30180.2406665934
 30
0.0
 40
1.14932665290783
100
AcDbArc
 50
175.0974748857806
 51
238.282519887089
  0
ARC
  5
B8C6
330
1F
100
AcDbEntity
  8
freecads.com
100
AcDbCircle
 10
11081.54968492132
 20
30173.88073730133
 30
0.0
 40
75.56791310181688
100
AcDbArc
 50
171.9376565277284
 51
175.0974331357538
  0
ARC
  5
B8C7
330
1F
100
AcDbEntity
  8
freecads.com
100
AcDbCircle
 10
11057.27117057412
 20
30177.31973729997
 30
0.0
 40
51.04704484860288
100
AcDbArc
 50
166.8897246846217
 51
171.9375831615709
  0
ARC
  5
B8C8
330
1F
100
AcDbEntity
  8
freecads.com
100
AcDbCircle
 10
11035.81073816972
 20
30182.31774325776
 30
0.0
 40
29.01229450888284
100
AcDbArc
 50
159.1832718437921
 51
166.8896278261376
  0
ARC
  5
B8C9
330
1F
100
AcDbEntity
  8
freecads.com
100
AcDbCircle
 10
11019.02087280289
 20
30188.70122151359
 30
0.0
 40
11.04987892303398
100
AcDbArc
 50
149.0366202528967
 51
159.1832560631474
  0
ARC
  5
B8CA
330
1F
100
AcDbEntity
  8
freecads.com
100
AcDbCircle
 10
11009.74209505629
 20
30194.26840531715
 30
0.0
 40
0.2291002092106326
100
AcDbArc
 50
5.822290369147182
 51
149.036650378833
  0
ARC
  5
B8CB
330
1F
100
AcDbEntity
  8
freecads.com
100
AcDbCircle
 10
11000.46215166075
 20
30193.32212621613
 30
0.0
 40
9.557165043967412
100
AcDbArc
 50
353.2918828282901
 51
5.822344995009805
  0
ARC
  5
B8CC
330
1F
100
AcDbEntity
  8
freecads.com
100
AcDbCircle
 10
10724.34643338509
 20
30225.79809870244
 30
0.0
 40
287.5761907738953
100
AcDbArc
 50
352.2234048077692
 51
353.2918487636694
  0
ARC
  5
B8CD
330
1F
100
AcDbEntity
  8
freecads.com
100
AcDbCircle
 10
10811.70666193256
 20
30206.52180082519
 30
0.0
 40
128.7548314285117
100
AcDbArc
 50
350.8961974273187
 51
351.7902362357006
  0
ARC
  5
B8CE
330
1F
100
AcDbEntity
  8
freecads.com
100
AcDbCircle
 10
10796.0650130512
 20
30209.02829747
 30
0.0
 40
144.5960341971265
100
AcDbArc
 50
350.0766242204883
 51
350.8961795572925
  0
ARC
  5
B8CF
330
1F
100
AcDbEntity
  8
freecads.com
100
AcDbCircle
 10
10811.29870887309
 20
30206.36322976174
 30
0.0
 40
129.1309744079927
100
AcDbArc
 50
349.2575085802701
 51
350.076605556556
  0
ARC
  5
B8D0
330
1F
100
AcDbEntity
  8
freecads.com
100
AcDbCircle
 10
10912.56130414283
 20
30187.15168194808
 30
0.0
 40
26.06208108823678
100
AcDbArc
 50
346.5745666738806
 51
349.2574908730566
  0
ARC
  5
B8D1
330
1F
100
AcDbEntity
  8
freecads.com
100
AcDbCircle
 10
10924.20131846531
 20
30184.37315744523
 30
0.0
 40
14.09503751683496
100
AcDbArc
 50
340.8164905093551
 51
346.5746503450365
  0
ARC
  5
B8D2
330
1F
100
AcDbEntity
  8
freecads.com
100
AcDbCircle
 10
10937.21780705863
 20
30179.84453658007
 30
0.0
 40
0.3132603367939348
100
AcDbArc
 50
252.7442669836205
 51
340.8165202933468
  0
ARC
  5
B8D3
330
1F
100
AcDbEntity
  8
freecads.com
100
AcDbCircle
 10
10937.44884015819
 20
30180.58831388757
 30
0.0
 40
1.092093423046777
100
AcDbArc
 50
217.6386392048818
 51
252.7441414016701
  0
ARC
  5
B8D4
330
1F
100
AcDbEntity
  8
freecads.com
100
AcDbCircle
 10
11033.43210879698
 20
30254.60866499362
 30
0.0
 40
122.301829981001
100
AcDbArc
 50
216.4189797782761
 51
217.6386808172722
  0
ARC
  5
B8D5
330
1F
100
AcDbEntity
  8
freecads.com
100
AcDbCircle
 10
10946.45500469602
 20
30190.43915665806
 30
0.0
 40
14.21509426466267
100
AcDbArc
 50
210.148120382642
 51
216.4190676768073
  0
ARC
  5
B8D6
330
1F
100
AcDbEntity
  8
freecads.com
100
AcDbCircle
 10
10942.62833602451
 20
30188.21660564993
 30
0.0
 40
9.789811662945968
100
AcDbArc
 50
201.8547897931589
 51
210.1480552890983
  0
ARC
  5
B8D7
330
1F
100
AcDbEntity
  8
freecads.com
100
AcDbCircle
 10
10940.24699254002
 20
30187.26149061927
 30
0.0
 40
7.224067811173632
100
AcDbArc
 50
192.8394599579258
 51
201.8547670324939
  0
ARC
  5
B8D8
330
1F
100
AcDbEntity
  8
freecads.com
100
AcDbCircle
 10
10934.05605139621
 20
30185.85045817701
 30
0.0
 40
0.8743619282864049
100
AcDbArc
 50
150.186805330077
 51
192.8394216683948
  0
ARC
  5
B8D9
330
1F
100
AcDbEntity
  8
freecads.com
100
AcDbCircle
 10
10966.74745393402
 20
30167.11794244978
 30
0.0
 40
38.55240520763246
100
AcDbArc
 50
145.849149851383
 51
150.1868390675573
  0
ARC
  5
B8DA
330
1F
100
AcDbEntity
  8
freecads.com
100
AcDbCircle
 10
10957.68795228704
 20
30173.26342028124
 30
0.0
 40
27.60519241767239
100
AcDbArc
 50
140.2774328851323
 51
145.8491516306347
  0
ARC
  5
B8DB
330
1F
100
AcDbEntity
  8
freecads.com
100
AcDbCircle
 10
10956.03950034676
 20
30174.63305276697
 30
0.0
 40
25.46199691922347
100
AcDbArc
 50
135.3440496100791
 51
140.2773708582211
  0
ARC
  5
B8DC
330
1F
100
AcDbEntity
  8
freecads.com
100
AcDbCircle
 10
10938.78185954826
 20
30191.68466829805
 30
0.0
 40
1.201251709120293
100
AcDbArc
 50
90.00000657078455
 51
135.3439612243489
  0
ARC
  5
B8DD
330
1F
100
AcDbEntity
  8
freecads.com
100
AcDbCircle
 10
10938.78185985219
 20
30192.45400349245
 30
0.0
 40
0.4319165147142015
100
AcDbArc
 50
18.94799278373477
 51
90.000058591884
  0
ARC
  5
B8DE
330
1F
100
AcDbEntity
  8
freecads.com
100
AcDbCircle
 10
10935.65809077765
 20
30191.3815751737
 30
0.0
 40
3.734648070559272
100
AcDbArc
 50
4.335842881952506
 51
18.947978109099
  0
ARC
  5
B8DF
330
1F
100
AcDbEntity
  8
freecads.com
100
AcDbCircle
 10
10930.15277882733
 20
30190.96417508847
 30
0.0
 40
9.255760503881949
100
AcDbArc
 50
355.2072059386067
 51
4.335780991546029
  0
ARC
  5
B8E0
330
1F
100
AcDbEntity
  8
freecads.com
100
AcDbCircle
 10
10904.81146690857
 20
30193.08894561256
 30
0.0
 40
34.68599328976056
100
AcDbArc
 50
351.7903212911777
 51
355.2071883972211
  0
ARC
  5
B8E1
330
1F
100
AcDbEntity
  8
freecads.com
100
AcDbCircle
 10
10891.18200518751
 20
30157.72946690433
 30
0.0
 40
5.156453102838993
100
AcDbArc
 50
78.60909721360961
 51
89.99996418788494
  0
ARC
  5
B8E2
330
1F
100
AcDbEntity
  8
freecads.com
100
AcDbCircle
 10
10891.76357932818
 20
30160.61612167563
 30
0.0
 40
2.211796204361103
100
AcDbArc
 50
57.16760680652134
 51
78.60908175172976
  0
ARC
  5
B8E3
330
1F
100
AcDbEntity
  8
freecads.com
100
AcDbCircle
 10
10892.19550311242
 20
30161.28550281238
 30
0.0
 40
1.415159987738109
100
AcDbArc
 50
29.22331964705139
 51
57.16764964985732
  0
ARC
  5
B8E4
330
1F
100
AcDbEntity
  8
freecads.com
100
AcDbCircle
 10
10892.26709575949
 20
30161.32555434531
 30
0.0
 40
1.333125651012822
100
AcDbArc
 50
0.000028445920289
 51
29.22326314888987
  0
ARC
  5
B8E5
330
1F
100
AcDbEntity
  8
freecads.com
100
AcDbCircle
 10
10892.33204665836
 20
30161.32555530117
 30
0.0
 40
1.268174752148445
100
AcDbArc
 50
283.0076742558687
 51
359.9999867173165
  0
ARC
  5
B8E6
330
1F
100
AcDbEntity
  8
freecads.com
100
AcDbCircle
 10
10890.82241312843
 20
30167.86052453736
 30
0.0
 40
7.97524686393025
100
AcDbArc
 50
263.0485031083132
 51
283.0076394010804
  0
ARC
  5
B8E7
330
1F
100
AcDbEntity
  8
freecads.com
100
AcDbCircle
 10
10891.06269315417
 20
30169.83131843214
 30
0.0
 40
9.960634248400403
100
AcDbArc
 50
245.6658840526253
 51
263.0485585342423
  0
ARC
  5
B8E8
330
1F
100
AcDbEntity
  8
freecads.com
100
AcDbCircle
 10
10887.82609072944
 20
30162.67440685738
 30
0.0
 40
2.1058918245695
100
AcDbArc
 50
190.7438634227629
 51
245.6659163125542
  0
ARC
  5
B8E9
330
1F
100
AcDbEntity
  8
freecads.com
100
AcDbCircle
 10
10891.42020946433
 20
30163.35638206337
 30
0.0
 40
5.764139993026711
100
AcDbArc
 50
181.7288755432159
 51
190.743953789096
  0
ARC
  5
B8EA
330
1F
100
AcDbEntity
  8
freecads.com
100
AcDbCircle
 10
10886.24293690145
 20
30163.20011279536
 30
0.0
 40
0.5845095743157384
100
AcDbArc
 50
133.3646987367864
 51
181.7288891885446
  0
ARC
  5
B8EB
330
1F
100
AcDbEntity
  8
freecads.com
100
AcDbCircle
 10
10886.18854623262
 20
30163.25770012331
 30
0.0
 40
0.5052969162636657
100
AcDbArc
 50
79.92684483383747
 51
133.3646813592193
  0
ARC
  5
B8EC
330
1F
100
AcDbEntity
  8
freecads.com
100
AcDbCircle
 10
10885.51030061549
 20
30159.43971966951
 30
0.0
 40
4.38305295071876
100
AcDbArc
 50
69.00645349492902
 51
79.9267783983041
  0
ARC
  5
B8ED
330
1F
100
AcDbEntity
  8
freecads.com
100
AcDbCircle
 10
10889.22268186806
 20
30169.11401392495
 30
0.0
 40
5.979077327629718
100
AcDbArc
 50
249.0062942947933
 51
257.1903806547152
  0
ARC
  5
B8EE
330
1F
100
AcDbEntity
  8
freecads.com
100
AcDbCircle
 10
10891.52594311245
 20
30179.24400769519
 30
0.0
 40
16.36761842563634
100
AcDbArc
 50
257.1903992418842
 51
261.0503946569311
  0
ARC
  5
B8EF
330
1F
100
AcDbEntity
  8
freecads.com
100
AcDbCircle
 10
10891.70384211336
 20
30180.37358956473
 30
0.0
 40
17.51112323736847
100
AcDbArc
 50
261.0503651890929
 51
264.8533099560816
  0
ARC
  5
B8F0
330
1F
100
AcDbEntity
  8
freecads.com
100
AcDbCircle
 10
10891.18201206773
 20
30174.58011657342
 30
0.0
 40
11.69419656624507
100
AcDbArc
 50
264.853394535003
 51
269.9999820813839
  0
ARC
  5
B8F1
330
1F
100
AcDbEntity
  8
freecads.com
100
AcDbCircle
 10
10905.22532148443
 20
30161.1906942958
 30
0.0
 40
1.109736069781281
100
AcDbArc
 50
332.3856107650349
 51
31.71747035957571
  0
ARC
  5
B8F2
330
1F
100
AcDbEntity
  8
freecads.com
100
AcDbCircle
 10
10904.29032575364
 20
30161.679797701
 30
0.0
 40
2.164932334731657
100
AcDbArc
 50
296.2754854752642
 51
332.3856009229171
  0
ARC
  5
B8F3
330
1F
100
AcDbEntity
  8
freecads.com
100
AcDbCircle
 10
10902.26273077331
 20
30165.78674970394
 30
0.0
 40
6.745128417723932
100
AcDbArc
 50
278.0471999036903
 51
296.2754765597285
  0
ARC
  5
B8F4
330
1F
100
AcDbEntity
  8
freecads.com
100
AcDbCircle
 10
10900.26440262803
 20
30179.921138237
 30
0.0
 40
21.02008041693279
100
AcDbArc
 50
270.2339224018963
 51
278.0471842475624
  0
ARC
  5
B8F5
330
1F
100
AcDbEntity
  8
freecads.com
100
AcDbCircle
 10
10900.24610538797
 20
30184.39375780753
 30
0.0
 40
25.49273741368965
100
AcDbArc
 50
265.7558783908115
 51
270.2340048915841
  0
ARC
  5
B8F6
330
1F
100
AcDbEntity
  8
freecads.com
100
AcDbCircle
 10
10898.55540604739
 20
30161.61098040705
 30
0.0
 40
2.647313137913558
100
AcDbArc
 50
242.1099939067685
 51
265.7558107129133
  0
ARC
  5
B8F7
330
1F
100
AcDbEntity
  8
freecads.com
100
AcDbCircle
 10
10897.84875237877
 20
30160.27577919847
 30
0.0
 40
1.136643857506684
100
AcDbArc
 50
200.7828021564805
 51
242.1099572121129
  0
ARC
  5
B8F8
330
1F
100
AcDbEntity
  8
freecads.com
100
AcDbCircle
 10
10899.45642735607
 20
30160.88592257675
 30
0.0
 40
2.856205945567122
100
AcDbArc
 50
180.000051546167
 51
200.782747203701
  0
ARC
  5
B8F9
330
1F
100
AcDbEntity
  8
freecads.com
100
AcDbCircle
 10
10899.22287355119
 20
30160.88592132972
 30
0.0
 40
2.622652140686106
100
AcDbArc
 50
156.7783193152323
 51
180.0000288932343
  0
ARC
  5
B8FA
330
1F
100
AcDbEntity
  8
freecads.com
100
AcDbCircle
 10
10897.88406331169
 20
30161.46033614437
 30
0.0
 40
1.165818163640616
100
AcDbArc
 50
114.2443620486833
 51
156.778330531058
  0
ARC
  5
B8FB
330
1F
100
AcDbEntity
  8
freecads.com
100
AcDbCircle
 10
10898.79406565839
 20
30159.43968322674
 30
0.0
 40
3.381927927292565
100
AcDbArc
 50
93.27853090264094
 51
114.2444199627615
  0
ARC
  5
B8FC
330
1F
100
AcDbEntity
  8
freecads.com
100
AcDbCircle
 10
10901.04121595113
 20
30120.21064583257
 30
0.0
 40
42.67527417460494
100
AcDbArc
 50
90.00001549444922
 51
93.27848553450355
  0
ARC
  5
B8FD
330
1F
100
AcDbEntity
  8
freecads.com
100
AcDbCircle
 10
10901.04120857979
 20
30144.02281171133
 30
0.0
 40
18.86310829583636
100
AcDbArc
 50
84.67452652256275
 51
90.00001266403115
  0
ARC
  5
B8FE
330
1F
100
AcDbEntity
  8
freecads.com
100
AcDbCircle
 10
10901.55451865457
 20
30149.52934000325
 30
0.0
 40
13.33270676772255
100
AcDbArc
 50
77.7672725520093
 51
84.67459300973516
  0
ARC
  5
B8FF
330
1F
100
AcDbEntity
  8
freecads.com
100
AcDbCircle
 10
10902.14278143149
 20
30152.24263860698
 30
0.0
 40
10.55637061953383
100
AcDbArc
 50
70.69442995093222
 51
77.76729570138131
  0
ARC
  5
B900
330
1F
100
AcDbEntity
  8
freecads.com
100
AcDbCircle
 10
10905.2916920811
 20
30161.23171361798
 30
0.0
 40
1.031712734199828
100
AcDbArc
 50
31.71746827754488
 51
70.69444400080489
  0
ARC
  5
B901
330
1F
100
AcDbEntity
  8
freecads.com
100
AcDbCircle
 10
10900.7023245851
 20
30147.33251485482
 30
0.0
 40
21.22408320052123
100
AcDbArc
 50
19.99675999667197
 51
25.49495386289509
  0
ARC
  5
B902
330
1F
100
AcDbEntity
  8
freecads.com
100
AcDbCircle
 10
10915.8473853993
 20
30152.84389593686
 30
0.0
 40
5.107377938675335
100
AcDbArc
 50
4.154095516906435
 51
19.9967640137264
  0
ARC
  5
B903
330
1F
100
AcDbEntity
  8
freecads.com
100
AcDbCircle
 10
10917.06977152351
 20
30152.93267793879
 30
0.0
 40
3.881771933248318
100
AcDbArc
 50
345.3260854367241
 51
4.154093211742116
  0
ARC
  5
B904
330
1F
100
AcDbEntity
  8
freecads.com
100
AcDbCircle
 10
10912.32149734911
 20
30154.17606038642
 30
0.0
 40
8.790143103642998
100
AcDbArc
 50
335.1053009328718
 51
345.32604555604
  0
ARC
  5
B905
330
1F
100
AcDbEntity
  8
freecads.com
100
AcDbCircle
 10
10914.61829251927
 20
30153.11018502039
 30
0.0
 40
6.258077079703175
100
AcDbArc
 50
312.9813074519584
 51
335.1052744888134
  0
ARC
  5
B906
330
1F
100
AcDbEntity
  8
freecads.com
100
AcDbCircle
 10
10917.49144023405
 20
30150.0270939852
 30
0.0
 40
2.043764784419747
100
AcDbArc
 50
262.1191182461004
 51
312.9813329285669
  0
ARC
  5
B907
330
1F
100
AcDbEntity
  8
freecads.com
100
AcDbCircle
 10
10917.59329156571
 20
30150.76288712259
 30
0.0
 40
2.786573800777693
100
AcDbArc
 50
220.5178271042334
 51
262.119080991057
  0
ARC
  5
B908
330
1F
100
AcDbEntity
  8
freecads.com
100
AcDbCircle
 10
10923.82034247938
 20
30156.08464678869
 30
0.0
 40
10.97786728991969
100
AcDbArc
 50
205.4949004774356
 51
220.5178431909353
  0
ARC
  5
B909
330
1F
100
AcDbEntity
  8
freecads.com
100
AcDbCircle
 10
10933.16867258262
 20
30160.54258304416
 30
0.0
 40
21.33472353960245
100
AcDbArc
 50
200.0052610413969
 51
205.49498000417
  0
ARC
  5
B90A
330
1F
100
AcDbEntity
  8
freecads.com
100
AcDbCircle
 10
10918.21965272555
 20
30155.10003383464
 30
0.0
 40
5.425778364479371
100
AcDbArc
 50
184.813494413432
 51
200.0052967621644
  0
ARC
  5
B90B
330
1F
100
AcDbEntity
  8
freecads.com
100
AcDbCircle
 10
10916.81004494651
 20
30154.98133035464
 30
0.0
 40
4.011181387630537
100
AcDbArc
 50
166.4786259147959
 51
184.8134792343913
  0
ARC
  5
B90C
330
1F
100
AcDbEntity
  8
freecads.com
100
AcDbCircle
 10
10920.6547339811
 20
30154.05677961273
 30
0.0
 40
7.965473719652687
100
AcDbArc
 50
155.5045272188299
 51
166.4785873655392
  0
ARC
  5
B90D
330
1F
100
AcDbEntity
  8
freecads.com
100
AcDbCircle
 10
10918.69075045862
 20
30154.95163120658
 30
0.0
 40
5.807235861675776
100
AcDbArc
 50
131.9675580674393
 51
155.504528511433
  0
ARC
  5
B90E
330
1F
100
AcDbEntity
  8
freecads.com
100
AcDbCircle
 10
10916.22558242576
 20
30157.69259625782
 30
0.0
 40
2.120781895825377
100
AcDbArc
 50
82.13569952268233
 51
131.9675418771259
  0
ARC
  5
B90F
330
1F
100
AcDbEntity
  8
freecads.com
100
AcDbCircle
 10
10916.11909556503
 20
30156.92169482976
 30
0.0
 40
2.899003241759055
100
AcDbArc
 50
41.39652046576776
 51
82.13560196656962
  0
ARC
  5
B910
330
1F
100
AcDbEntity
  8
freecads.com
100
AcDbCircle
 10
10910.58968931049
 20
30152.04747894763
 30
0.0
 40
10.27004889304817
100
AcDbArc
 50
25.49494429831611
 51
41.39645889282387
  0
ARC
  5
B911
330
1F
100
AcDbEntity
  8
freecads.com
100
AcDbCircle
 10
10903.30540507505
 20
30156.57775758222
 30
0.0
 40
12.57717398017223
100
AcDbArc
 50
299.0010021084469
 51
308.1886120395588
  0
ARC
  5
B912
330
1F
100
AcDbEntity
  8
freecads.com
100
AcDbCircle
 10
10906.28260317627
 20
30151.20698443994
 30
0.0
 40
6.43641566546612
100
AcDbArc
 50
283.8337875538428
 51
299.0009465484827
  0
ARC
  5
B913
330
1F
100
AcDbEntity
  8
freecads.com
100
AcDbCircle
 10
10907.53904910617
 20
30146.10464256887
 30
0.0
 40
1.18165126122942
100
AcDbArc
 50
241.6178167005723
 51
283.8338016450896
  0
ARC
  5
B914
330
1F
100
AcDbEntity
  8
freecads.com
100
AcDbCircle
 10
10907.184474923
 20
30145.44838443134
 30
0.0
 40
0.4357306257342874
100
AcDbArc
 50
154.5074725246378
 51
241.6178651081011
  0
ARC
  5
B915
330
1F
100
AcDbEntity
  8
freecads.com
100
AcDbCircle
 10
10912.75700702217
 20
30142.79131948101
 30
0.0
 40
6.609312094106142
100
AcDbArc
 50
150.0403774979845
 51
154.5075073981758
  0
ARC
  5
B916
330
1F
100
AcDbEntity
  8
freecads.com
100
AcDbCircle
 10
11023.79269857189
 20
30078.78895615698
 30
0.0
 40
134.770255087605
100
AcDbArc
 50
149.5413852591838
 51
150.0403161189393
  0
ARC
  5
B917
330
1F
100
AcDbEntity
  8
freecads.com
100
AcDbCircle
 10
11021.46265607681
 20
30080.15930702109
 30
0.0
 40
132.0671162622261
100
AcDbArc
 50
148.9352410618536
 51
149.5414289954626
  0
ARC
  5
B918
330
1F
100
AcDbEntity
  8
freecads.com
100
AcDbCircle
 10
11058.29457771645
 20
30057.97185147769
 30
0.0
 40
175.0656468784457
100
AcDbArc
 50
148.444586940207
 51
148.9352672461895
  0
ARC
  5
B919
330
1F
100
AcDbEntity
  8
freecads.com
100
AcDbCircle
 10
10982.24439914755
 20
30104.67670086281
 30
0.0
 40
85.81895160938502
100
AcDbArc
 50
146.8041270328743
 51
148.4445917747168
  0
ARC
  5
B91A
330
1F
100
AcDbEntity
  8
freecads.com
100
AcDbCircle
 10
10911.31143547546
 20
30151.0866354156
 30
0.0
 40
1.052405375035433
100
AcDbArc
 50
108.7367449561143
 51
146.804156669326
  0
ARC
  5
B91B
330
1F
100
AcDbEntity
  8
freecads.com
100
AcDbCircle
 10
10911.1096831552
 20
30151.68143332643
 30
0.0
 40
0.424322137360652
100
AcDbArc
 50
33.99800525962387
 51
108.7368621992368
  0
ARC
  5
B91C
330
1F
100
AcDbEntity
  8
freecads.com
100
AcDbCircle
 10
10899.35812641919
 20
30143.75553908595
 30
0.0
 40
14.59890803010604
100
AcDbArc
 50
28.1549861038879
 51
33.99788938459128
  0
ARC
  5
B91D
330
1F
100
AcDbEntity
  8
freecads.com
100
AcDbCircle
 10
10905.97460071255
 20
30147.29656709919
 30
0.0
 40
7.094468579677054
100
AcDbArc
 50
17.50475962704985
 51
28.15501827684941
  0
ARC
  5
B91E
330
1F
100
AcDbEntity
  8
freecads.com
100
AcDbCircle
 10
10911.30964682644
 20
30148.97918407971
 30
0.0
 40
1.500371964458302
100
AcDbArc
 50
343.7968330056211
 51
17.50490012880786
  0
ARC
  5
B91F
330
1F
100
AcDbEntity
  8
freecads.com
100
AcDbCircle
 10
10910.92631524169
 20
30149.09057359282
 30
0.0
 40
1.899559548806317
100
AcDbArc
 50
315.0172669726379
 51
343.7968789013718
  0
ARC
  5
B920
330
1F
100
AcDbEntity
  8
freecads.com
100
AcDbCircle
 10
10902.83062850617
 20
30157.18136077216
 30
0.0
 40
13.34512554184298
100
AcDbArc
 50
308.1885510532966
 51
315.01733227699
  0
ARC
  5
B921
330
1F
100
AcDbEntity
  8
freecads.com
100
AcDbCircle
 10
10905.64686519445
 20
30142.89052663327
 30
0.0
 40
1.408476508725124
100
AcDbArc
 50
307.0823006962845
 51
339.0063708295051
  0
ARC
  5
B922
330
1F
100
AcDbEntity
  8
freecads.com
100
AcDbCircle
 10
10904.39403144256
 20
30144.54813284128
 30
0.0
 40
3.486276005965684
100
AcDbArc
 50
290.8558122153197
 51
307.0823108227016
  0
ARC
  5
B923
330
1F
100
AcDbEntity
  8
freecads.com
100
AcDbCircle
 10
10903.69215159007
 20
30146.39044588596
 30
0.0
 40
5.45776089860875
100
AcDbArc
 50
278.0145802279423
 51
290.8557773825515
  0
ARC
  5
B924
330
1F
100
AcDbEntity
  8
freecads.com
100
AcDbCircle
 10
10903.02462055386
 20
30151.13128741978
 30
0.0
 40
10.24536741261139
100
AcDbArc
 50
269.9999824212467
 51
278.0146850071524
  0
ARC
  5
B925
330
1F
100
AcDbEntity
  8
freecads.com
100
AcDbCircle
 10
10903.02463271965
 20
30162.23007677956
 30
0.0
 40
21.34415677239489
100
AcDbArc
 50
265.5374109270464
 51
269.999958904431
  0
ARC
  5
B926
330
1F
100
AcDbEntity
  8
freecads.com
100
AcDbCircle
 10
10901.53358478602
 20
30143.12505384992
 30
0.0
 40
2.181037895696966
100
AcDbArc
 50
241.7018490523936
 51
265.5374410679797
  0
ARC
  5
B927
330
1F
100
AcDbEntity
  8
freecads.com
100
AcDbCircle
 10
10900.80881759584
 20
30141.7789115419
 30
0.0
 40
0.6521864989273243
100
AcDbArc
 50
189.1662881275161
 51
241.7018702035329
  0
ARC
  5
B928
330
1F
100
AcDbEntity
  8
freecads.com
100
AcDbCircle
 10
10901.52096597286
 20
30141.89382602547
 30
0.0
 40
1.373546776060246
100
AcDbArc
 50
159.006307104624
 51
189.1663532846226
  0
ARC
  5
B929
330
1F
100
AcDbEntity
  8
freecads.com
100
AcDbCircle
 10
10901.55357762655
 20
30141.88131338107
 30
0.0
 40
1.408476508725124
100
AcDbArc
 50
127.0823006962845
 51
159.0063708295051
  0
ARC
  5
B92A
330
1F
100
AcDbEntity
  8
freecads.com
100
AcDbCircle
 10
10902.80641137845
 20
30140.22370717306
 30
0.0
 40
3.486276005965684
100
AcDbArc
 50
110.8558122153197
 51
127.0823108227016
  0
ARC
  5
B92B
330
1F
100
AcDbEntity
  8
freecads.com
100
AcDbCircle
 10
10903.50829123094
 20
30138.38139412838
 30
0.0
 40
5.45776089860875
100
AcDbArc
 50
98.01458022794232
 51
110.8557773825515
  0
ARC
  5
B92C
330
1F
100
AcDbEntity
  8
freecads.com
100
AcDbCircle
 10
10904.17582226715
 20
30133.64055259456
 30
0.0
 40
10.24536741261139
100
AcDbArc
 50
89.99998242124668
 51
98.01468500715234
  0
ARC
  5
B92D
330
1F
100
AcDbEntity
  8
freecads.com
100
AcDbCircle
 10
10904.17581010136
 20
30122.54176323478
 30
0.0
 40
21.34415677239489
100
AcDbArc
 50
85.53741092704647
 51
89.99995890443097
  0
ARC
  5
B92E
330
1F
100
AcDbEntity
  8
freecads.com
100
AcDbCircle
 10
10905.66685803499
 20
30141.64678616442
 30
0.0
 40
2.181037895696966
100
AcDbArc
 50
61.70184905239368
 51
85.53744106797974
  0
ARC
  5
B92F
330
1F
100
AcDbEntity
  8
freecads.com
100
AcDbCircle
 10
10906.39162522517
 20
30142.99292847244
 30
0.0
 40
0.6521864989273243
100
AcDbArc
 50
9.166288127516159
 51
61.70187020353293
  0
ARC
  5
B930
330
1F
100
AcDbEntity
  8
freecads.com
100
AcDbCircle
 10
10905.67947684815
 20
30142.87801398887
 30
0.0
 40
1.373546776060246
100
AcDbArc
 50
339.006307104624
 51
9.166353284622678
  0
ENDSEC
  0
SECTION
  2
OBJECTS
  0
DICTIONARY
  5
C
330
0
100
AcDbDictionary
281
     1
  3
ACAD_CIP_PREVIOUS_PRODUCT_INFO
350
1A5
  3
ACAD_COLOR
350
73
  3
ACAD_DETAILVIEWSTYLE
350
1AB
  3
ACAD_GROUP
350
D
  3
ACAD_LAYOUT
350
1A
  3
ACAD_MATERIAL
350
72
  3
ACAD_MLEADERSTYLE
350
D7
  3
ACAD_MLINESTYLE
350
17
  3
ACAD_PLOTSETTINGS
350
19
  3
ACAD_PLOTSTYLENAME
350
E
  3
ACAD_SCALELIST
350
B6
  3
ACAD_SECTIONVIEWSTYLE
350
1A8
  3
ACAD_TABLESTYLE
350
86
  3
ACAD_VISUALSTYLE
350
99
  3
ACDB_RECOMPOSE_DATA
350
B988
  3
AcDbVariableDictionary
350
66
  3
AEC_PROPERTY_SET_DEFS
350
268B
  0
DICTIONARY
  5
18E
330
2
100
AcDbDictionary
280
     1
281
     1
  3
ACAD_LAYERSTATES
360
18F
  0
DICTIONARY
  5
E6
330
10
100
AcDbDictionary
280
     1
281
     1
  0
DICTIONARY
  5
15D
330
1F
100
AcDbDictionary
280
     1
281
     1
  3
ACAD_SORTENTS
360
28E
  0
XRECORD
  5
1A5
102
{ACAD_REACTORS
330
C
102
}
330
C
100
AcDbXrecord
280
     1
300
ACD
300
2022
300

  0
DICTIONARY
  5
73
102
{ACAD_REACTORS
330
C
102
}
330
C
100
AcDbDictionary
281
     1
  0
DICTIONARY
  5
1AB
102
{ACAD_REACTORS
330
C
102
}
330
C
100
AcDbDictionary
281
     1
  3
Imperial24
350
1AC
  3
Metric50
350
224
  0
DICTIONARY
  5
D
102
{ACAD_REACTORS
330
C
102
}
330
C
100
AcDbDictionary
281
     1
  0
DICTIONARY
  5
1A
102
{ACAD_REACTORS
330
C
102
}
330
C
100
AcDbDictionary
281
     1
  3
Layout1
350
59
  3
Layout2
350
5E
  3
Model
350
22
  0
DICTIONARY
  5
72
102
{ACAD_REACTORS
330
C
102
}
330
C
100
AcDbDictionary
281
     1
  3
ByBlock
350
97
  3
ByLayer
350
96
  3
Global
350
98
  0
DICTIONARY
  5
D7
102
{ACAD_REACTORS
330
C
102
}
330
C
100
AcDbDictionary
281
     1
  3
Standard
350
D8
  0
DICTIONARY
  5
17
102
{ACAD_REACTORS
330
C
102
}
330
C
100
AcDbDictionary
281
     1
  3
Standard
350
18
  0
DICTIONARY
  5
19
102
{ACAD_REACTORS
330
C
102
}
330
C
100
AcDbDictionary
281
     1
  0
ACDBDICTIONARYWDFLT
  5
E
102
{ACAD_REACTORS
330
C
102
}
330
C
100
AcDbDictionary
281
     1
  3
Normal
350
F
100
AcDbDictionaryWithDefault
340
F
  0
DICTIONARY
  5
B6
102
{ACAD_REACTORS
330
C
102
}
330
C
100
AcDbDictionary
281
     1
  3
*A1
350
47D1
  3
*A2
350
8BD6
  3
A0
350
B7
  3
A1
350
124
  3
A2
350
125
  3
A3
350
126
  3
A4
350
127
  3
A5
350
128
  3
A6
350
129
  3
A7
350
12A
  3
A8
350
12B
  3
A9
350
12C
  3
B0
350
12D
  3
B1
350
12E
  3
B2
350
12F
  3
B3
350
130
  3
B4
350
131
  3
B5
350
132
  3
B6
350
133
  3
B7
350
134
  3
B8
350
135
  3
B9
350
136
  3
C0
350
137
  3
C1
350
138
  3
C2
350
139
  3
C3
350
13A
  3
C4
350
13B
  3
C5
350
13C
  3
C6
350
13D
  3
C7
350
13E
  3
C8
350
13F
  3
C9
350
140
  3
D0
350
141
  3
D1
350
142
  3
D2
350
143
  0
DICTIONARY
  5
1A8
102
{ACAD_REACTORS
330
C
102
}
330
C
100
AcDbDictionary
281
     1
  3
Imperial24
350
1AA
  3
Metric50
350
223
  0
DICTIONARY
  5
86
102
{ACAD_REACTORS
330
C
102
}
330
C
100
AcDbDictionary
281
     1
  3
Standard
350
87
  0
DICTIONARY
  5
99
102
{ACAD_REACTORS
330
C
102
}
330
C
100
AcDbDictionary
281
     1
  3
2dWireframe
350
9F
  3
3dWireframe
350
2684
  3
Basic
350
9E
  3
Brighten
350
A5
  3
ColorChange
350
A9
  3
Conceptual
350
A2
  3
Dim
350
A4
  3
EdgeColorOff
350
175
  3
Facepattern
350
A8
  3
Flat
350
9A
  3
FlatWithEdges
350
9B
  3
Gouraud
350
9C
  3
GouraudWithEdges
350
9D
  3
Hidden
350
A1
  3
JitterOff
350
173
  3
Linepattern
350
A7
  3
OverhangOff
350
174
  3
Realistic
350
A3
  3
Shaded
350
182
  3
Shaded with edges
350
181
  3
Shades of Gray
350
17E
  3
Sketchy
350
17F
  3
Thicken
350
A6
  3
Wireframe
350
A0
  3
X-Ray
350
180
  0
XRECORD
  5
B988
102
{ACAD_REACTORS
330
C
102
}
330
C
100
AcDbXrecord
280
     1
 90
        1
330
87
  0
DICTIONARY
  5
66
102
{ACAD_REACTORS
330
C
102
}
330
C
100
AcDbDictionary
281
     1
  3
CANNOSCALE
350
F0
  3
CMLEADERSTYLE
350
EF
  3
CTABLESTYLE
350
89
  3
CVIEWDETAILSTYLE
350
1B7
  3
CVIEWSECTIONSTYLE
350
1B8
  3
DIMASSOC
350
67
  3
HIDETEXT
350
6B
  3
LAYEREVAL
350
14D
  3
LAYERNOTIFY
350
14E
  0
DICTIONARY
  5
268B
102
{ACAD_REACTORS
330
C
102
}
330
C
100
AcDbDictionary
281
     1
  0
DICTIONARY
  5
18F
102
{ACAD_REACTORS
330
18E
102
}
330
18E
100
AcDbDictionary
281
     1
  0
SORTENTSTABLE
  5
28E
102
{ACAD_REACTORS
330
15D
102
}
330
15D
100
AcDbSortentsTable
330
1F
  0
ACDBDETAILVIEWSTYLE
  5
1AC
102
{ACAD_REACTORS
330
1AB
102
}
330
1AB
100
AcDbModelDocViewStyle
 70
     0
  3
Imperial24
290
     0
300
Imperial24
 90
        0
100
AcDbDetailViewStyle
 70
     0
 71
     0
 90
        3
 71
     1
340
11
 62
   256
 40
0.24
340
0
 62
   256
 40
0.24
300

 40
0.36
280
     3
 71
     2
340
16
 90
       25
 62
   256
 71
     3
340
11
 62
   256
 40
0.24
 90
        1
 40
0.75
 90
        1
300
%<\AcVar ViewType \f "%tc1">% %<\AcVar ViewDetailId>%\PSCALE %<\AcVar ViewScale \f "%sn">%
 71
     4
340
16
 90
       25
 62
   256
340
16
 90
       25
 62
   256
280
     0
  0
ACDBDETAILVIEWSTYLE
  5
224
102
{ACAD_REACTORS
330
1AB
102
}
330
1AB
100
AcDbModelDocViewStyle
 70
     0
  3
Metric50
290
     0
300
Metric50
 90
        0
100
AcDbDetailViewStyle
 70
     0
 71
     0
 90
        3
 71
     1
340
11
 62
   256
 40
5.0
340
0
 62
   256
 40
5.0
300

 40
0.0
280
     1
 71
     2
340
16
 90
       25
 62
   256
 71
     3
340
11
 62
   256
 40
5.0
 90
        0
 40
15.0
 90
        1
300
%<\AcVar ViewDetailId>% (%<\AcVar ViewScale \f "%sn">%)
 71
     4
340
16
 90
       25
 62
   256
340
16
 90
       25
 62
   256
280
     0
  0
LAYOUT
  5
59
102
{ACAD_REACTORS
330
1A
102
}
330
1A
100
AcDbPlotSettings
  1

  2
None
  4

  6

 40
0.0
 41
0.0
 42
0.0
 43
0.0
 44
0.0
 45
0.0
 46
0.0
 47
0.0
 48
0.0
 49
0.0
140
0.0
141
0.0
142
1.0
143
1.0
 70
   688
 72
     0
 73
     0
 74
     5
  7

 75
    16
147
1.0
 76
     0
 77
     2
 78
   300
148
0.0
149
0.0
100
AcDbLayout
  1
Layout1
 70
     1
 71
     1
 10
0.0
 20
0.0
 11
12.0
 21
9.0
 12
0.0
 22
0.0
 32
0.0
 14
0.0
 24
0.0
 34
0.0
 15
0.0
 25
0.0
 35
0.0
146
0.0
 13
0.0
 23
0.0
 33
0.0
 16
1.0
 26
0.0
 36
0.0
 17
0.0
 27
1.0
 37
0.0
 76
     0
330
58
  0
LAYOUT
  5
5E
102
{ACAD_REACTORS
330
1A
102
}
330
1A
100
AcDbPlotSettings
  1

  2
None
  4

  6

 40
0.0
 41
0.0
 42
0.0
 43
0.0
 44
0.0
 45
0.0
 46
0.0
 47
0.0
 48
0.0
 49
0.0
140
0.0
141
0.0
142
1.0
143
1.0
 70
   688
 72
     0
 73
     0
 74
     5
  7

 75
    16
147
1.0
 76
     0
 77
     2
 78
   300
148
0.0
149
0.0
100
AcDbLayout
  1
Layout2
 70
     1
 71
     2
 10
0.0
 20
0.0
 11
12.0
 21
9.0
 12
0.0
 22
0.0
 32
0.0
 14
0.0
 24
0.0
 34
0.0
 15
0.0
 25
0.0
 35
0.0
146
0.0
 13
0.0
 23
0.0
 33
0.0
 16
1.0
 26
0.0
 36
0.0
 17
0.0
 27
1.0
 37
0.0
 76
     0
330
5D
  0
LAYOUT
  5
22
102
{ACAD_XDICTIONARY
360
194
102
}
102
{ACAD_REACTORS
330
1A
102
}
330
1A
100
AcDbPlotSettings
  1

  2
none_device
  4
ANSI_A_(8.50_x_11.00_Inches)
  6

 40
6.349999904632568
 41
19.04999923706055
 42
6.350006103515625
 43
19.04998779296875
 44
215.8999938964844
 45
279.3999938964844
 46
0.0
 47
0.0
 48
0.0
 49
0.0
140
0.0
141
0.0
142
1.0
143
2.584895464708373
 70
 11952
 72
     0
 73
     1
 74
     0
  7

 75
     0
147
0.3868628397755418
 76
     0
 77
     2
 78
   300
148
0.0
149
0.0
100
AcDbLayout
  1
Model
 70
     1
 71
     0
 10
0.0
 20
0.0
 11
12.0
 21
9.0
 12
0.0
 22
0.0
 32
0.0
 14
0.0
 24
0.0
 34
0.0
 15
0.0
 25
0.0
 35
0.0
146
0.0
 13
0.0
 23
0.0
 33
0.0
 16
1.0
 26
0.0
 36
0.0
 17
0.0
 27
1.0
 37
0.0
 76
     0
330
1F
331
94
  0
MATERIAL
  5
97
102
{ACAD_XDICTIONARY
360
188
102
}
102
{ACAD_REACTORS
330
72
102
}
330
72
100
AcDbMaterial
  1
ByBlock
 94
       63
  0
MATERIAL
  5
96
102
{ACAD_XDICTIONARY
360
186
102
}
102
{ACAD_REACTORS
330
72
102
}
330
72
100
AcDbMaterial
  1
ByLayer
 94
       63
  0
MATERIAL
  5
98
102
{ACAD_XDICTIONARY
360
110
102
}
102
{ACAD_REACTORS
330
72
102
}
330
72
100
AcDbMaterial
  1
Global
 43
0.0208000000566244
 43
0.0
 43
0.0
 43
0.0
 43
0.0
 43
0.0208000000566244
 43
0.0
 43
0.0
 43
0.0
 43
0.0
 43
1.0
 43
0.0
 43
0.0
 43
0.0
 43
0.0
 43
1.0
 49
0.0208000000566244
 49
0.0
 49
0.0
 49
0.0
 49
0.0
 49
0.0208000000566244
 49
0.0
 49
0.0
 49
0.0
 49
0.0
 49
1.0
 49
0.0
 49
0.0
 49
0.0
 49
0.0
 49
1.0
142
0.0208000000566244
142
0.0
142
0.0
142
0.0
142
0.0
142
0.0208000000566244
142
0.0
142
0.0
142
0.0
142
0.0
142
1.0
142
0.0
142
0.0
142
0.0
142
0.0
142
1.0
144
0.0208000000566244
144
0.0
144
0.0
144
0.0
144
0.0
144
0.0208000000566244
144
0.0
144
0.0
144
0.0
144
0.0
144
1.0
144
0.0
144
0.0
144
0.0
144
0.0
144
1.0
 94
       63
1001
ACAD
1070
    -1
1070
     3
1070
     0
1000

1071
        0
1070
     0
  0
MLEADERSTYLE
  5
D8
102
{ACAD_REACTORS
330
D7
102
}
330
D7
100
AcDbMLeaderStyle
179
     2
170
     2
171
     1
172
     0
 90
        2
 40
0.0
 41
0.0
173
     1
 91
-1056964608
340
14
 92
       -2
290
     1
 42
0.09
291
     1
 43
0.36
  3
Standard
 44
0.18
300

342
11
174
     1
178
     1
175
     1
176
     0
 93
-1056964608
 45
0.18
292
     0
297
     0
 46
0.18
 94
-1056964608
 47
1.0
 49
1.0
140
1.0
293
     1
141
0.0
294
     1
177
     0
142
1.0
295
     0
296
     0
143
0.125
271
     0
272
     9
273
     9
298
     0
  0
MLINESTYLE
  5
18
102
{ACAD_REACTORS
330
17
102
}
330
17
100
AcDbMlineStyle
  2
STANDARD
 70
     0
  3

 62
   256
 51
90.0
 52
90.0
 71
     2
 49
0.5
 62
   256
  6
BYLAYER
 49
-0.5
 62
   256
  6
BYLAYER
  0
ACDBPLACEHOLDER
  5
F
102
{ACAD_REACTORS
330
E
102
}
330
E
  0
SCALE
  5
47D1
102
{ACAD_REACTORS
330
B6
102
}
330
B6
100
AcDbScale
 70
     0
300
1:100_1_XREF_XREF_XREF_XREF
140
1.0
141
0.1
290
     0
  0
SCALE
  5
8BD6
102
{ACAD_REACTORS
330
B6
102
}
330
B6
100
AcDbScale
 70
     0
300
1:100_1_XREF_XREF_XREF_XREF_XREF_XREF_XREF_XREF_XREF
140
1.0
141
0.1
290
     0
1001
ACAD
1000
AcRTDxfName
1000
SCALE
1000
AcRTDxfName
1000
SCALE
1000
AcRTDxfName
1000
SCALE
1000
AcRTDxfName
1000
SCALE
  0
SCALE
  5
B7
102
{ACAD_REACTORS
330
B6
102
}
330
B6
100
AcDbScale
 70
     0
300
1:1
140
1.0
141
1.0
290
     1
  0
SCALE
  5
124
102
{ACAD_REACTORS
330
B6
102
}
330
B6
100
AcDbScale
 70
     0
300
1:2
140
1.0
141
2.0
290
     0
  0
SCALE
  5
125
102
{ACAD_REACTORS
330
B6
102
}
330
B6
100
AcDbScale
 70
     0
300
1:4
140
1.0
141
4.0
290
     0
  0
SCALE
  5
126
102
{ACAD_REACTORS
330
B6
102
}
330
B6
100
AcDbScale
 70
     0
300
1:5
140
1.0
141
5.0
290
     0
  0
SCALE
  5
127
102
{ACAD_REACTORS
330
B6
102
}
330
B6
100
AcDbScale
 70
     0
300
1:8
140
1.0
141
8.0
290
     0
  0
SCALE
  5
128
102
{ACAD_REACTORS
330
B6
102
}
330
B6
100
AcDbScale
 70
     0
300
1:10
140
1.0
141
10.0
290
     0
  0
SCALE
  5
129
102
{ACAD_REACTORS
330
B6
102
}
330
B6
100
AcDbScale
 70
     0
300
1:16
140
1.0
141
16.0
290
     0
  0
SCALE
  5
12A
102
{ACAD_REACTORS
330
B6
102
}
330
B6
100
AcDbScale
 70
     0
300
1:20
140
1.0
141
20.0
290
     0
  0
SCALE
  5
12B
102
{ACAD_REACTORS
330
B6
102
}
330
B6
100
AcDbScale
 70
     0
300
1:30
140
1.0
141
30.0
290
     0
  0
SCALE
  5
12C
102
{ACAD_REACTORS
330
B6
102
}
330
B6
100
AcDbScale
 70
     0
300
1:40
140
1.0
141
40.0
290
     0
  0
SCALE
  5
12D
102
{ACAD_REACTORS
330
B6
102
}
330
B6
100
AcDbScale
 70
     0
300
1:50
140
1.0
141
50.0
290
     0
  0
SCALE
  5
12E
102
{ACAD_REACTORS
330
B6
102
}
330
B6
100
AcDbScale
 70
     0
300
1:100
140
1.0
141
100.0
290
     0
  0
SCALE
  5
12F
102
{ACAD_REACTORS
330
B6
102
}
330
B6
100
AcDbScale
 70
     0
300
2:1
140
2.0
141
1.0
290
     0
  0
SCALE
  5
130
102
{ACAD_REACTORS
330
B6
102
}
330
B6
100
AcDbScale
 70
     0
300
4:1
140
4.0
141
1.0
290
     0
  0
SCALE
  5
131
102
{ACAD_REACTORS
330
B6
102
}
330
B6
100
AcDbScale
 70
     0
300
8:1
140
8.0
141
1.0
290
     0
  0
SCALE
  5
132
102
{ACAD_REACTORS
330
B6
102
}
330
B6
100
AcDbScale
 70
     0
300
10:1
140
10.0
141
1.0
290
     0
  0
SCALE
  5
133
102
{ACAD_REACTORS
330
B6
102
}
330
B6
100
AcDbScale
 70
     0
300
100:1
140
100.0
141
1.0
290
     0
  0
SCALE
  5
134
102
{ACAD_REACTORS
330
B6
102
}
330
B6
100
AcDbScale
 70
     0
300
1/128" = 1'-0"
140
0.0078125
141
12.0
290
     0
  0
SCALE
  5
135
102
{ACAD_REACTORS
330
B6
102
}
330
B6
100
AcDbScale
 70
     0
300
1/64" = 1'-0"
140
0.015625
141
12.0
290
     0
  0
SCALE
  5
136
102
{ACAD_REACTORS
330
B6
102
}
330
B6
100
AcDbScale
 70
     0
300
1/32" = 1'-0"
140
0.03125
141
12.0
290
     0
  0
SCALE
  5
137
102
{ACAD_REACTORS
330
B6
102
}
330
B6
100
AcDbScale
 70
     0
300
1/16" = 1'-0"
140
0.0625
141
12.0
290
     0
  0
SCALE
  5
138
102
{ACAD_REACTORS
330
B6
102
}
330
B6
100
AcDbScale
 70
     0
300
3/32" = 1'-0"
140
0.09375
141
12.0
290
     0
  0
SCALE
  5
139
102
{ACAD_REACTORS
330
B6
102
}
330
B6
100
AcDbScale
 70
     0
300
1/8" = 1'-0"
140
0.125
141
12.0
290
     0
  0
SCALE
  5
13A
102
{ACAD_REACTORS
330
B6
102
}
330
B6
100
AcDbScale
 70
     0
300
3/16" = 1'-0"
140
0.1875
141
12.0
290
     0
  0
SCALE
  5
13B
102
{ACAD_REACTORS
330
B6
102
}
330
B6
100
AcDbScale
 70
     0
300
1/4" = 1'-0"
140
0.25
141
12.0
290
     0
  0
SCALE
  5
13C
102
{ACAD_REACTORS
330
B6
102
}
330
B6
100
AcDbScale
 70
     0
300
3/8" = 1'-0"
140
0.375
141
12.0
290
     0
  0
SCALE
  5
13D
102
{ACAD_REACTORS
330
B6
102
}
330
B6
100
AcDbScale
 70
     0
300
1/2" = 1'-0"
140
0.5
141
12.0
290
     0
  0
SCALE
  5
13E
102
{ACAD_REACTORS
330
B6
102
}
330
B6
100
AcDbScale
 70
     0
300
3/4" = 1'-0"
140
0.75
141
12.0
290
     0
  0
SCALE
  5
13F
102
{ACAD_REACTORS
330
B6
102
}
330
B6
100
AcDbScale
 70
     0
300
1" = 1'-0"
140
1.0
141
12.0
290
     0
  0
SCALE
  5
140
102
{ACAD_REACTORS
330
B6
102
}
330
B6
100
AcDbScale
 70
     0
300
1-1/2" = 1'-0"
140
1.5
141
12.0
290
     0
  0
SCALE
  5
141
102
{ACAD_REACTORS
330
B6
102
}
330
B6
100
AcDbScale
 70
     0
300
3" = 1'-0"
140
3.0
141
12.0
290
     0
  0
SCALE
  5
142
102
{ACAD_REACTORS
330
B6
102
}
330
B6
100
AcDbScale
 70
     0
300
6" = 1'-0"
140
6.0
141
12.0
290
     0
  0
SCALE
  5
143
102
{ACAD_REACTORS
330
B6
102
}
330
B6
100
AcDbScale
 70
     0
300
1'-0" = 1'-0"
140
12.0
141
12.0
290
     0
  0
ACDBSECTIONVIEWSTYLE
  5
1AA
102
{ACAD_REACTORS
330
1A8
102
}
330
1A8
100
AcDbModelDocViewStyle
 70
     0
  3
Imperial24
290
     0
300
Imperial24
 90
        0
100
AcDbSectionViewStyle
 70
     0
 71
     0
 90
       78
 71
     1
340
11
 62
   256
 40
0.24
340
0
340
0
 62
   256
 40
0.24
300
I, O, Q, S, X, Z
 40
0.48
 90
        3
 40
0.18
 90
        1
 71
     2
340
16
 90
       25
 62
   256
340
16
 90
       50
 62
   256
 40
0.24
 40
0.0
 40
0.24
 71
     3
340
11
 62
   256
 40
0.24
 90
        1
 40
0.75
 90
        1
300
%<\AcVar ViewType \f "%tc1">% %<\AcVar ViewSectionStartId>%-%<\AcVar ViewSectionEndId>%\PSCALE %<\AcVar ViewScale \f "%sn">%
 71
     4
 62
   256
 62
   257
300
ANSI31
 40
1.0
 90
        0
290
     0
290
     0
 90
        6
 40
0.0
 40
1.570796326794896
 40
0.2617993877991494
 40
1.308996938995747
 40
-0.2617993877991494
 40
1.832595714594046
  0
ACDBSECTIONVIEWSTYLE
  5
223
102
{ACAD_REACTORS
330
1A8
102
}
330
1A8
100
AcDbModelDocViewStyle
 70
     0
  3
Metric50
290
     0
300
Metric50
 90
        0
100
AcDbSectionViewStyle
 70
     0
 71
     0
 90
      102
 71
     1
340
11
 62
   256
 40
5.0
340
0
340
0
 62
   256
 40
5.0
300
I, O, Q, S, X, Z
 40
10.0
 90
        0
 40
2.5
 90
        0
 71
     2
340
16
 90
       25
 62
   256
340
16
 90
       50
 62
   256
 40
5.0
 40
2.5
 40
5.0
 71
     3
340
11
 62
   256
 40
5.0
 90
        0
 40
15.0
 90
        1
300
%<\AcVar ViewSectionStartId>%-%<\AcVar ViewSectionEndId>% (%<\AcVar ViewScale \f "%sn">%)
 71
     4
 62
   256
 62
   257
300
ANSI31
 40
1.0
 90
        0
290
     0
290
     0
 90
        6
 40
0.0
 40
1.570796326794896
 40
0.2617993877991494
 40
1.308996938995747
 40
-0.2617993877991494
 40
1.832595714594046
  0
TABLESTYLE
  5
87
102
{ACAD_XDICTIONARY
360
104
102
}
102
{ACAD_REACTORS
330
86
102
}
330
86
100
AcDbTableStyle
280
     0
  3
Standard
 70
     0
 71
     0
 40
0.06
 41
0.06
280
     0
281
     0
  7
Standard
140
0.18
170
     2
 62
     0
 63
     7
283
     0
 90
      512
 91
        0
  1

274
    -2
284
     1
 64
     0
275
    -2
285
     1
 65
     0
276
    -2
286
     1
 66
     0
277
    -2
287
     1
 67
     0
278
    -2
288
     1
 68
     0
279
    -2
289
     1
 69
     0
  7
Standard
140
0.25
170
     5
 62
     0
 63
     7
283
     0
 90
      512
 91
        0
  1

274
    -2
284
     1
 64
     0
275
    -2
285
     1
 65
     0
276
    -2
286
     1
 66
     0
277
    -2
287
     1
 67
     0
278
    -2
288
     1
 68
     0
279
    -2
289
     1
 69
     0
  7
Standard
140
0.18
170
     5
 62
     0
 63
     7
283
     0
 90
      512
 91
        0
  1

274
    -2
284
     1
 64
     0
275
    -2
285
     1
 65
     0
276
    -2
286
     1
 66
     0
277
    -2
287
     1
 67
     0
278
    -2
288
     1
 68
     0
279
    -2
289
     1
 69
     0
  0
VISUALSTYLE
  5
9F
102
{ACAD_REACTORS
330
99
102
}
330
99
100
AcDbVisualStyle
  2
2dWireframe
 70
     4
177
     3
291
     0
 70
    58
 90
        0
176
     1
 90
        2
176
     1
 90
        1
176
     1
 90
        0
176
     1
 40
0.6
176
     1
 40
30.0
176
     1
 62
     7
420
 16777215
176
     1
 90
        1
176
     1
 90
        4
176
     1
 62
     7
176
     1
 62
   257
176
     1
 90
        1
176
     1
 90
        1
176
     1
 40
1.0
176
     1
 90
        0
176
     1
 62
   257
176
     1
 40
1.0
176
     1
 90
        1
176
     1
 90
        6
176
     1
 90
        2
176
     1
 62
     7
176
     1
 90
        5
176
     1
 90
        0
176
     1
 90
        0
176
     1
290
     0
176
     1
 90
        1
176
     1
 40
0.0
176
     1
 90
        0
176
     1
290
     1
176
     1
290
     1
176
     1
290
     0
176
     1
290
     0
176
     1
290
     0
176
     1
290
     0
176
     1
290
     0
176
     1
290
     0
176
     1
290
     0
176
     1
 90
       50
176
     1
 40
0.0
176
     1
 40
1.0
176
     1
 90
        0
176
     1
 62
    18
420
        0
176
     1
 90
       50
176
     1
 90
        3
176
     1
 62
     5
420
      255
176
     1
290
     0
176
     1
 90
       50
176
     1
 90
       50
176
     1
 90
       50
176
     1
290
     0
176
     1
 90
       50
176
     1
 62
   256
176
     0
 40
1.0
176
     0
 90
        2
176
     1
  1
strokes_ogs.tif
176
     1
290
     0
176
     1
 40
1.0
176
     1
 40
1.0
176
     1
  0
VISUALSTYLE
  5
2684
102
{ACAD_REACTORS
330
99
102
}
330
99
100
AcDbVisualStyle
  2
3dWireframe
 70
     5
177
     3
291
     0
 70
    58
 90
        0
176
     1
 90
        2
176
     1
 90
        0
176
     1
 90
        0
176
     1
 40
0.6
176
     1
 40
30.0
176
     1
 62
     7
176
     1
 90
        1
176
     1
 90
        4
176
     1
 62
     7
176
     1
 62
   257
176
     1
 90
        1
176
     1
 90
        1
176
     1
 40
1.0
176
     1
 90
        0
176
     1
 62
   257
176
     1
 40
1.0
176
     1
 90
        1
176
     1
 90
        6
176
     1
 90
        2
176
     1
 62
     7
176
     1
 90
        5
176
     1
 90
        0
176
     1
 90
        0
176
     1
290
     0
176
     1
 90
        1
176
     1
 40
0.0
176
     1
 90
        0
176
     1
290
     0
176
     1
290
     1
176
     1
290
     1
176
     1
290
     0
176
     1
290
     0
176
     1
290
     0
176
     1
290
     0
176
     1
290
     0
176
     1
290
     0
176
     1
 90
       50
176
     1
 40
0.0
176
     1
 40
1.0
176
     1
 90
        0
176
     1
 62
    18
420
        0
176
     1
 90
       50
176
     1
 90
        3
176
     1
 62
     5
420
      255
176
     1
290
     0
176
     1
 90
       50
176
     1
 90
       50
176
     1
 90
       50
176
     1
290
     0
176
     1
 90
       50
176
     1
 62
   256
176
     0
 40
1.0
176
     0
 90
        2
176
     1
  1
strokes_ogs.tif
176
     1
290
     0
176
     1
 40
1.0
176
     1
 40
1.0
176
     1
1001
ACAD
1000
AcRTDxfName
1000
VISUALSTYLE
  0
VISUALSTYLE
  5
9E
102
{ACAD_REACTORS
330
99
102
}
330
99
100
AcDbVisualStyle
  2
Basic
 70
     7
177
     3
291
     1
 70
    58
 90
        1
176
     1
 90
        0
176
     1
 90
        1
176
     1
 90
        0
176
     1
 40
0.6
176
     1
 40
30.0
176
     1
 62
     7
420
 16777215
176
     1
 90
        0
176
     1
 90
        4
176
     1
 62
     7
176
     1
 62
   257
176
     1
 90
        1
176
     1
 90
        1
176
     1
 40
1.0
176
     1
 90
        8
176
     1
 62
     7
176
     1
 40
1.0
176
     1
 90
        1
176
     1
 90
        6
176
     1
 90
        2
176
     1
 62
     7
176
     1
 90
        5
176
     1
 90
        0
176
     1
 90
        0
176
     1
290
     0
176
     1
 90
        1
176
     1
 40
0.0
176
     1
 90
        0
176
     1
290
     0
176
     1
290
     1
176
     1
290
     1
176
     1
290
     0
176
     1
290
     0
176
     1
290
     0
176
     1
290
     0
176
     1
290
     0
176
     1
290
     0
176
     1
 90
       50
176
     1
 40
0.0
176
     1
 40
1.0
176
     1
 90
        0
176
     1
 62
    18
420
        0
176
     1
 90
       50
176
     1
 90
        3
176
     1
 62
     5
420
      255
176
     1
290
     0
176
     1
 90
       50
176
     1
 90
       50
176
     1
 90
       50
176
     1
290
     0
176
     1
 90
       50
176
     1
 62
   256
176
     0
 40
1.0
176
     0
 90
        2
176
     1
  1
strokes_ogs.tif
176
     1
290
     0
176
     1
 40
1.0
176
     1
 40
1.0
176
     1
  0
VISUALSTYLE
  5
A5
102
{ACAD_REACTORS
330
99
102
}
330
99
100
AcDbVisualStyle
  2
Brighten
 70
    12
177
     3
291
     1
 70
    58
 90
        2
176
     1
 90
        2
176
     1
 90
        1
176
     1
 90
        0
176
     1
 40
0.6
176
     1
 40
30.0
176
     1
 62
     7
420
 16777215
176
     1
 90
        1
176
     1
 90
        4
176
     1
 62
     7
176
     1
 62
   257
176
     1
 90
        1
176
     1
 90
        1
176
     1
 40
1.0
176
     1
 90
        8
176
     1
 62
     7
176
     1
 40
1.0
176
     1
 90
        1
176
     1
 90
        6
176
     1
 90
        2
176
     1
 62
     7
176
     1
 90
        5
176
     1
 90
        0
176
     1
 90
        0
176
     1
290
     0
176
     1
 90
        1
176
     1
 40
50.0
176
     1
 90
        0
176
     1
290
     0
176
     1
290
     1
176
     1
290
     1
176
     1
290
     0
176
     1
290
     0
176
     1
290
     0
176
     1
290
     0
176
     1
290
     0
176
     1
290
     0
176
     1
 90
       50
176
     1
 40
0.0
176
     1
 40
1.0
176
     1
 90
        0
176
     1
 62
    18
420
        0
176
     1
 90
       50
176
     1
 90
        3
176
     1
 62
     5
420
      255
176
     1
290
     0
176
     1
 90
       50
176
     1
 90
       50
176
     1
 90
       50
176
     1
290
     0
176
     1
 90
       50
176
     1
 62
   256
176
     0
 40
1.0
176
     0
 90
        2
176
     1
  1
strokes_ogs.tif
176
     1
290
     0
176
     1
 40
1.0
176
     1
 40
1.0
176
     1
  0
VISUALSTYLE
  5
A9
102
{ACAD_REACTORS
330
99
102
}
330
99
100
AcDbVisualStyle
  2
ColorChange
 70
    16
177
     3
291
     1
 70
    58
 90
        2
176
     1
 90
        2
176
     1
 90
        3
176
     1
 90
        0
176
     1
 40
0.6
176
     1
 40
30.0
176
     1
 62
     8
420
  8421504
176
     1
 90
        1
176
     1
 90
        4
176
     1
 62
     7
176
     1
 62
   257
176
     1
 90
        1
176
     1
 90
        1
176
     1
 40
1.0
176
     1
 90
        8
176
     1
 62
     8
420
  8421504
176
     1
 40
1.0
176
     1
 90
        1
176
     1
 90
        6
176
     1
 90
        2
176
     1
 62
     7
176
     1
 90
        5
176
     1
 90
        0
176
     1
 90
        0
176
     1
290
     0
176
     1
 90
        1
176
     1
 40
0.0
176
     1
 90
        0
176
     1
290
     0
176
     1
290
     1
176
     1
290
     1
176
     1
290
     0
176
     1
290
     0
176
     1
290
     0
176
     1
290
     0
176
     1
290
     0
176
     1
290
     0
176
     1
 90
       50
176
     1
 40
0.0
176
     1
 40
1.0
176
     1
 90
        0
176
     1
 62
    18
420
        0
176
     1
 90
       50
176
     1
 90
        3
176
     1
 62
     5
420
      255
176
     1
290
     0
176
     1
 90
       50
176
     1
 90
       50
176
     1
 90
       50
176
     1
290
     0
176
     1
 90
       50
176
     1
 62
   256
176
     0
 40
1.0
176
     0
 90
        2
176
     1
  1
strokes_ogs.tif
176
     1
290
     0
176
     1
 40
1.0
176
     1
 40
1.0
176
     1
  0
VISUALSTYLE
  5
A2
102
{ACAD_REACTORS
330
99
102
}
330
99
100
AcDbVisualStyle
  2
Conceptual
 70
     9
177
     3
291
     0
 70
    58
 90
        3
176
     1
 90
        2
176
     1
 90
        1
176
     1
 90
        0
176
     1
 40
0.6
176
     1
 40
30.0
176
     1
 62
     7
420
 16777215
176
     1
 90
        2
176
     1
 90
        2
176
     1
 62
     7
176
     1
 62
   257
176
     1
 90
        1
176
     1
 90
        1
176
     1
 40
40.0
176
     1
 90
        8
176
     1
 62
     7
176
     1
 40
1.0
176
     1
 90
        1
176
     1
 90
        6
176
     1
 90
        2
176
     1
 62
     7
176
     1
 90
        3
176
     1
 90
        0
176
     1
 90
        0
176
     1
290
     0
176
     1
 90
        1
176
     1
 40
0.0
176
     1
 90
        0
176
     1
290
     0
176
     1
290
     1
176
     1
290
     1
176
     1
290
     0
176
     1
290
     0
176
     1
290
     0
176
     1
290
     0
176
     1
290
     0
176
     1
290
     0
176
     1
 90
       50
176
     1
 40
0.0
176
     1
 40
1.0
176
     1
 90
        0
176
     1
 62
    18
420
        0
176
     1
 90
       50
176
     1
 90
        3
176
     1
 62
     5
420
      255
176
     1
290
     0
176
     1
 90
       50
176
     1
 90
       50
176
     1
 90
       50
176
     1
290
     0
176
     1
 90
       50
176
     1
 62
   256
176
     0
 40
1.0
176
     0
 90
        2
176
     1
  1
strokes_ogs.tif
176
     1
290
     0
176
     1
 40
1.0
176
     1
 40
1.0
176
     1
  0
VISUALSTYLE
  5
A4
102
{ACAD_REACTORS
330
99
102
}
330
99
100
AcDbVisualStyle
  2
Dim
 70
    11
177
     3
291
     1
 70
    58
 90
        2
176
     1
 90
        2
176
     1
 90
        1
176
     1
 90
        0
176
     1
 40
0.6
176
     1
 40
30.0
176
     1
 62
     7
420
 16777215
176
     1
 90
        1
176
     1
 90
        4
176
     1
 62
     7
176
     1
 62
   257
176
     1
 90
        1
176
     1
 90
        1
176
     1
 40
1.0
176
     1
 90
        8
176
     1
 62
     7
176
     1
 40
1.0
176
     1
 90
        1
176
     1
 90
        6
176
     1
 90
        2
176
     1
 62
     7
176
     1
 90
        5
176
     1
 90
        0
176
     1
 90
        0
176
     1
290
     0
176
     1
 90
        1
176
     1
 40
-50.0
176
     1
 90
        0
176
     1
290
     0
176
     1
290
     1
176
     1
290
     1
176
     1
290
     0
176
     1
290
     0
176
     1
290
     0
176
     1
290
     0
176
     1
290
     0
176
     1
290
     0
176
     1
 90
       50
176
     1
 40
0.0
176
     1
 40
1.0
176
     1
 90
        0
176
     1
 62
    18
420
        0
176
     1
 90
       50
176
     1
 90
        3
176
     1
 62
     5
420
      255
176
     1
290
     0
176
     1
 90
       50
176
     1
 90
       50
176
     1
 90
       50
176
     1
290
     0
176
     1
 90
       50
176
     1
 62
   256
176
     0
 40
1.0
176
     0
 90
        2
176
     1
  1
strokes_ogs.tif
176
     1
290
     0
176
     1
 40
1.0
176
     1
 40
1.0
176
     1
  0
VISUALSTYLE
  5
175
102
{ACAD_REACTORS
330
99
102
}
330
99
100
AcDbVisualStyle
  2
EdgeColorOff
 70
    22
177
     3
291
     1
 70
    58
 90
        2
176
     0
 90
        2
176
     0
 90
        0
176
     0
 90
        0
176
     0
 40
0.6
176
     0
 40
30.0
176
     0
 62
     7
420
 16777215
176
     0
 90
        1
176
     0
 90
        4
176
     0
 62
     7
176
     0
 62
   257
176
     0
 90
        1
176
     0
 90
        1
176
     0
 40
1.0
176
     0
 90
        8
176
     2
 62
     7
176
     0
 40
1.0
176
     0
 90
        1
176
     0
 90
        6
176
     0
 90
        2
176
     0
 62
     7
176
     0
 90
        5
176
     0
 90
        0
176
     0
 90
        0
176
     0
290
     0
176
     0
 90
        1
176
     0
 40
0.0
176
     0
 90
        0
176
     0
290
     0
176
     1
290
     1
176
     1
290
     1
176
     1
290
     0
176
     1
290
     0
176
     1
290
     0
176
     1
290
     0
176
     1
290
     0
176
     1
290
     0
176
     1
 90
       50
176
     1
 40
0.0
176
     1
 40
1.0
176
     1
 90
        0
176
     1
 62
    18
420
        0
176
     1
 90
       50
176
     1
 90
        3
176
     1
 62
     5
420
      255
176
     1
290
     0
176
     1
 90
       50
176
     1
 90
       50
176
     1
 90
       50
176
     1
290
     0
176
     1
 90
       50
176
     1
 62
   256
176
     0
 40
1.0
176
     0
 90
        2
176
     1
  1
strokes_ogs.tif
176
     1
290
     0
176
     1
 40
1.0
176
     1
 40
1.0
176
     1
  0
VISUALSTYLE
  5
A8
102
{ACAD_REACTORS
330
99
102
}
330
99
100
AcDbVisualStyle
  2
Facepattern
 70
    15
177
     3
291
     1
 70
    58
 90
        2
176
     1
 90
        2
176
     1
 90
        1
176
     1
 90
        0
176
     1
 40
0.6
176
     1
 40
30.0
176
     1
 62
     7
420
 16777215
176
     1
 90
        1
176
     1
 90
        4
176
     1
 62
     7
176
     1
 62
   257
176
     1
 90
        1
176
     1
 90
        1
176
     1
 40
1.0
176
     1
 90
        8
176
     1
 62
     7
176
     1
 40
1.0
176
     1
 90
        1
176
     1
 90
        6
176
     1
 90
        2
176
     1
 62
     7
176
     1
 90
        5
176
     1
 90
        0
176
     1
 90
        0
176
     1
290
     0
176
     1
 90
        1
176
     1
 40
0.0
176
     1
 90
        0
176
     1
290
     0
176
     1
290
     1
176
     1
290
     1
176
     1
290
     0
176
     1
290
     0
176
     1
290
     0
176
     1
290
     0
176
     1
290
     0
176
     1
290
     0
176
     1
 90
       50
176
     1
 40
0.0
176
     1
 40
1.0
176
     1
 90
        0
176
     1
 62
    18
420
        0
176
     1
 90
       50
176
     1
 90
        3
176
     1
 62
     5
420
      255
176
     1
290
     0
176
     1
 90
       50
176
     1
 90
       50
176
     1
 90
       50
176
     1
290
     0
176
     1
 90
       50
176
     1
 62
   256
176
     0
 40
1.0
176
     0
 90
        2
176
     1
  1
strokes_ogs.tif
176
     1
290
     0
176
     1
 40
1.0
176
     1
 40
1.0
176
     1
  0
VISUALSTYLE
  5
9A
102
{ACAD_REACTORS
330
99
102
}
330
99
100
AcDbVisualStyle
  2
Flat
 70
     0
177
     3
291
     1
 70
    58
 90
        2
176
     1
 90
        1
176
     1
 90
        1
176
     1
 90
        2
176
     1
 40
0.6
176
     1
 40
30.0
176
     1
 62
     7
420
 16777215
176
     1
 90
        0
176
     1
 90
        0
176
     1
 62
     7
176
     1
 62
   257
176
     1
 90
        1
176
     1
 90
        1
176
     1
 40
1.0
176
     1
 90
        8
176
     1
 62
     7
176
     1
 40
1.0
176
     1
 90
        1
176
     1
 90
        6
176
     1
 90
        2
176
     1
 62
     7
176
     1
 90
        5
176
     1
 90
        0
176
     1
 90
        0
176
     1
290
     0
176
     1
 90
       13
176
     1
 40
0.0
176
     1
 90
        0
176
     1
290
     0
176
     1
290
     1
176
     1
290
     1
176
     1
290
     0
176
     1
290
     0
176
     1
290
     0
176
     1
290
     0
176
     1
290
     0
176
     1
290
     0
176
     1
 90
       50
176
     1
 40
0.0
176
     1
 40
1.0
176
     1
 90
        0
176
     1
 62
    18
420
        0
176
     1
 90
       50
176
     1
 90
        3
176
     1
 62
     5
420
      255
176
     1
290
     0
176
     1
 90
       50
176
     1
 90
       50
176
     1
 90
       50
176
     1
290
     0
176
     1
 90
       50
176
     1
 62
   256
176
     0
 40
1.0
176
     0
 90
        2
176
     1
  1
strokes_ogs.tif
176
     1
290
     0
176
     1
 40
1.0
176
     1
 40
1.0
176
     1
  0
VISUALSTYLE
  5
9B
102
{ACAD_REACTORS
330
99
102
}
330
99
100
AcDbVisualStyle
  2
FlatWithEdges
 70
     1
177
     3
291
     1
 70
    58
 90
        2
176
     1
 90
        1
176
     1
 90
        1
176
     1
 90
        2
176
     1
 40
0.6
176
     1
 40
30.0
176
     1
 62
     7
420
 16777215
176
     1
 90
        1
176
     1
 90
        0
176
     1
 62
     7
176
     1
 62
   257
176
     1
 90
        1
176
     1
 90
        1
176
     1
 40
1.0
176
     1
 90
        0
176
     1
 62
   257
176
     1
 40
1.0
176
     1
 90
        1
176
     1
 90
        6
176
     1
 90
        2
176
     1
 62
     7
176
     1
 90
        5
176
     1
 90
        0
176
     1
 90
        0
176
     1
290
     0
176
     1
 90
       13
176
     1
 40
0.0
176
     1
 90
        0
176
     1
290
     0
176
     1
290
     1
176
     1
290
     1
176
     1
290
     0
176
     1
290
     0
176
     1
290
     0
176
     1
290
     0
176
     1
290
     0
176
     1
290
     0
176
     1
 90
       50
176
     1
 40
0.0
176
     1
 40
1.0
176
     1
 90
        0
176
     1
 62
    18
420
        0
176
     1
 90
       50
176
     1
 90
        3
176
     1
 62
     5
420
      255
176
     1
290
     0
176
     1
 90
       50
176
     1
 90
       50
176
     1
 90
       50
176
     1
290
     0
176
     1
 90
       50
176
     1
 62
   256
176
     0
 40
1.0
176
     0
 90
        2
176
     1
  1
strokes_ogs.tif
176
     1
290
     0
176
     1
 40
1.0
176
     1
 40
1.0
176
     1
  0
VISUALSTYLE
  5
9C
102
{ACAD_REACTORS
330
99
102
}
330
99
100
AcDbVisualStyle
  2
Gouraud
 70
     2
177
     3
291
     1
 70
    58
 90
        2
176
     1
 90
        2
176
     1
 90
        1
176
     1
 90
        2
176
     1
 40
0.6
176
     1
 40
30.0
176
     1
 62
     7
420
 16777215
176
     1
 90
        0
176
     1
 90
        0
176
     1
 62
     7
176
     1
 62
   257
176
     1
 90
        1
176
     1
 90
        1
176
     1
 40
1.0
176
     1
 90
        0
176
     1
 62
     7
176
     1
 40
1.0
176
     1
 90
        1
176
     1
 90
        6
176
     1
 90
        2
176
     1
 62
     7
176
     1
 90
        5
176
     1
 90
        0
176
     1
 90
        0
176
     1
290
     0
176
     1
 90
       13
176
     1
 40
0.0
176
     1
 90
        0
176
     1
290
     0
176
     1
290
     1
176
     1
290
     1
176
     1
290
     0
176
     1
290
     0
176
     1
290
     0
176
     1
290
     0
176
     1
290
     0
176
     1
290
     0
176
     1
 90
       50
176
     1
 40
0.0
176
     1
 40
1.0
176
     1
 90
        0
176
     1
 62
    18
420
        0
176
     1
 90
       50
176
     1
 90
        3
176
     1
 62
     5
420
      255
176
     1
290
     0
176
     1
 90
       50
176
     1
 90
       50
176
     1
 90
       50
176
     1
290
     0
176
     1
 90
       50
176
     1
 62
   256
176
     0
 40
1.0
176
     0
 90
        2
176
     1
  1
strokes_ogs.tif
176
     1
290
     0
176
     1
 40
1.0
176
     1
 40
1.0
176
     1
  0
VISUALSTYLE
  5
9D
102
{ACAD_REACTORS
330
99
102
}
330
99
100
AcDbVisualStyle
  2
GouraudWithEdges
 70
     3
177
     3
291
     1
 70
    58
 90
        2
176
     1
 90
        2
176
     1
 90
        1
176
     1
 90
        2
176
     1
 40
0.6
176
     1
 40
30.0
176
     1
 62
     7
420
 16777215
176
     1
 90
        1
176
     1
 90
        0
176
     1
 62
     7
176
     1
 62
   257
176
     1
 90
        1
176
     1
 90
        1
176
     1
 40
1.0
176
     1
 90
        0
176
     1
 62
   257
176
     1
 40
1.0
176
     1
 90
        1
176
     1
 90
        6
176
     1
 90
        2
176
     1
 62
     7
176
     1
 90
        5
176
     1
 90
        0
176
     1
 90
        0
176
     1
290
     0
176
     1
 90
       13
176
     1
 40
0.0
176
     1
 90
        0
176
     1
290
     0
176
     1
290
     1
176
     1
290
     1
176
     1
290
     0
176
     1
290
     0
176
     1
290
     0
176
     1
290
     0
176
     1
290
     0
176
     1
290
     0
176
     1
 90
       50
176
     1
 40
0.0
176
     1
 40
1.0
176
     1
 90
        0
176
     1
 62
    18
420
        0
176
     1
 90
       50
176
     1
 90
        3
176
     1
 62
     5
420
      255
176
     1
290
     0
176
     1
 90
       50
176
     1
 90
       50
176
     1
 90
       50
176
     1
290
     0
176
     1
 90
       50
176
     1
 62
   256
176
     0
 40
1.0
176
     0
 90
        2
176
     1
  1
strokes_ogs.tif
176
     1
290
     0
176
     1
 40
1.0
176
     1
 40
1.0
176
     1
  0
VISUALSTYLE
  5
A1
102
{ACAD_REACTORS
330
99
102
}
330
99
100
AcDbVisualStyle
  2
Hidden
 70
     6
177
     3
291
     0
 70
    58
 90
        1
176
     1
 90
        2
176
     1
 90
        2
176
     1
 90
        0
176
     1
 40
0.6
176
     1
 40
30.0
176
     1
 62
     7
420
 16777215
176
     1
 90
        2
176
     1
 90
        2
176
     1
 62
     7
176
     1
 62
   257
176
     1
 90
        2
176
     1
 90
        1
176
     1
 40
40.0
176
     1
 90
        0
176
     1
 62
   257
176
     1
 40
1.0
176
     1
 90
        1
176
     1
 90
        6
176
     1
 90
        2
176
     1
 62
     7
176
     1
 90
        3
176
     1
 90
        0
176
     1
 90
        0
176
     1
290
     0
176
     1
 90
        1
176
     1
 40
0.0
176
     1
 90
        0
176
     1
290
     0
176
     1
290
     1
176
     1
290
     1
176
     1
290
     0
176
     1
290
     0
176
     1
290
     0
176
     1
290
     0
176
     1
290
     0
176
     1
290
     0
176
     1
 90
       50
176
     1
 40
0.0
176
     1
 40
1.0
176
     1
 90
        0
176
     1
 62
    18
420
        0
176
     1
 90
       50
176
     1
 90
        3
176
     1
 62
     5
420
      255
176
     1
290
     0
176
     1
 90
       50
176
     1
 90
       50
176
     1
 90
       50
176
     1
290
     0
176
     1
 90
       50
176
     1
 62
   256
176
     0
 40
1.0
176
     0
 90
        2
176
     1
  1
strokes_ogs.tif
176
     1
290
     0
176
     1
 40
1.0
176
     1
 40
1.0
176
     1
  0
VISUALSTYLE
  5
173
102
{ACAD_REACTORS
330
99
102
}
330
99
100
AcDbVisualStyle
  2
JitterOff
 70
    20
177
     3
291
     1
 70
    58
 90
        2
176
     0
 90
        2
176
     0
 90
        0
176
     0
 90
        0
176
     0
 40
0.6
176
     0
 40
30.0
176
     0
 62
     7
420
 16777215
176
     0
 90
        1
176
     0
 90
        4
176
     0
 62
     7
176
     0
 62
   257
176
     0
 90
        1
176
     0
 90
        1
176
     0
 40
1.0
176
     0
 90
       10
176
     2
 62
     7
176
     0
 40
1.0
176
     0
 90
        1
176
     0
 90
        6
176
     0
 90
        2
176
     0
 62
     7
176
     0
 90
        5
176
     0
 90
        0
176
     0
 90
        0
176
     0
290
     0
176
     0
 90
        1
176
     0
 40
0.0
176
     0
 90
        0
176
     0
290
     0
176
     1
290
     1
176
     1
290
     1
176
     1
290
     0
176
     1
290
     0
176
     1
290
     0
176
     1
290
     0
176
     1
290
     0
176
     1
290
     0
176
     1
 90
       50
176
     1
 40
0.0
176
     1
 40
1.0
176
     1
 90
        0
176
     1
 62
    18
420
        0
176
     1
 90
       50
176
     1
 90
        3
176
     1
 62
     5
420
      255
176
     1
290
     0
176
     1
 90
       50
176
     1
 90
       50
176
     1
 90
       50
176
     1
290
     0
176
     1
 90
       50
176
     1
 62
   256
176
     0
 40
1.0
176
     0
 90
        2
176
     1
  1
strokes_ogs.tif
176
     1
290
     0
176
     1
 40
1.0
176
     1
 40
1.0
176
     1
  0
VISUALSTYLE
  5
A7
102
{ACAD_REACTORS
330
99
102
}
330
99
100
AcDbVisualStyle
  2
Linepattern
 70
    14
177
     3
291
     1
 70
    58
 90
        2
176
     1
 90
        2
176
     1
 90
        1
176
     1
 90
        0
176
     1
 40
0.6
176
     1
 40
30.0
176
     1
 62
     7
420
 16777215
176
     1
 90
        1
176
     1
 90
        4
176
     1
 62
     7
176
     1
 62
   257
176
     1
 90
        7
176
     1
 90
        7
176
     1
 40
1.0
176
     1
 90
        8
176
     1
 62
     7
176
     1
 40
1.0
176
     1
 90
        1
176
     1
 90
        6
176
     1
 90
        2
176
     1
 62
     7
176
     1
 90
        5
176
     1
 90
        0
176
     1
 90
        0
176
     1
290
     0
176
     1
 90
        1
176
     1
 40
0.0
176
     1
 90
        0
176
     1
290
     0
176
     1
290
     1
176
     1
290
     1
176
     1
290
     0
176
     1
290
     0
176
     1
290
     0
176
     1
290
     0
176
     1
290
     0
176
     1
290
     0
176
     1
 90
       50
176
     1
 40
0.0
176
     1
 40
1.0
176
     1
 90
        0
176
     1
 62
    18
420
        0
176
     1
 90
       50
176
     1
 90
        3
176
     1
 62
     5
420
      255
176
     1
290
     0
176
     1
 90
       50
176
     1
 90
       50
176
     1
 90
       50
176
     1
290
     0
176
     1
 90
       50
176
     1
 62
   256
176
     0
 40
1.0
176
     0
 90
        2
176
     1
  1
strokes_ogs.tif
176
     1
290
     0
176
     1
 40
1.0
176
     1
 40
1.0
176
     1
  0
VISUALSTYLE
  5
174
102
{ACAD_REACTORS
330
99
102
}
330
99
100
AcDbVisualStyle
  2
OverhangOff
 70
    21
177
     3
291
     1
 70
    58
 90
        2
176
     0
 90
        2
176
     0
 90
        0
176
     0
 90
        0
176
     0
 40
0.6
176
     0
 40
30.0
176
     0
 62
     7
420
 16777215
176
     0
 90
        1
176
     0
 90
        4
176
     0
 62
     7
176
     0
 62
   257
176
     0
 90
        1
176
     0
 90
        1
176
     0
 40
1.0
176
     0
 90
        9
176
     2
 62
     7
176
     0
 40
1.0
176
     0
 90
        1
176
     0
 90
        6
176
     0
 90
        2
176
     0
 62
     7
176
     0
 90
        5
176
     0
 90
        0
176
     0
 90
        0
176
     0
290
     0
176
     0
 90
        1
176
     0
 40
0.0
176
     0
 90
        0
176
     0
290
     0
176
     1
290
     1
176
     1
290
     1
176
     1
290
     0
176
     1
290
     0
176
     1
290
     0
176
     1
290
     0
176
     1
290
     0
176
     1
290
     0
176
     1
 90
       50
176
     1
 40
0.0
176
     1
 40
1.0
176
     1
 90
        0
176
     1
 62
    18
420
        0
176
     1
 90
       50
176
     1
 90
        3
176
     1
 62
     5
420
      255
176
     1
290
     0
176
     1
 90
       50
176
     1
 90
       50
176
     1
 90
       50
176
     1
290
     0
176
     1
 90
       50
176
     1
 62
   256
176
     0
 40
1.0
176
     0
 90
        2
176
     1
  1
strokes_ogs.tif
176
     1
290
     0
176
     1
 40
1.0
176
     1
 40
1.0
176
     1
  0
VISUALSTYLE
  5
A3
102
{ACAD_REACTORS
330
99
102
}
330
99
100
AcDbVisualStyle
  2
Realistic
 70
     8
177
     3
291
     0
 70
    58
 90
        2
176
     1
 90
        2
176
     1
 90
        0
176
     1
 90
        2
176
     1
 40
0.6
176
     1
 40
30.0
176
     1
 62
     7
420
 16777215
176
     1
 90
        0
176
     1
 90
        0
176
     1
 62
     7
176
     1
 62
   257
176
     1
 90
        1
176
     1
 90
        1
176
     1
 40
1.0
176
     1
 90
        8
176
     1
 62
   257
176
     1
 40
1.0
176
     1
 90
        1
176
     1
 90
        6
176
     1
 90
        2
176
     1
 62
     7
176
     1
 90
        3
176
     1
 90
        0
176
     1
 90
        0
176
     1
290
     0
176
     1
 90
       13
176
     1
 40
0.0
176
     1
 90
        0
176
     1
290
     0
176
     1
290
     1
176
     1
290
     1
176
     1
290
     0
176
     1
290
     0
176
     1
290
     0
176
     1
290
     0
176
     1
290
     0
176
     1
290
     0
176
     1
 90
       50
176
     1
 40
0.0
176
     1
 40
1.0
176
     1
 90
        0
176
     1
 62
    18
420
        0
176
     1
 90
       50
176
     1
 90
        3
176
     1
 62
     5
420
      255
176
     1
290
     0
176
     1
 90
       50
176
     1
 90
       50
176
     1
 90
       50
176
     1
290
     0
176
     1
 90
       50
176
     1
 62
   256
176
     0
 40
1.0
176
     0
 90
        2
176
     1
  1
strokes_ogs.tif
176
     1
290
     0
176
     1
 40
1.0
176
     1
 40
1.0
176
     1
  0
VISUALSTYLE
  5
182
102
{ACAD_REACTORS
330
99
102
}
330
99
100
AcDbVisualStyle
  2
Shaded
 70
    27
177
     3
291
     0
 70
    58
 90
        2
176
     1
 90
        2
176
     1
 90
        1
176
     1
 90
        2
176
     1
 40
0.6
176
     1
 40
30.0
176
     1
 62
     7
420
 16777215
176
     1
 90
        0
176
     1
 90
        4
176
     1
 62
     7
176
     1
 62
   257
176
     1
 90
        1
176
     1
 90
        1
176
     1
 40
1.0
176
     1
 90
        8
176
     1
 62
   257
176
     1
 40
1.0
176
     1
 90
        1
176
     1
 90
        6
176
     1
 90
        2
176
     1
 62
     8
420
  7895160
176
     1
 90
        3
176
     1
 90
        0
176
     1
 90
        0
176
     1
290
     0
176
     1
 90
        5
176
     1
 40
0.0
176
     1
 90
        0
176
     1
290
     0
176
     1
290
     1
176
     1
290
     1
176
     1
290
     0
176
     1
290
     0
176
     1
290
     0
176
     1
290
     0
176
     1
290
     0
176
     1
290
     0
176
     1
 90
       50
176
     1
 40
0.0
176
     1
 40
1.0
176
     1
 90
        0
176
     1
 62
    18
420
        0
176
     1
 90
       50
176
     1
 90
        3
176
     1
 62
     5
420
      255
176
     1
290
     0
176
     1
 90
       50
176
     1
 90
       50
176
     1
 90
       50
176
     1
290
     0
176
     1
 90
       50
176
     1
 62
   256
176
     0
 40
1.0
176
     0
 90
        2
176
     1
  1
strokes_ogs.tif
176
     1
290
     0
176
     1
 40
1.0
176
     1
 40
1.0
176
     1
  0
VISUALSTYLE
  5
181
102
{ACAD_REACTORS
330
99
102
}
330
99
100
AcDbVisualStyle
  2
Shaded with edges
 70
    26
177
     3
291
     0
 70
    58
 90
        2
176
     1
 90
        2
176
     1
 90
        1
176
     1
 90
        2
176
     1
 40
0.6
176
     1
 40
30.0
176
     1
 62
     7
420
 16777215
176
     1
 90
        1
176
     1
 90
        2
176
     1
 62
     7
176
     1
 62
   257
176
     1
 90
        2
176
     1
 90
        1
176
     1
 40
1.0
176
     1
 90
        8
176
     1
 62
   257
176
     1
 40
1.0
176
     1
 90
        1
176
     1
 90
        6
176
     1
 90
        2
176
     1
 62
     7
176
     1
 90
        3
176
     1
 90
        0
176
     1
 90
        0
176
     1
290
     0
176
     1
 90
        5
176
     1
 40
0.0
176
     1
 90
        0
176
     1
290
     0
176
     1
290
     1
176
     1
290
     1
176
     1
290
     0
176
     1
290
     0
176
     1
290
     0
176
     1
290
     0
176
     1
290
     0
176
     1
290
     0
176
     1
 90
       50
176
     1
 40
0.0
176
     1
 40
1.0
176
     1
 90
        0
176
     1
 62
    18
420
        0
176
     1
 90
       50
176
     1
 90
        3
176
     1
 62
     5
420
      255
176
     1
290
     0
176
     1
 90
       50
176
     1
 90
       50
176
     1
 90
       50
176
     1
290
     0
176
     1
 90
       50
176
     1
 62
   256
176
     0
 40
1.0
176
     0
 90
        2
176
     1
  1
strokes_ogs.tif
176
     1
290
     0
176
     1
 40
1.0
176
     1
 40
1.0
176
     1
  0
VISUALSTYLE
  5
17E
102
{ACAD_REACTORS
330
99
102
}
330
99
100
AcDbVisualStyle
  2
Shades of Gray
 70
    23
177
     3
291
     0
 70
    58
 90
        2
176
     1
 90
        2
176
     1
 90
        3
176
     1
 90
        0
176
     1
 40
0.6
176
     1
 40
30.0
176
     1
 62
     7
420
 16777215
176
     1
 90
        2
176
     1
 90
        2
176
     1
 62
     7
176
     1
 62
     7
176
     1
 90
        1
176
     1
 90
        1
176
     1
 40
40.0
176
     1
 90
        8
176
     1
 62
     7
176
     1
 40
1.0
176
     1
 90
        1
176
     1
 90
        6
176
     1
 90
        2
176
     1
 62
     7
176
     1
 90
        3
176
     1
 90
        0
176
     1
 90
        0
176
     1
290
     0
176
     1
 90
        1
176
     1
 40
0.0
176
     1
 90
        0
176
     1
290
     0
176
     1
290
     1
176
     1
290
     1
176
     1
290
     0
176
     1
290
     0
176
     1
290
     0
176
     1
290
     0
176
     1
290
     0
176
     1
290
     0
176
     1
 90
       50
176
     1
 40
0.0
176
     1
 40
1.0
176
     1
 90
        0
176
     1
 62
    18
420
        0
176
     1
 90
       50
176
     1
 90
        3
176
     1
 62
     5
420
      255
176
     1
290
     0
176
     1
 90
       50
176
     1
 90
       50
176
     1
 90
       50
176
     1
290
     0
176
     1
 90
       50
176
     1
 62
   256
176
     0
 40
1.0
176
     0
 90
        2
176
     1
  1
strokes_ogs.tif
176
     1
290
     0
176
     1
 40
1.0
176
     1
 40
1.0
176
     1
  0
VISUALSTYLE
  5
17F
102
{ACAD_REACTORS
330
99
102
}
330
99
100
AcDbVisualStyle
  2
Sketchy
 70
    24
177
     3
291
     0
 70
    58
 90
        1
176
     1
 90
        2
176
     1
 90
        2
176
     1
 90
        0
176
     1
 40
0.6
176
     1
 40
30.0
176
     1
 62
     7
420
 16777215
176
     1
 90
        2
176
     1
 90
        2
176
     1
 62
     7
176
     1
 62
     7
176
     1
 90
        1
176
     1
 90
        1
176
     1
 40
40.0
176
     1
 90
       11
176
     1
 62
     7
176
     1
 40
1.0
176
     1
 90
        1
176
     1
 90
        6
176
     1
 90
        2
176
     1
 62
     7
176
     1
 90
        6
176
     1
 90
        0
176
     1
 90
        0
176
     1
290
     0
176
     1
 90
        1
176
     1
 40
0.0
176
     1
 90
        0
176
     1
290
     0
176
     1
290
     1
176
     1
290
     1
176
     1
290
     0
176
     1
290
     0
176
     1
290
     0
176
     1
290
     0
176
     1
290
     0
176
     1
290
     0
176
     1
 90
       50
176
     1
 40
0.0
176
     1
 40
1.0
176
     1
 90
        0
176
     1
 62
    18
420
        0
176
     1
 90
       50
176
     1
 90
        3
176
     1
 62
     5
420
      255
176
     1
290
     0
176
     1
 90
       50
176
     1
 90
       50
176
     1
 90
       50
176
     1
290
     0
176
     1
 90
       50
176
     1
 62
   256
176
     0
 40
1.0
176
     0
 90
        2
176
     1
  1
strokes_ogs.tif
176
     1
290
     0
176
     1
 40
1.0
176
     1
 40
1.0
176
     1
  0
VISUALSTYLE
  5
A6
102
{ACAD_REACTORS
330
99
102
}
330
99
100
AcDbVisualStyle
  2
Thicken
 70
    13
177
     3
291
     1
 70
    58
 90
        2
176
     1
 90
        2
176
     1
 90
        1
176
     1
 90
        0
176
     1
 40
0.6
176
     1
 40
30.0
176
     1
 62
     7
420
 16777215
176
     1
 90
        1
176
     1
 90
        4
176
     1
 62
     7
176
     1
 62
   257
176
     1
 90
        1
176
     1
 90
        1
176
     1
 40
1.0
176
     1
 90
       12
176
     1
 62
     7
176
     1
 40
1.0
176
     1
 90
        1
176
     1
 90
        6
176
     1
 90
        2
176
     1
 62
     7
176
     1
 90
        5
176
     1
 90
        0
176
     1
 90
        0
176
     1
290
     0
176
     1
 90
        1
176
     1
 40
0.0
176
     1
 90
        0
176
     1
290
     0
176
     1
290
     1
176
     1
290
     1
176
     1
290
     0
176
     1
290
     0
176
     1
290
     0
176
     1
290
     0
176
     1
290
     0
176
     1
290
     0
176
     1
 90
       50
176
     1
 40
0.0
176
     1
 40
1.0
176
     1
 90
        0
176
     1
 62
    18
420
        0
176
     1
 90
       50
176
     1
 90
        3
176
     1
 62
     5
420
      255
176
     1
290
     0
176
     1
 90
       50
176
     1
 90
       50
176
     1
 90
       50
176
     1
290
     0
176
     1
 90
       50
176
     1
 62
   256
176
     0
 40
1.0
176
     0
 90
        2
176
     1
  1
strokes_ogs.tif
176
     1
290
     0
176
     1
 40
1.0
176
     1
 40
1.0
176
     1
  0
VISUALSTYLE
  5
A0
102
{ACAD_REACTORS
330
99
102
}
330
99
100
AcDbVisualStyle
  2
Wireframe
 70
     5
177
     3
291
     0
 70
    58
 90
        0
176
     1
 90
        2
176
     1
 90
        0
176
     1
 90
        0
176
     1
 40
0.6
176
     1
 40
30.0
176
     1
 62
     7
420
 16777215
176
     1
 90
        1
176
     1
 90
        4
176
     1
 62
     7
176
     1
 62
   257
176
     1
 90
        1
176
     1
 90
        1
176
     1
 40
1.0
176
     1
 90
        0
176
     1
 62
   257
176
     1
 40
1.0
176
     1
 90
        1
176
     1
 90
        6
176
     1
 90
        2
176
     1
 62
     7
176
     1
 90
        3
176
     1
 90
        0
176
     1
 90
        0
176
     1
290
     0
176
     1
 90
        1
176
     1
 40
0.0
176
     1
 90
        0
176
     1
290
     0
176
     1
290
     1
176
     1
290
     1
176
     1
290
     0
176
     1
290
     0
176
     1
290
     0
176
     1
290
     0
176
     1
290
     0
176
     1
290
     0
176
     1
 90
       50
176
     1
 40
0.0
176
     1
 40
1.0
176
     1
 90
        0
176
     1
 62
    18
420
        0
176
     1
 90
       50
176
     1
 90
        3
176
     1
 62
     5
420
      255
176
     1
290
     0
176
     1
 90
       50
176
     1
 90
       50
176
     1
 90
       50
176
     1
290
     0
176
     1
 90
       50
176
     1
 62
   256
176
     0
 40
1.0
176
     0
 90
        2
176
     1
  1
strokes_ogs.tif
176
     1
290
     0
176
     1
 40
1.0
176
     1
 40
1.0
176
     1
  0
VISUALSTYLE
  5
180
102
{ACAD_REACTORS
330
99
102
}
330
99
100
AcDbVisualStyle
  2
X-Ray
 70
    25
177
     3
291
     0
 70
    58
 90
        2
176
     1
 90
        2
176
     1
 90
        1
176
     1
 90
        1
176
     1
 40
0.5
176
     1
 40
30.0
176
     1
 62
     7
420
 16777215
176
     1
 90
        1
176
     1
 90
        0
176
     1
 62
     7
176
     1
 62
   257
176
     1
 90
        1
176
     1
 90
        1
176
     1
 40
1.0
176
     1
 90
        8
176
     1
 62
     7
176
     1
 40
1.0
176
     1
 90
        1
176
     1
 90
        6
176
     1
 90
        2
176
     1
 62
     7
176
     1
 90
        3
176
     1
 90
        0
176
     1
 90
        0
176
     1
290
     0
176
     1
 90
       13
176
     1
 40
0.0
176
     1
 90
        0
176
     1
290
     0
176
     1
290
     1
176
     1
290
     1
176
     1
290
     0
176
     1
290
     0
176
     1
290
     0
176
     1
290
     0
176
     1
290
     0
176
     1
290
     0
176
     1
 90
       50
176
     1
 40
0.0
176
     1
 40
1.0
176
     1
 90
        0
176
     1
 62
    18
420
        0
176
     1
 90
       50
176
     1
 90
        3
176
     1
 62
     5
420
      255
176
     1
290
     0
176
     1
 90
       50
176
     1
 90
       50
176
     1
 90
       50
176
     1
290
     0
176
     1
 90
       50
176
     1
 62
   256
176
     0
 40
1.0
176
     0
 90
        2
176
     1
  1
strokes_ogs.tif
176
     1
290
     0
176
     1
 40
1.0
176
     1
 40
1.0
176
     1
  0
DICTIONARYVAR
  5
F0
102
{ACAD_REACTORS
330
66
102
}
330
66
100
DictionaryVariables
280
     0
  1
1:1
  0
DICTIONARYVAR
  5
EF
102
{ACAD_REACTORS
330
66
102
}
330
66
100
DictionaryVariables
280
     0
  1
STANDARD
  0
DICTIONARYVAR
  5
89
102
{ACAD_REACTORS
330
66
102
}
330
66
100
DictionaryVariables
280
     0
  1
STANDARD
  0
DICTIONARYVAR
  5
1B7
102
{ACAD_REACTORS
330
66
102
}
330
66
100
DictionaryVariables
280
     0
  1
Imperial24
  0
DICTIONARYVAR
  5
1B8
102
{ACAD_REACTORS
330
66
102
}
330
66
100
DictionaryVariables
280
     0
  1
Imperial24
  0
DICTIONARYVAR
  5
67
102
{ACAD_REACTORS
330
66
102
}
330
66
100
DictionaryVariables
280
     0
  1
2
  0
DICTIONARYVAR
  5
6B
102
{ACAD_REACTORS
330
66
102
}
330
66
100
DictionaryVariables
280
     0
  1
1
  0
DICTIONARYVAR
  5
14D
102
{ACAD_REACTORS
330
66
102
}
330
66
100
DictionaryVariables
280
     0
  1
0
  0
DICTIONARYVAR
  5
14E
102
{ACAD_REACTORS
330
66
102
}
330
66
100
DictionaryVariables
280
     0
  1
0
  0
DICTIONARY
  5
194
330
22
100
AcDbDictionary
280
     1
281
     1
  0
DICTIONARY
  5
188
330
97
100
AcDbDictionary
280
     1
281
     1
  3
FBXASSET
360
189
  0
DICTIONARY
  5
186
330
96
100
AcDbDictionary
280
     1
281
     1
  3
FBXASSET
360
187
  0
DICTIONARY
  5
110
330
98
100
AcDbDictionary
280
     1
281
     1
  3
BUMPTILE
360
112
  3
DIFFUSETILE
360
111
  3
FBXASSET
360
18A
  3
OPACITYTILE
360
113
  3
REFLECTIONTILE
360
114
  0
DICTIONARY
  5
104
330
87
100
AcDbDictionary
280
     1
281
     1
  3
ACAD_ROUNDTRIP_2008_TABLESTYLE_CELLSTYLEMAP
360
B987
  0
XRECORD
  5
189
102
{ACAD_REACTORS
330
188
102
}
330
188
100
AcDbXrecord
280
     1
 70
     1
 90
429727718
  1
508B35C9-AEE7-456F-BE74-D52651303AC6
310
504B03040A0000080000B670623B3DEE336E79000000790000001B0000006175746F6465736B2D64657369676E2D7061636B6167652E786D6C3C3F786D6C2076657273696F6E3D22312E302220656E636F64696E673D227574662D3822203F3E3C666F726D6174733E3C666F726D61743E687474703A2F2F736368656D612E
310
6175746F6465736B2E636F6D2F64657369676E2D7061636B6167652F323030393C2F666F726D61743E3C2F666F726D6174733E504B0304140006080800B670623BD486FD9CA0000000F4000000130000005B436F6E74656E745F54797065735D2E786D6C7D8EC10E82300C865F65E91D8A1E8C310C0EEA1BF002731658846E
310
D98AC1B77784ABF1D8FE5FBFBF75BBCE937A534CCEB38643598122B6FEE978D0B0485F9C41B54DDD7D022595594E1A469170414C76A4D9A4D207E29CF43ECE46F218070CC6BECC4078ACAA135ACF422C856C0E68EA1BF5669944DDD7BCDE7B1F8E415D77AECB980613C2E4AC91FC167A2B244592486606FC29C8FD7F045B9A
310
EF7053A7E60B504B0304140006080800B670623B28ED286BEB0000007C01000008000000636F72652E786D6C8D90416EC3201045AF82665B6183218D6D61A254764FD00B204C5C94182C03558F5F9C3852BBEB6A467FFE9B197D71FA9E6FE8CBACC17AD7012D0820E3B41FAD9B3A48F1826B40272956EFE32F1B20A766D3C1
310
268314D3EAD3B24BDABB685CCCAAF3A3D94515828980F42D371D04FD696655A814B3235C8B45E9AB9A4C419F5D8653B2237A1CB163DE672FD6AC209BF3C08E0D1B30EB19C3FC9D72FCC6EB231EFA33EDE96BDD341517E5064B11EDFCBCAF57A3A2194156843498524CAA0FCA5B7268F9E185D42D21A2DCEC7FA0B48CFF8492
310
759155FBBB0F2C80A4F991FB408A72CB22977B50B96EB9C91F504B0304140006080800B670623B55019EA25F0000007C00000007000000636E782E786D6C4DCB3B0E80201045D1AD90E915ED2CF8AC45050C11660C8261F98AB1B07AC9C97D42D718D865D3E909258CFD00CCE24AC6E326A164D74DC0B4128928FF32603847
310
2BA13128B1252AC747C6BAB984FC68F0B87FE8960A5C09FE86CFB69FBA01504B0304140006080800B670623B7BC41AC871010000D40300000C0000006662782F636F72652E786D6CC553ED6E8320147D15C2DF4501B56B6D90A64BBB27D80B50A5CE54C120983EFEAE1F4DD7A56BBA5FF3879273EEE59E7310BE393735EA95
310
ED2AA333CC428A91D2B9292A5D66D8BB63B0C26823B835C67D2BC348CB46657880B1E0A535BE9DA1DC68A7B403549B42CDA0EC3AE530CA6B5864B8CB3F552343E91D5474A7B095F949962A6421D0502778E72C0840D390E18DC5F170E664C205F7BE2A66B62A605A75AC94C522DDEEE3651AEF837817C741F2CE92E02D592D
310
83FD6ECB76EC7595A651C2C9D02CB8AB9A8BBADC2AE954814544691A3016D0E883256BBA58278B17BA5A53CAC9507ED3E4DBE2C9265F691747B3DCA9ADC382819091F8E1162272A8933DE82182932144F88C09DF060D8140C84E1EEA8B8F1340BDCA9DB1093085F157AA97B557309586747CD0EF0B4EA64E983A6E0EAEEFCE
310
889E9EF17847386AA94B30211D2C0FDE0D3AF9A4610EAD5536E8DD1969631B593F67E381C33F5157F17725E5A636F6BF1491F980C8FC7B90E13E8A2F504B0304140006080800B670623B70102A487D0000009D0000000B0000006662782F636E782E786D6C4DCCD10A83201886E15B91FFDC95A5C30335ACCDFB886521330D
310
A76397BF1A1DECE883878F57749FD5A3B74D2F17830472A901D9F088930B8B849267CC01754AA418F3DF0D5018572BE160506249B16C274D761E8BCFBB7A179E27F65CB39A0F14D396184C9921B81F34C3ACA1B4B99ABB6E6F062A25AA5F69DF23ACBE504B0304140006080800B670623B3610CA3329010000120200003100
310
00006662782F42384135303843342D343331462D343546312D424341352D3532343432364645413344462F636F72652E786D6C8D515B6EC32010BC0AE22B55850D0E446E848992B43E412FE000495162B07854397EA176A4F62F3F2C9A9D991D58BEBB8F37F0AD7D30CE76905418026DA553C65E3A98E219B510EC04F7CEC5
310
3F3408EC30EA0E16180A7EF12E4D0B249D8DDAC68C5AA7F4020E21E80881BCE54B0783FCD2E3500D296646B856D320AFC34557A4CAEDCC133C449F0380794839A138B47B86DB2345744D7A44594FD0E1B867883594369BFE63BF7EEF793D0B054FC9A8456E548E63CE46FB674D8A58F068C6477CE9F510B582A2C1F80D1182
310
70F349E816B32D65AFB8DD62CCEB42FF274A937A52948C8DEB66893BCB021484D7734370E5D2E9F608A3EF93F3119479ABA0E50B14B8C298119A43CCC4FCFCECB8A18B6388CEE7EF5D5D4F994BD86CBBA182D76543B9FCAE2FD7B24DF103504B0304140006080800B670623B1B8617914E0100003303000030000000666278
310
2F42384135303843342D343331462D343546312D424341352D3532343432364645413344462F636E782E786D6CD593C16EC32010447F0571AD6CE3D489D20813A9877E410FBD62D82434182CC055F3F75D1292E692438FBD206B7698593D61BEFD1E2DF982108D773D6D6B460938E5B571FB9ECE6957AD29D90A1EBC4F7736
310
4A9C1CA1A759A682EF839FA72269D8C9D92654AD71C72206887E0E0A22CAF926B15E498B01E0AA19451807D01A34B919F16B070157417138917400F2F6FA41FCF0092A45DEE414C19BDC21783E4BD39D891265658C3D8DEA00A3ACE59CBC8678ACB54CB26EEB6BD7839D7E9348BE70AD9C8321B9BCA7F9A4A26C542347DEE0
310
50F09802D22BA6749A800A394DD62899107273365E3C82CFC6A55557BC06C10774B7ABE7AEC3B0F34CF06446280E154026D0542C187BA9DAB6628BF7B6DBB0E5A65B3EB1F58631DE64BBE083F7B65CC218087E22CABB042E51D1F2268F1FE12B3EA24D40D63E9CFE00120194D60B9D5BC67FE6D39CDF37E20AF817881F504B
310
0304140006080800B670623BBFEF2E3B690500003C100000340000006662782F42384135303843342D343331462D343546312D424341352D3532343432364645413344462F6F626A656374732E786D6CAD575D739B3814FD2B0CFB0C98D84E931D4227B6938EA793B6534F3BFB90198F0099B001899144EAECAFDF231018B0
310
D37A3FFC609090EEE7B94757C1FB7D915B2F54C88CB31BDB7727B64559CC938CA53776A576CE956DBD0F03C1B9EA2DB32D460A7A63EB693B0C52C1ABD24C257447AA5C8D66EF177F5832A68CDA569C13296F6C193FD182B8A4523CA1F2D94D88226EBADBBBBEDB2C1C8A4D05299F46424B222853B014F30C52ACC6287F389C
310
D85E1878FA7B18E87FB36AFAF62AAFF667A83F635211161F291B8999FAB3D5DDC5FCDA99CF6653677679E13B8BFBC5CAF1DF4D27CBCBE5F2FAF6EE1A8AA51290642C117467871F101B91C581D77CEA2C36869F3229E68CD1B8F61F1ED6361B89092D294B90C78C4A68EB793D190E7D1D9BDEE7A91E1B95FDE9F3BCEAEFE809
310
6A6D6F9F7D4B79F4275C90E7A04248AA51D5C4C738DAE06F72885AC4796EBE65D22A88A22223B995679120E2D50EB1542F098381188D4EA111AE3DB043FF20AF6F2B4AE3D7D83D65E5AECA730D4D3BAC91BD05FEA992B565D95F549CD6069B90AB2A63EACA38A45E4B6A87D781574F86817E4C2FCCC72690D62E2729520E37
310
9BAF234797BAF6D62B3BFC781FED37BA1E4F2B2F052FA9501A3E80569BB8F6A9A364D4FA67654E6F803383981F82F21591FF84F23D9882BC896C3FDBCF8C162508933B2E0AE4C69DD43F6BD2BE38DDDBF10BF86CB4FA784D37F3AF16075E67EC9030DECA1FC0A55373F5DFF3378C591FA9BDF485C10B0A8C8BA909E5262639
310
A8E72163488806A595734C81CB77D1DE0ED7604A303B76913CEC0272F412782FF88EFF4636D8AA56DF7B322474C4B767303F625997056C7B032C473C592B36CEBD15F3F9FF5233B7ABCDC74D257624A60F8658567497B14CE1EC3C80B76FD02011038F9EE9EB0F2E12387A9C844D3F09855125116D1D731DF8B43D2CF4E0A0
310
79A020C6BE946BCE0B7EA1E1219331CD73C228AF5A2DDD31A4B1DA918CE91350854D40A71723140BFA92E94E62B0626016CEFA5864A50E5977E8753CEDBEE1CBB7F52780D20E17AF0BA0F5F9B02A3AD07DCC732EB6D1EBB661421BE0C39E21BABF0FE16D22EA6929407C8DE596724C88B749B6DB5512BC7B228ADFD7CB7EA6
310
3A22397E690BA8D5D8D4E40CEC8CDA23C2C0B7D5898640101CEC9C6D331CE328CB93CAFBBAC70A642DF70DF95155945B52F08AA973C23469FD69ADEF84F7BB18F983A8F8C90E37F5D35980B2139A1C523540813E824EF83448CF7C72B598CE97D7CEEDDDDD3B6736BFBC771677EF66CE6A7E7139F7A793E9EDF2B2B3A8B624
310
0CDA13AA5F8388264EC4A0129909F3B7F5A16CEDF08128E97D680ACA4B9BE7B7B58BB638F0B00700EF36AE8B32A705658A68F83EE897FC2B41573190D1CCAF0B92D233A47CFEB019D9809933F67DD1A5467F8CF69AD9A5AE859342D45355448C64F968A371DC2D596ADC6E43D93D1B466F877A64E2893E54F23C4B40388995
310
525E5005DA3983ED45412510D3EFCA13737B3863F74BD30F2A12E5B4B5E489A025CE25500DB855B11ACE5BBFA185D35DD48D8DC3CE7DC69F2944DB42AA6F6CF09BCA622ADD08C7A36E7C6AE18000BAB08E040135C2D21C9D75B3A91B77BB746C403F38018DFE6EC939DD92F16B40BC05294B9CDA035AAD6D330AE27FE4786B
310
8E45145EA34A75BE1C263A676A35A8ACC6297337400BF16C54EF515F3F77CB77EB3583889C754FFA29081AA98E2222ADEF05DA3E63D2EDEA8B8756C05A7FB6CABC4A91CBF325398202CC952E70A008A830324BA200D5E5EF8F5F04C75DB4B0EE3340E071C98B823333B83577596BF3849B69F2085AA0FAFA212F26BEFF5877
310
FDE622B28D88A42E49E43326DA82D31E8CB006401E1DA726059ECEC168F97A6599036306A135688F9AD2E61A6EA178F4CD51974A9F2CCB9F36FE5EBD14601068D9C3BF01504B0304140006080000B670623B000000000000000000000000350000006662782F42384135303843342D343331462D343546312D424341352D35
310
32343432364645413344462F76657274696365732E62696E504B0304140006080800B670623BF270F1330600000004000000360000006662782F42384135303843342D343331462D343546312D424341352D3532343432364645413344462F747269616E676C65732E62696E636660600000504B0304140006080000B67062
310
3B000000000000000000000000370000006662782F42384135303843342D343331462D343546312D424341352D3532343432364645413344462F617474726962757465732E62696E504B0304140006080800B670623B08DA0BD19000000041010000360000006662782F42384135303843342D343331462D343546312D4243
310
41352D3532343432364645413344462F6469726563746F72792E786D6C858F410AC3201045AF22B36F53E9A60B35CBEEBAE80D244E44489C6234F4F835464A48035D0DF398FF9F8AF63D0E6CC63039F212F8F9020C7D47C6792B21C5FE7403D62A1188E2E60C98D7234A5830286103A55745067B9D86B8A3CF9C7F90C11DE6
310
07FB144396D7B6A82D282E9A152AD114D5EF2CB866EEE831B8EEA07A7BB5A8D7D61A2BAAEB7FD5F70921FF497D00504B0304140006080800B670623B3B4606F3FE000000A00100003B0000006662782F42384135303843342D343331462D343546312D424341352D3532343432364645413344462F7265736F75726365732F
310
636F72652E786D6C8D504B6E833010BD0A9A6D65B08134808CA354A427E8052C332156828DFCA97AFC9A40A576D7CDCCE87D344F8F9FBEE647F689CE6B6B7A6039850C8DB2A336530F315C4903D94970676DF82583CCC8197B5861107C72362E3BA4AC096842428D1D7107A5F71820538F74F4E0D50D6799CB1892C2DFF345
310
AABB9C306779A2934E701F5C0A906D4FD609C2A1B7D129F4BCD858C163D4E3AED163FAA9AF1A1D88F67CA98E6D35906AA82A52BFB39ABCD5CD915C86331BD86BD3B665CD8BD52C78D0F34F46E550061C419494B6843142CB0F5677F4D0D58717DA7494F26295FF31C565FCA7296A13AA728FBBD93C0896823C09C18BB5AFB4
310
9E65A6BD762BBE01504B010214000A0000080000B670623B3DEE336E79000000790000001B00000000000000000000000000000000006175746F6465736B2D64657369676E2D7061636B6167652E786D6C504B01021400140006080800B670623BD486FD9CA0000000F40000001300000000000000000000000000B2000000
310
5B436F6E74656E745F54797065735D2E786D6C504B01021400140006080800B670623B28ED286BEB0000007C010000080000000000000000000000000083010000636F72652E786D6C504B01021400140006080800B670623B55019EA25F0000007C000000070000000000000000000000000094020000636E782E786D6C50
310
4B01021400140006080800B670623B7BC41AC871010000D40300000C00000000000000000000000000180300006662782F636F72652E786D6C504B01021400140006080800B670623B70102A487D0000009D0000000B00000000000000000000000000B30400006662782F636E782E786D6C504B01021400140006080800B6
310
70623B3610CA3329010000120200003100000000000000000000000000590500006662782F42384135303843342D343331462D343546312D424341352D3532343432364645413344462F636F72652E786D6C504B01021400140006080800B670623B1B8617914E010000330300003000000000000000000000000000D10600
310
006662782F42384135303843342D343331462D343546312D424341352D3532343432364645413344462F636E782E786D6C504B01021400140006080800B670623BBFEF2E3B690500003C10000034000000000000000000000000006D0800006662782F42384135303843342D343331462D343546312D424341352D35323434
310
32364645413344462F6F626A656374732E786D6C504B01021400140006080000B670623B0000000000000000000000003500000000000000000000000000280E00006662782F42384135303843342D343331462D343546312D424341352D3532343432364645413344462F76657274696365732E62696E504B010214001400
310
06080800B670623BF270F133060000000400000036000000000000000000000000007B0E00006662782F42384135303843342D343331462D343546312D424341352D3532343432364645413344462F747269616E676C65732E62696E504B01021400140006080000B670623B00000000000000000000000037000000000000
310
00000000000000D50E00006662782F42384135303843342D343331462D343546312D424341352D3532343432364645413344462F617474726962757465732E62696E504B01021400140006080800B670623B08DA0BD1900000004101000036000000000000000000000000002A0F00006662782F42384135303843342D3433
310
31462D343546312D424341352D3532343432364645413344462F6469726563746F72792E786D6C504B01021400140006080800B670623B3B4606F3FE000000A00100003B000000000000000000000000000E1000006662782F42384135303843342D343331462D343546312D424341352D3532343432364645413344462F72
310
65736F75726365732F636F72652E786D6C504B0506000000000E000E0080040000651100000000
  0
XRECORD
  5
187
102
{ACAD_REACTORS
330
186
102
}
330
186
100
AcDbXrecord
280
     1
 70
     1
 90
429727718
  1
887D55A9-D0DD-414E-B741-A7DCD4DA2B4C
310
504B03040A0000080000B670623B3DEE336E79000000790000001B0000006175746F6465736B2D64657369676E2D7061636B6167652E786D6C3C3F786D6C2076657273696F6E3D22312E302220656E636F64696E673D227574662D3822203F3E3C666F726D6174733E3C666F726D61743E687474703A2F2F736368656D612E
310
6175746F6465736B2E636F6D2F64657369676E2D7061636B6167652F323030393C2F666F726D61743E3C2F666F726D6174733E504B0304140006080800B670623BD486FD9CA0000000F4000000130000005B436F6E74656E745F54797065735D2E786D6C7D8EC10E82300C865F65E91D8A1E8C310C0EEA1BF002731658846E
310
D98AC1B77784ABF1D8FE5FBFBF75BBCE937A534CCEB38643598122B6FEE978D0B0485F9C41B54DDD7D022595594E1A469170414C76A4D9A4D207E29CF43ECE46F218070CC6BECC4078ACAA135ACF422C856C0E68EA1BF5669944DDD7BCDE7B1F8E415D77AECB980613C2E4AC91FC167A2B244592486606FC29C8FD7F045B9A
310
EF7053A7E60B504B0304140006080800B670623BBC1638F5EC0000007C01000008000000636F72652E786D6C8D90416EC3201045AF82665B61836BE2D8C24471DB9CA01740401C94182C03558F5F9C3852BBEB6A467FFE9B197D7EF89E6EE8CB2CC17AD7032D0820E394D7D68D3DA478C67B4007C117EFE32F1B202727D3C3
310
2A83E0E3E2D3BC49CABB685CCCAAF3DA6CA20CC14440EA969B1E82BA98491632C5EC08D76296EA2A4753D06797E194AC468F2356E77DF66CCD02825543D50CACC62D39ED70FDC68EB8FD68F6F8787A6784342D1DDA1D2F5758F068A7E77DB518198D065111D2624A31A93E69DD11D6D5EC85EC3B4278B9DAFF4069D6FF8492
310
75F1B5DADE7D600104CD8FDC0782976B16B9DC83CA75CD4DFC00504B0304140006080800B670623B55019EA25F0000007C00000007000000636E782E786D6C4DCB3B0E80201045D1AD90E915ED2CF8AC45050C11660C8261F98AB1B07AC9C97D42D718D865D3E909258CFD00CCE24AC6E326A164D74DC0B4128928FF326038
310
472BA13128B1252AC747C6BAB984FC68F0B87FE8960A5C09FE86CFB69FBA01504B0304140006080800B670623B3586FFB671010000D40300000C0000006662782F636F72652E786D6CC553ED6E8320147D15C2DF4541A76D6D90A6DDD627D80B50A4CE54C120983EFEAE1F4DD7A55BBA5FF3879273EEE59E7310B6393735EA
310
95ED2AA3731C851423A5A5292A5DE6D8BB63B0C268C39935C67D29C3488B46E578803167A535BE9D2169B453DA01AA4DA16650749D7218C91A1639EEE4876A4428BC838AEE14B6429E44A9C228041AEA38EB9C0501681A32BC313F1ECE8C4C3867DE57C5CC56054CAB8E95B298A7F12E5EEED224C8E87E11242FE936C8DE96
310
AB60BB7F4D295D66D12E5B30323473E6AAE6A24E5A259C2A308F29CD82280A68FC1E256B9AAE93F489AED694323294DF34F9B678B0C957DA3DC7B3DCA9ADC33C022123F1CD2D44E450277AD04338234388F01913BE0D1A0281909D38D4171F27807A259DB1093085F157AA17B557309586747CD0CF0B46A64E983A6E0EAEEF
310
CE881F9EF1FB8E70D44297604238581EBC1B74B249C31C5AAB6CD0BB33D2C636A27ECCC62F0EFF445DC5DF95244D6DEC7F2922F30191F9F720C37DE49F504B0304140006080800B670623B4220A0FF7D0000009D0000000B0000006662782F636E782E786D6C4DCCD10A83201886E15B91FFDCE542CB0335D0EC3E6259C84A
310
C3E9D8E5AF46073BFAE0E1E315DD675BD1DBA5978F41C2FD4600B9F088930F8B849267CC01754AA418F3DF0D50183727E164506249B1EC174D6E1ECB9A0F5D7D785E68DB8151CD286E5A5363CA6B8A39E90D36D40E96B086F55A43A544F52B1D7B86D517504B0304140006080800B670623B2FA3FEDE290100001202000031
310
0000006662782F45374635344235342D363743322D343832342D383044432D4334454645303536354442422F636F72652E786D6C8D515B6EC32010BC0AE22B55850D2E386E848994D7097A0117488A1283C5A3CAF10BB523B57FF961D1ECCCECC0F2ED7DBC816FED8371B687A4C210682B9D32F6D2C314CFA883602BB8772E
310
FEA141608751F7B0C050F08B77695A20E96CD43666D43AA5177008414708E42D5F7A18E4971E876A483133C2B59A06791D2EBA22556E679EE021FA1C00CC43CA09C5717D6274C7286AD7FB06D1AEA1A8C3873DDAD3E3E98859CB0EBB1DAF67A1E02919B5C88DCA71CCD968FFAC49110B1ECDF8882FBD1EA256503418BF2342
310
106E3E08DD60B6A1EC15771B8C795DE8FF4469524F8A92B1F1AD59E2CEB20005E1F5DC105CB9F4797B84D1F7C9F908CABC55D0F2050A5C61CC1AD2F27A26E6E767C7962E8E213A9FBF7775FDCC5CC266DB960A5E970DE5F2BBBE5CCB36C50F504B0304140006080800B670623B1B8617914E01000033030000300000006662
310
782F45374635344235342D363743322D343832342D383044432D4334454645303536354442422F636E782E786D6CD593C16EC32010447F0571AD6CE3D489D20813A9877E410FBD62D82434182CC055F3F75D1292E692438FBD206B7698593D61BEFD1E2DF982108D773D6D6B460938E5B571FB9ECE6957AD29D90A1EBC4F77
310
364A9C1CA1A759A682EF839FA72269D8C9D92654AD71C72206887E0E0A22CAF926B15E498B01E0AA19451807D01A34B919F16B070157417138917400F2F6FA41FCF0092A45DEE414C19BDC21783E4BD39D891265658C3D8DEA00A3ACE59CBC8678ACB54CB26EEB6BD7839D7E9348BE70AD9C8321B9BCA7F9A4A26C542347DE
310
E050F09802D22BA6749A800A394DD62899107273365E3C82CFC6A55557BC06C10774B7ABE7AEC3B0F34CF06446280E154026D0542C187BA9DAB6628BF7B6DBB0E5A65B3EB1F58631DE64BBE083F7B65CC218087E22CABB042E51D1F2268F1FE12B3EA24D40D63E9CFE00120194D60B9D5BC67FE6D39CDF37E20AF817881F50
310
4B0304140006080800B670623B29652116630500003C100000340000006662782F45374635344235342D363743322D343832342D383044432D4334454645303536354442422F6F626A656374732E786D6CAD575D739B3814FD2B0CFB0C989834C90EA1639B24E3E9A6EDD4D3CE3E64C623834CD8006224913AFDF57B040203
310
B65BEF871F0C12D2FD3CF7E8CA7FBFCB33E3957291B2E2D674ED8969D02262715A24B76625B7D6B569BC0F7CCE98EC2D338D82E4F4D654D366E0279C55A59E8AE99654991CCDDECFFF3444440B6A1A514684B83545F44C7362934AB2988A173B2692D8C97667BB76B3702836E1A47C1E092D09A78584A5982F20C5688C7287
310
C389E904BEA3BE07BEFAD7ABA6A75739B53F43FD69212429A20365233153D70BEF2E2E6FAC4BCF9B5ADEBB0BD79ADFCF43CBBD9A4E16EF168B9BD9DD0D140BC921495BC2E9D60C1E101B9E46BED37CEA2CD6861F3329624541A3DA7F7858DBAC25C6B4A4458C3CA654405BCFEBC970E8AAD8F43E4FD558ABEC4F9FE7557F47
310
4F506B7BFBEC5BCA367FC105710E2AB8A00A554D7CB4A30DFE26FBA86D18CBF4B75418399194A72433B274C3097F33032C554B027F2046A1932B842B0FCCC0DDCBEBDB8AD2F835768F59B9ADB24C41D30C6A64AF817F2A456D59FA83F2E3DA60137255A585BCD60EC9B7929AC18DEFD49381AF1ED30BFDB109A4B1CD488294
310
C3CDE6EBC8D185AABD6568061FEE37BB95AAC7E3CA4BCE4ACAA5820FA0D526AE7DAA2869B5EE5999531BE0CC20E6FBA07C41E43FA27CF7A6206F3CDD793B4F6B919C1462CB788EDCD893FA674CDA17AB7B3B7C019F8D561FAEE966FED562DFE98C1D12C6A9FC015C2A35D7FF3D7FC398F591DA4B5FE0BFA2C0189FEA50AE22
310
92817A1ED3020951A03432862970F976B33383259812CC8E5D240BBA801CBCF8CE2BBEE3BF910DB6AAD5F79E05123AE2DB33981FB1ACCB02B69D00CB014FD68AB573A7627EF9BFD4CC2C5C7D58557C4B22FAA88925A4DBB44825CECE3D78FB060D1231F0E885BE7D673C86A3874958F593906B5502D1563157814FDAC3420D
310
F69A070A22EC4B98E23CFF171A1E5311D12C23056555ABA53B8614563B92D17D02AAB009E8F46284624E5F53D5490C560CCCC2591FF1B45421EB0EBD8EA7ED13BE7C5D7E0428CD60FEF60779EB13E6664FF711CB185F6FDED60D139A001FF60CD1FD6D086F1D51474901E26B2CB794A343BC8ED3EDB612E0DD2351FCB65CF4
310
33D511C9E14B5B40ADC6A6263DB0336A8F700DDF56271A024E70B0B3629DE21847591E55DED73D56206AB927E46FAABC5C939C55853C274C93D69FD6FA4E78BF8B11DF898C9ECD60553FAD39283BA6F18984AA23E8884F83F45C5F5F859797B31B2B9C84A1E5B9DE9D35BFF25C6B76152E422F9C5DCC3D847F5801ED09D5AF
310
41441327A25FF15487F9EB725FB666F048A4701E9A827292E6F97569A32DF61DEC01C0BB8DCBBCCC684E0B49147C1FD54BF685A0AB18C868E6973949E819523E3DAC463660E68C7D9F55A9D1EFA3BD7A76A16AE1A810F95CE59B82A4D968A376DC2E8B44BBDD86B27B368CDE0ED548C7137DA860591A83706223A12CA712B4
310
7306DBF39C0A20A6DF95C7FAF670C6EED7A61F946493D1D6926782963813403548A78AE470DEF80D2D9CEAA26E4D1C76F60BFE74219A06527D6B82DF641A51616F703CAAC6A7160E08A00BEB4810A0274592A1B36E3675E36E978A0DE80727A0D6DF2D39A75BD27E0D8837276589537B40ABB56D5A41F48F1C6FCD3188C4EB
310
A6929D2FFB89CE995A4D00AE813BDD032DC48B56BD437DFDDC2DD7AED70C2272D63DE9A72068A45A92F0A4BE17A8A06B9366E16707AD80B1FC649459952097E74BB23805982B55E0401150A165964402AA8BDF9F3E7386BB686EDCA780C0D382E5392BF460A6EFB2C6EA1937D3F809B440D5F5435C4C5CF7A9EEFAF54564BD
310
2182DA24162F98680B4E7930C21A0079709CEAEB99A372305ABE0C0D7D6078105A83F6A0296DAEE1068A47DD1C55A9F4C9B2FC69E3EFD44B81028E963DF81B504B0304140006080000B670623B000000000000000000000000350000006662782F45374635344235342D363743322D343832342D383044432D433445464530
310
3536354442422F76657274696365732E62696E504B0304140006080800B670623BF270F1330600000004000000360000006662782F45374635344235342D363743322D343832342D383044432D4334454645303536354442422F747269616E676C65732E62696E636660600000504B0304140006080000B670623B00000000
310
0000000000000000370000006662782F45374635344235342D363743322D343832342D383044432D4334454645303536354442422F617474726962757465732E62696E504B0304140006080800B670623B08DA0BD19000000041010000360000006662782F45374635344235342D363743322D343832342D383044432D4334
310
454645303536354442422F6469726563746F72792E786D6C858F410AC3201045AF22B36F53E9A60B35CBEEBAE80D244E44489C6234F4F835464A48035D0DF398FF9F8AF63D0E6CC63039F212F8F9020C7D47C6792B21C5FE7403D62A1188E2E60C98D7234A5830286103A55745067B9D86B8A3CF9C7F90C11DE607FB144396
310
D7B6A82D282E9A152AD114D5EF2CB866EEE831B8EEA07A7BB5A8D7D61A2BAAEB7FD5F70921FF497D00504B0304140006080800B670623B6378F24DFF000000A00100003B0000006662782F45374635344235342D363743322D343832342D383044432D4334454645303536354442422F7265736F75726365732F636F72652E
310
786D6C8D504B6E833010BD0A9A6D65B0094E42641C85B639412F6099496225D8C89FAAC7AF09546A77DDCC8CDE47F3F4C4F16B7C149FE88371B603565228D06A37187BED20C50BD9437194C23B177FC9A0B06AC40E6618A4B87A97A615D2CE46B431A3D60DB8822A048C50E8473E3A08FA86A32A558A5911EEE5A4F45D5DB1
310
6465A6B34E8A107D0E502C4FE609D26370C96B0CA25A58295232C3AA3143FE692E063D485EF7F5AEE71BD2D2F39634AFFC44DAF7DD9E9CCE6F9CD25DCBFA762BAAD92C4534E34F46ED51451C40D694B6843142EB0FD61C283F34FC85EE0F948A6A96FF31A569F8A729191B37F51A77B105902C0779125254735F793DCBCC7B
310
EE567E03504B010214000A0000080000B670623B3DEE336E79000000790000001B00000000000000000000000000000000006175746F6465736B2D64657369676E2D7061636B6167652E786D6C504B01021400140006080800B670623BD486FD9CA0000000F40000001300000000000000000000000000B20000005B436F6E
310
74656E745F54797065735D2E786D6C504B01021400140006080800B670623BBC1638F5EC0000007C010000080000000000000000000000000083010000636F72652E786D6C504B01021400140006080800B670623B55019EA25F0000007C000000070000000000000000000000000095020000636E782E786D6C504B010214
310
00140006080800B670623B3586FFB671010000D40300000C00000000000000000000000000190300006662782F636F72652E786D6C504B01021400140006080800B670623B4220A0FF7D0000009D0000000B00000000000000000000000000B40400006662782F636E782E786D6C504B01021400140006080800B670623B2F
310
A3FEDE290100001202000031000000000000000000000000005A0500006662782F45374635344235342D363743322D343832342D383044432D4334454645303536354442422F636F72652E786D6C504B01021400140006080800B670623B1B8617914E010000330300003000000000000000000000000000D2060000666278
310
2F45374635344235342D363743322D343832342D383044432D4334454645303536354442422F636E782E786D6C504B01021400140006080800B670623B29652116630500003C10000034000000000000000000000000006E0800006662782F45374635344235342D363743322D343832342D383044432D4334454645303536
310
354442422F6F626A656374732E786D6C504B01021400140006080000B670623B0000000000000000000000003500000000000000000000000000230E00006662782F45374635344235342D363743322D343832342D383044432D4334454645303536354442422F76657274696365732E62696E504B01021400140006080800
310
B670623BF270F13306000000040000003600000000000000000000000000760E00006662782F45374635344235342D363743322D343832342D383044432D4334454645303536354442422F747269616E676C65732E62696E504B01021400140006080000B670623B0000000000000000000000003700000000000000000000
310
000000D00E00006662782F45374635344235342D363743322D343832342D383044432D4334454645303536354442422F617474726962757465732E62696E504B01021400140006080800B670623B08DA0BD190000000410100003600000000000000000000000000250F00006662782F45374635344235342D363743322D34
310
3832342D383044432D4334454645303536354442422F6469726563746F72792E786D6C504B01021400140006080800B670623B6378F24DFF000000A00100003B00000000000000000000000000091000006662782F45374635344235342D363743322D343832342D383044432D4334454645303536354442422F7265736F75
310
726365732F636F72652E786D6C504B0506000000000E000E0080040000611100000000
  0
XRECORD
  5
112
102
{ACAD_REACTORS
330
110
102
}
330
110
100
AcDbXrecord
280
     1
270
     1
271
     1
  0
XRECORD
  5
111
102
{ACAD_REACTORS
330
110
102
}
330
110
100
AcDbXrecord
280
     1
270
     1
271
     1
  0
XRECORD
  5
18A
102
{ACAD_REACTORS
330
110
102
}
330
110
100
AcDbXrecord
280
     1
 70
     0
 90
1778669749
  1
9BF507EE-FAF7-4A99-A33D-4EE51894BC40
310
504B03040A0000080000B670623B3DEE336E79000000790000001B0000006175746F6465736B2D64657369676E2D7061636B6167652E786D6C3C3F786D6C2076657273696F6E3D22312E302220656E636F64696E673D227574662D3822203F3E3C666F726D6174733E3C666F726D61743E687474703A2F2F736368656D612E
310
6175746F6465736B2E636F6D2F64657369676E2D7061636B6167652F323030393C2F666F726D61743E3C2F666F726D6174733E504B0304140006080800B670623BD486FD9CA0000000F4000000130000005B436F6E74656E745F54797065735D2E786D6C7D8EC10E82300C865F65E91D8A1E8C310C0EEA1BF002731658846E
310
D98AC1B77784ABF1D8FE5FBFBF75BBCE937A534CCEB38643598122B6FEE978D0B0485F9C41B54DDD7D022595594E1A469170414C76A4D9A4D207E29CF43ECE46F218070CC6BECC4078ACAA135ACF422C856C0E68EA1BF5669944DDD7BCDE7B1F8E415D77AECB980613C2E4AC91FC167A2B244592486606FC29C8FD7F045B9A
310
EF7053A7E60B504B0304140006080800B670623BCA089DFFEC0000007C01000008000000636F72652E786D6C8D90416E83301045AF62CDB632D8402020E32882F604BD80653BC44AB011B6AB1EBF262152BBEB6A467FFE9B197D76FA9EEFE84BAFDE38DB03CD08206DA553C64E3DC470C1474027CE56E7C22F1B202B66DDC3
310
260367D3EAE2B24BD2D9A06D48AA754AEFA2F05E0740F29E9A1EBCBCEA59642286E4F0B76C11F226269DD15797E0188D42CF2346A57DE662F40ABCAEC77628C6120F654571D50C04B7F5B9C1E3997CD4F550BE3745C3F20DE62C98F9755FAE5A04AD801784B498524C8A4F5A75E4D055873772EC0861F966FF03C545FD138A
310
C686B2D8DF7D621E384D8F3C069CE55B16A93C824A75CB8DFF00504B0304140006080800B670623B55019EA25F0000007C00000007000000636E782E786D6C4DCB3B0E80201045D1AD90E915ED2CF8AC45050C11660C8261F98AB1B07AC9C97D42D718D865D3E909258CFD00CCE24AC6E326A164D74DC0B4128928FF326038
310
472BA13128B1252AC747C6BAB984FC68F0B87FE8960A5C09FE86CFB69FBA01504B0304140006080800B670623B68FC0B7272010000D40300000C0000006662782F636F72652E786D6CC5535B6E833010BC8AE5DF0A6C1E8124328E22D29EA01770C0A128602363A31CBFCB234A53A555FA553EC09AD9F5CE8C31DB5DDA060D
310
D2F4B556190E7C8A9154852E6B5565D8D993B7C668C799D1DA7E29C3488956667884316795D1AE5BA0422B2B950554E9522EA0E87B69312A1A5864B82F3E642B7CE12C54F467BF13C55954D20F7CA0A18EB3DE1A1080E621E31BF3D3F1C2C88C73E65C5D2E6C5DC2B4FA544B8379921C36797888BC3C8A032F4E73EA6D927D
310
EA1DF6F42D49F2E8350D5346C666CE6CDD5ED515460A2B4BCC434A375E1078347C0FE22D5D6DE3D50B5D6F2965642CBF6B725DF96493AB958DC245EEDCD6631E809089F8E61622B2A81703E8219C913144F84C09DF070D8140C8561C9BAB8F3340832CAC363130A576376A108D933095FA747AD0CF0B46E64E983A6D0EAE1F
310
CE089F9EF1FB8E70D44255604258581E9D1D75B259C3125A278D37D80B52DAB4A279CEC62F0EFF44DDC43F9454E8469BFF5244960322CBEF41C6FBC83F01504B0304140006080800B670623B0F71DDB67E0000009D0000000B0000006662782F636E782E786D6C4DCCD10A83201886E15B91FFDCA54DB73F502386BB8F5816
310
32D3703976F9ABD1C18E3E78F87855FB990379BBFCF2296AE02706C4C5471A7C9C349475A408A4352AA7B4FEDD80C47E761A7606A3A69CCA72D0E0C6BE8475D3E0E3F3409428EA6B27A84079A782899AA2EC1A7AE3ECCC2FD858CB2D544655BFD2B67BD87C01504B0304140006080800B670623BE134B4FB28010000120200
310
00310000006662782F38353834323741342D343835462D343034322D383541392D4331303331363839454531452F636F72652E786D6C8D515B6EC32010BC0AE22B55850D0EA424C24451959EA0172086A42831583CAA1CBF503B52FB971F16CDCECC0EACD8DFC71BF836215AEF7A481A0C817183D7D65D7A98D3197108F652
310
04EFD31F1A044E8DA6871586525C82CFD3020DDE25E352419DD76601558C264130DCCAA58771F832A36A544E8511AFCDA486ABBA988634A55D7852C4144A00300FA927949C71DABD1D28A29C7D208A6987383B6CD13BC16BB2E1DBE3911C453B0BA5C8D9EA456E758963CFD684674DAA588A64C747FC2118958C86B2C3788B
310
0841B8FB247487D98EB257CC77188BB6D2FF89F2A49F1465EBD2BA5BE2CEB2082511EDDC9042FB7CBA3DC298FBE4430275DE2A9AE1054ADC60CC08E3A29D89E5F9C5714317C7987C28DFBBBA9E0A97B0D97643A568EB864AF95D5FA9759BF207504B0304140006080800B670623B1B8617914E010000330300003000000066
310
62782F38353834323741342D343835462D343034322D383541392D4331303331363839454531452F636E782E786D6CD593C16EC32010447F0571AD6CE3D489D20813A9877E410FBD62D82434182CC055F3F75D1292E692438FBD206B7698593D61BEFD1E2DF982108D773D6D6B460938E5B571FB9ECE6957AD29D90A1EBC4F
310
77364A9C1CA1A759A682EF839FA72269D8C9D92654AD71C72206887E0E0A22CAF926B15E498B01E0AA19451807D01A34B919F16B070157417138917400F2F6FA41FCF0092A45DEE414C19BDC21783E4BD39D891265658C3D8DEA00A3ACE59CBC8678ACB54CB26EEB6BD7839D7E9348BE70AD9C8321B9BCA7F9A4A26C542347
310
DEE050F09802D22BA6749A800A394DD62899107273365E3C82CFC6A55557BC06C10774B7ABE7AEC3B0F34CF06446280E154026D0542C187BA9DAB6628BF7B6DBB0E5A65B3EB1F58631DE64BBE083F7B65CC218087E22CABB042E51D1F2268F1FE12B3EA24D40D63E9CFE00120194D60B9D5BC67FE6D39CDF37E20AF817881F
310
504B0304140006080800B670623B5933D422630500003B100000340000006662782F38353834323741342D343835462D343034322D383541392D4331303331363839454531452F6F626A656374732E786D6CAD575B6FA33814FE2B887D0642934E9B156594264D158D3A534DD4D13E548A0C38942D60649B4EBABF7E3F8321
310
40924EF6928780CDF1B97EE762EFF32E4B8D37CA45C2F21BD3B547A641F39045491EDF98A5DC5AD7A6F1D9F73863B243661A39C9E88DA9B64DDF8B392B0BBD15D12D295339D85DDEFE618890E6D434C2940871638AF08566C426A5641115AF764424B1E3EDCE76ED9AB0CF36E6A47819302D08A7B984A6D8CFC1C5A89572FB
310
CB91E9F89EA3BEFB9EFAD754E3D3544E654F5F7E920B49F2F040D880CDD89D2CEE2E2EA7D6E56432B6269F2E5CEB7679BBB0DCABF168FE693E9FCEEEA6102C240727AD09A75BD3BF876F78127A4EFDA9D5582B7E4CA590E5390D2BFB6161A5B3E618D182E611E2985001691DAB47FDA5AB7CD3F93C566B2DB2BB7D9E55DD13
310
1D468DEECDB3AB290BFE8409E21C54704115AA6AFF68436BFC8DF65E0B184BF5B74418199194272435D224E084BF9B3E481589EFF5D828747285706581E9BB7B7E5D5D911ABFC6EE312DB7659A2A689A7E85EC0DF04FA5A8344BFEA2FCB834E8845895492EAFB541F2BDA0A63FF59C6AD3F7D4637CA13FD68E34B629891172
310
98597F1D183A57B9B75A98FE9765B05BAB7C3C2EBCE0ACA05C2AF8005A4DE09AA7F29216EB9E15397500C6F47CBE77CA7778FE2BD277AF0AE2C693DD6437D1522427B9D8329E2136F6A8FA19A3E6C56ADF0E5F50CF06D48734EDCEBF22F69C56D97EC138153F804B85E6FABFC7AFEFB32E523BE1F3BD372418E363EDCA7548
310
52949E8724474014288D94610BB57C1BEC4C7F854A89CA8E5324F55B871CBC78CE1BBEE3BFE68D6A5589EF3C730474506FCFA8FCF0659516D0ED04580EEA6425581B77CAE797FF4BCECC16EB2FEB926F49481F746159D06D922712BD730FDEAE42BD40F42C7AA5EF3F198F60E86110D6DD20645A9480B795CF95E3E3A659A8
310
C55E724F408873315335CFFB8584874484344D494E59D94869DB90C26A5B64F49C802CAC1D3ABE18A098D3B7444D123D8A9E5AE8F5214F0AE5B2B6E9B575DA3E61CBD3EA2B4009FA940524DD1305FB6A1FB294F14DF0BEA90BA109ECE1481FDC3FFAE8D60E75141700BE82725371B4873751B2DD960265F788137FACE6DD40
310
B575E4F0A5C99F46629D92131467A41EE11ABD8D4CCC039CA0AFB37C93A08B232B8F0AEFCA1E0A1015DF13FC83322B362463652ECF71D3A8B1A7D1BE65DE1D62C44F22C317D35F574FEB16153BA2D13E543D10A80E74C4A65E78A6B7CBCBD1D5DD9DB59C2DAFACC96C3AB566E3F1C29ADCDD5DBAD7D3C9ED7C822ED74F80A6
310
41755310DE4443F44A9E68373FADF6596BFA0F440AE7BECE2727AE9F4F2B1B53B1E7E00CF0DD1E5C65454A339A4BA2D0FBA05ED2EF0443458F47BDBFCA484CCFE0F2ED7E3DD0013B679C7B5499467F0ECEEADDB9CA85A34CE44B99053949D2C1416DB85DE4B136BB7165FBAC0B7AB3542BED4F8CA182A549847A1319316519
310
95A83A67147B9E5101C47487F2485F1ECE38FD568F839204296D3479219888530154036E6528FBFBC66F98E0D4107563A2D7D9AFF8D389681A08F58D89F22693900A3B407754734FC51C10C010D6D640809EE4718AC1BA3ED4AEDB53CA37283F68805A7E4B72CEB0A4EDEAD5DD8C14059A76AFAA56BA6901E13F32BC51C720
310
12AF41295B5BF61BAD3195181FB506E6B40F4C10AF5AF40EF9F5B159AE5DD1F43C72D635E94310D45C2D49785C5D0B94D3B54AB3C5A38349C0587D338AB48C11CBF339599C02CCA54A70A008A8D03C0B2201D5F9EFCF8F9CE12A9A19CB0410789EB32C63B95ECCF455D658BFE0621A3DA32C5075FB101723D77DAE867E7D0F
310
D90444509B44E2151B4DC2290B065803200FBAA9BE9D392A0603F2D5C2D00D6302A615680F66D2FA166E2079D4C551A54AB758161FCEFD4E450A14704CECFEDF504B0304140006080000B670623B000000000000000000000000350000006662782F38353834323741342D343835462D343034322D383541392D4331303331
310
363839454531452F76657274696365732E62696E504B0304140006080800B670623BF270F1330600000004000000360000006662782F38353834323741342D343835462D343034322D383541392D4331303331363839454531452F747269616E676C65732E62696E636660600000504B0304140006080000B670623B000000
310
000000000000000000370000006662782F38353834323741342D343835462D343034322D383541392D4331303331363839454531452F617474726962757465732E62696E504B0304140006080800B670623B08DA0BD19000000041010000360000006662782F38353834323741342D343835462D343034322D383541392D43
310
31303331363839454531452F6469726563746F72792E786D6C858F410AC3201045AF22B36F53E9A60B35CBEEBAE80D244E44489C6234F4F835464A48035D0DF398FF9F8AF63D0E6CC63039F212F8F9020C7D47C6792B21C5FE7403D62A1188E2E60C98D7234A5830286103A55745067B9D86B8A3CF9C7F90C11DE607FB1443
310
96D7B6A82D282E9A152AD114D5EF2CB866EEE831B8EEA07A7BB5A8D7D61A2BAAEB7FD5F70921FF497D00504B0304140006080800B670623BD9A3B367FE000000A00100003B0000006662782F38353834323741342D343835462D343034322D383541392D4331303331363839454531452F7265736F75726365732F636F7265
310
2E786D6C8D504B6E833010BD0A9A6D65B01D0201194711694FD00B586642AD043BF2A7EAF16B122AB5BB6E6646EFA3797AE2F8B5DC8A4FF4C1383B002B291468B59B8C9D0748F1420E501CA5F0CEC55F3228AC5A708015062966EFD27D83B4B3116DCCA875136EA00A012314FA968F0182FEC045952AC5AC08D7F2AEF455CD
310
58B232D3592745883E07289E4FD609D26370C96B0CA27AB252A464A64D63A6FCD35C0C7A904D73EE467EE664DCD58CD4ED4849D79C5A723ED1B7A61977AF2D6F45B59AA58866F9C9A83DAA8813484E6947182394BFB3BAA7FBBEDEBFD0434FA9A856F91F53BA4FFF342563E38E6F719FB60092E5200F428A6AED2BAF479979
310
AFDDCA6F504B010214000A0000080000B670623B3DEE336E79000000790000001B00000000000000000000000000000000006175746F6465736B2D64657369676E2D7061636B6167652E786D6C504B01021400140006080800B670623BD486FD9CA0000000F40000001300000000000000000000000000B20000005B436F6E
310
74656E745F54797065735D2E786D6C504B01021400140006080800B670623BCA089DFFEC0000007C010000080000000000000000000000000083010000636F72652E786D6C504B01021400140006080800B670623B55019EA25F0000007C000000070000000000000000000000000095020000636E782E786D6C504B010214
310
00140006080800B670623B68FC0B7272010000D40300000C00000000000000000000000000190300006662782F636F72652E786D6C504B01021400140006080800B670623B0F71DDB67E0000009D0000000B00000000000000000000000000B50400006662782F636E782E786D6C504B01021400140006080800B670623BE1
310
34B4FB280100001202000031000000000000000000000000005C0500006662782F38353834323741342D343835462D343034322D383541392D4331303331363839454531452F636F72652E786D6C504B01021400140006080800B670623B1B8617914E010000330300003000000000000000000000000000D3060000666278
310
2F38353834323741342D343835462D343034322D383541392D4331303331363839454531452F636E782E786D6C504B01021400140006080800B670623B5933D422630500003B10000034000000000000000000000000006F0800006662782F38353834323741342D343835462D343034322D383541392D4331303331363839
310
454531452F6F626A656374732E786D6C504B01021400140006080000B670623B0000000000000000000000003500000000000000000000000000240E00006662782F38353834323741342D343835462D343034322D383541392D4331303331363839454531452F76657274696365732E62696E504B01021400140006080800
310
B670623BF270F13306000000040000003600000000000000000000000000770E00006662782F38353834323741342D343835462D343034322D383541392D4331303331363839454531452F747269616E676C65732E62696E504B01021400140006080000B670623B0000000000000000000000003700000000000000000000
310
000000D10E00006662782F38353834323741342D343835462D343034322D383541392D4331303331363839454531452F617474726962757465732E62696E504B01021400140006080800B670623B08DA0BD190000000410100003600000000000000000000000000260F00006662782F38353834323741342D343835462D34
310
3034322D383541392D4331303331363839454531452F6469726563746F72792E786D6C504B01021400140006080800B670623BD9A3B367FE000000A00100003B000000000000000000000000000A1000006662782F38353834323741342D343835462D343034322D383541392D4331303331363839454531452F7265736F75
310
726365732F636F72652E786D6C504B0506000000000E000E0080040000611100000000
  0
XRECORD
  5
113
102
{ACAD_REACTORS
330
110
102
}
330
110
100
AcDbXrecord
280
     1
270
     1
271
     1
  0
XRECORD
  5
114
102
{ACAD_REACTORS
330
110
102
}
330
110
100
AcDbXrecord
280
     1
270
     1
271
     1
  0
CELLSTYLEMAP
  5
B987
102
{ACAD_REACTORS
330
104
102
}
330
104
100
AcDbCellStyleMap
 90
        3
300
CELLSTYLE
  1
TABLEFORMAT_BEGIN
 90
        5
170
     1
 91
        0
 92
    32768
 62
   257
 93
        1
300
CONTENTFORMAT
  1
CONTENTFORMAT_BEGIN
 90
        0
 91
        0
 92
      512
 93
        0
300

 40
0.0
140
1.0
 94
        5
 62
     0
340
11
144
0.25
309
CONTENTFORMAT_END
171
     1
301
MARGIN
  1
CELLMARGIN_BEGIN
 40
0.06
 40
0.06
 40
0.06
 40
0.06
 40
0.18
 40
0.18
309
CELLMARGIN_END
 94
        6
 95
        1
302
GRIDFORMAT
  1
GRIDFORMAT_BEGIN
 90
        0
 91
        1
 62
     0
 92
       -2
340
0
 93
        0
 40
0.045
309
GRIDFORMAT_END
 95
        2
302
GRIDFORMAT
  1
GRIDFORMAT_BEGIN
 90
        0
 91
        1
 62
     0
 92
       -2
340
0
 93
        0
 40
0.045
309
GRIDFORMAT_END
 95
        4
302
GRIDFORMAT
  1
GRIDFORMAT_BEGIN
 90
        0
 91
        1
 62
     0
 92
       -2
340
0
 93
        0
 40
0.045
309
GRIDFORMAT_END
 95
        8
302
GRIDFORMAT
  1
GRIDFORMAT_BEGIN
 90
        0
 91
        1
 62
     0
 92
       -2
340
0
 93
        0
 40
0.045
309
GRIDFORMAT_END
 95
       16
302
GRIDFORMAT
  1
GRIDFORMAT_BEGIN
 90
        0
 91
        1
 62
     0
 92
       -2
340
0
 93
        0
 40
0.045
309
GRIDFORMAT_END
 95
       32
302
GRIDFORMAT
  1
GRIDFORMAT_BEGIN
 90
        0
 91
        1
 62
     0
 92
       -2
340
0
 93
        0
 40
0.045
309
GRIDFORMAT_END
309
TABLEFORMAT_END
  1
CELLSTYLE_BEGIN
 90
        1
 91
        1
300
_TITLE
309
CELLSTYLE_END
300
CELLSTYLE
  1
TABLEFORMAT_BEGIN
 90
        5
170
     1
 91
        0
 92
        0
 62
   257
 93
        1
300
CONTENTFORMAT
  1
CONTENTFORMAT_BEGIN
 90
        0
 91
        0
 92
      512
 93
        0
300

 40
0.0
140
1.0
 94
        5
 62
     0
340
11
144
0.18
309
CONTENTFORMAT_END
171
     1
301
MARGIN
  1
CELLMARGIN_BEGIN
 40
0.06
 40
0.06
 40
0.06
 40
0.06
 40
0.18
 40
0.18
309
CELLMARGIN_END
 94
        6
 95
        1
302
GRIDFORMAT
  1
GRIDFORMAT_BEGIN
 90
        0
 91
        1
 62
     0
 92
       -2
340
0
 93
        0
 40
0.045
309
GRIDFORMAT_END
 95
        2
302
GRIDFORMAT
  1
GRIDFORMAT_BEGIN
 90
        0
 91
        1
 62
     0
 92
       -2
340
0
 93
        0
 40
0.045
309
GRIDFORMAT_END
 95
        4
302
GRIDFORMAT
  1
GRIDFORMAT_BEGIN
 90
        0
 91
        1
 62
     0
 92
       -2
340
0
 93
        0
 40
0.045
309
GRIDFORMAT_END
 95
        8
302
GRIDFORMAT
  1
GRIDFORMAT_BEGIN
 90
        0
 91
        1
 62
     0
 92
       -2
340
0
 93
        0
 40
0.045
309
GRIDFORMAT_END
 95
       16
302
GRIDFORMAT
  1
GRIDFORMAT_BEGIN
 90
        0
 91
        1
 62
     0
 92
       -2
340
0
 93
        0
 40
0.045
309
GRIDFORMAT_END
 95
       32
302
GRIDFORMAT
  1
GRIDFORMAT_BEGIN
 90
        0
 91
        1
 62
     0
 92
       -2
340
0
 93
        0
 40
0.045
309
GRIDFORMAT_END
309
TABLEFORMAT_END
  1
CELLSTYLE_BEGIN
 90
        2
 91
        1
300
_HEADER
309
CELLSTYLE_END
300
CELLSTYLE
  1
TABLEFORMAT_BEGIN
 90
        5
170
     1
 91
        0
 92
        0
 62
   257
 93
        1
300
CONTENTFORMAT
  1
CONTENTFORMAT_BEGIN
 90
        0
 91
        0
 92
      512
 93
        0
300

 40
0.0
140
1.0
 94
        2
 62
     0
340
11
144
0.18
309
CONTENTFORMAT_END
171
     1
301
MARGIN
  1
CELLMARGIN_BEGIN
 40
0.06
 40
0.06
 40
0.06
 40
0.06
 40
0.18
 40
0.18
309
CELLMARGIN_END
 94
        6
 95
        1
302
GRIDFORMAT
  1
GRIDFORMAT_BEGIN
 90
        0
 91
        1
 62
     0
 92
       -2
340
0
 93
        0
 40
0.045
309
GRIDFORMAT_END
 95
        2
302
GRIDFORMAT
  1
GRIDFORMAT_BEGIN
 90
        0
 91
        1
 62
     0
 92
       -2
340
0
 93
        0
 40
0.045
309
GRIDFORMAT_END
 95
        4
302
GRIDFORMAT
  1
GRIDFORMAT_BEGIN
 90
        0
 91
        1
 62
     0
 92
       -2
340
0
 93
        0
 40
0.045
309
GRIDFORMAT_END
 95
        8
302
GRIDFORMAT
  1
GRIDFORMAT_BEGIN
 90
        0
 91
        1
 62
     0
 92
       -2
340
0
 93
        0
 40
0.045
309
GRIDFORMAT_END
 95
       16
302
GRIDFORMAT
  1
GRIDFORMAT_BEGIN
 90
        0
 91
        1
 62
     0
 92
       -2
340
0
 93
        0
 40
0.045
309
GRIDFORMAT_END
 95
       32
302
GRIDFORMAT
  1
GRIDFORMAT_BEGIN
 90
        0
 91
        1
 62
     0
 92
       -2
340
0
 93
        0
 40
0.045
309
GRIDFORMAT_END
309
TABLEFORMAT_END
  1
CELLSTYLE_BEGIN
 90
        3
 91
        2
300
_DATA
309
CELLSTYLE_END
  0
ENDSEC
  0
SECTION
  2
ACDSDATA
 70
     2
 71
     8
  0
ACDSSCHEMA
 90
        0
  1
AcDb_Thumbnail_Schema
  2
AcDbDs::ID
280
    10
 91
        8
  2
Thumbnail_Data
280
    15
 91
        0
101
ACDSRECORD
 95
        0
 90
        1
  2
AcDbDs::TreatedAsObjectData
280
     1
291
     1
101
ACDSRECORD
 95
        0
 90
        2
  2
AcDbDs::Legacy
280
     1
291
     1
101
ACDSRECORD
  1
AcDbDs::ID
 90
        3
  2
AcDs:Indexable
280
     1
291
     1
101
ACDSRECORD
  1
AcDbDs::ID
 90
        4
  2
AcDbDs::HandleAttribute
280
     7
282
     1
  0
ACDSSCHEMA
 90
        1
  1
AcDbDs::TreatedAsObjectDataSchema
  2
AcDbDs::TreatedAsObjectData
280
     1
 91
        0
  0
ACDSSCHEMA
 90
        2
  1
AcDbDs::LegacySchema
  2
AcDbDs::Legacy
280
     1
 91
        0
  0
ACDSSCHEMA
 90
        3
  1
AcDbDs::IndexedPropertySchema
  2
AcDs:Indexable
280
     1
 91
        0
  0
ACDSSCHEMA
 90
        4
  1
AcDbDs::HandleAttributeSchema
  2
AcDbDs::HandleAttribute
280
     7
 91
        1
284
     1
  0
ACDSRECORD
 90
        0
  2
AcDbDs::ID
280
    10
320
22
  2
Thumbnail_Data
280
    15
 94
     1770
310
89504E470D0A1A0A0000000D49484452000001000000006D080300000079B14F6400000300504C5445212830FFFFFF2128300000000000000000000000000000000000000000000000000000330000660000990000CC0000FF0033000033330033660033990033CC0033FF0066000066330066660066990066CC0066FF0099
310
000099330099660099990099CC0099FF00CC0000CC3300CC6600CC9900CCCC00CCFF00FF0000FF3300FF6600FF9900FFCC00FFFF3300003300333300663300993300CC3300FF3333003333333333663333993333CC3333FF3366003366333366663366993366CC3366FF3399003399333399663399993399CC3399FF33CC00
310
33CC3333CC6633CC9933CCCC33CCFF33FF0033FF3333FF6633FF9933FFCC33FFFF6600006600336600666600996600CC6600FF6633006633336633666633996633CC6633FF6666006666336666666666996666CC6666FF6699006699336699666699996699CC6699FF66CC0066CC3366CC6666CC9966CCCC66CCFF66FF0066
310
FF3366FF6666FF9966FFCC66FFFF9900009900339900669900999900CC9900FF9933009933339933669933999933CC9933FF9966009966339966669966999966CC9966FF9999009999339999669999999999CC9999FF99CC0099CC3399CC6699CC9999CCCC99CCFF99FF0099FF3399FF6699FF9999FFCC99FFFFCC0000CC00
310
33CC0066CC0099CC00CCCC00FFCC3300CC3333CC3366CC3399CC33CCCC33FFCC6600CC6633CC6666CC6699CC66CCCC66FFCC9900CC9933CC9966CC9999CC99CCCC99FFCCCC00CCCC33CCCC66CCCC99CCCCCCCCCCFFCCFF00CCFF33CCFF66CCFF99CCFFCCCCFFFFFF0000FF0033FF0066FF0099FF00CCFF00FFFF3300FF3333
310
FF3366FF3399FF33CCFF33FFFF6600FF6633FF6666FF6699FF66CCFF66FFFF9900FF9933FF9966FF9999FF99CCFF99FFFFCC00FFCC33FFCC66FFCC99FFCCCCFFCCFFFFFF00FFFF33FFFF66FFFF99FFFFCCFFFFFF0000000D0D0D1A1A1A2828283535354343435050505D5D5D6B6B6B787878868686939393A1A1A1AEAEAEBB
310
BBBBC9C9C9D6D6D6E4E4E4F1F1F1FFFFFF0000000000000000000000000000000000000000000000000000000000002E4550F1000003A54944415478DAED9DC172E3300840F5FFFFFBEE3B6DED48B20542EEEEAC00FB90E9246D1A9E010102A594F7DAE7E2EBCA2C7E7D1CB1890FA0E5707F313C822A1F6BCA9100C0E72512
310
58C0404C4A7200CD33E4D4008D4D4800C800480960E80F22AF0288F287B6021B800C5EE012F3C91E2130001481030368E21D392E0CBD10704FFF94A828B4FC0701C4CC28BCFC45AE8F442580B90690058018F685548125A14871FF3558BC005203486F020101F002A0A426C03FFEFD585140501B784DE005909800E505F0CA
310
FF02780164AD08A037C76400F020C90F07E04BFCA4003EF22705F0ADF8F5211D80A3016E79112094017CCB935401AAFF0F5813A3BB444160D9027C0098F7F6FC7011F7C10DB1D3DE777F76D7F8D9FD541500A72A80D2F0DB3E51E31F611F189FDBA3189E833E005C03E030BD1D00A0D580A53BBDB306889BFA03FB6F2360A2
310
00B0B8B343F61F564F4C60671BB0582D4DEC03E63F73E102302AC06906CF86217027FF05C0D10BD984885102410B006A085C09AC94C3F67581CA47E3B64E9C81C02A809D1B64948F766F7FA65B35B1ABFDCE000C2F9DC95F6D8DB625C3F896FF0AA0E902B525C3E0C1022C9FFFF0802D00D634A0F804F0717CD450B0490B17
310
34C0A50514DAD0BFBFE9A6A179E70A20678156ABF6303D6BFC6CA7D717DCFA6446C0650C20E9C1307F1EA7D31E003C0D1AB98C86EAF5A4281A700D843A49517139CC03348D61302689CF017A1E6283DB9BF097FFCB961A706E0B94D19C2C0E013C7002F72D91B9A5C731816129E866EAE0667AFE61BB2F7ACA4B71333BFDBC
310
E31DC5D7E3A917E0599FD7F888143153240881D1811948CE805F28DA7F33033DC76514D98800FAB9FABDADA04FFF0F0EEA56B910E321F8CACD37C6E9AB1C9C8F8A23B70128F800502E6740B40D42E37C460AF2AFEBA017005A6750B5890500C51B00B9AB87C19108CA5929FD4F7E8E13A34C004CA3A1F13AE00680DC1F412D
310
0DB300E09231ED1F178AED5E4D4BC47D535C2E8150FC00508EFEEC7A22AB735796F76EE3C8078063D913AABA1707786D101655A0FF451C5AFF89669438A827C932F0013E0B42E281488402B09E25A245F8B4B3641EB605B4DB3F0DDF98D44B1C6F0CD9E49F7616383601CBD6B7B219A625523B03E0972350F48BA043009F78
310
4FB600F53471DCC581B7C25D6D85111BC1E581A2E10B38298795EB108466E2B6522AC5C1096296D4765C3AB2BCB58703D4E429F8F900D1C449E2684ECE32F9C1C37D4417A500CB31A0810F4837B4CB67FD2A9D14DF1231558FE45FA594F9F66F7BFD01893F1646A6758A250000000049454E44AE426082
  0
ENDSEC
  0
EOF
