  0
SECTION
  2
HEADER
  9
$ACADVER
  1
AC1032
  9
$ACADMAINTVER
 90
      197
  9
$DWGCODEPAGE
  3
ANSI_1252
  9
$LASTSAVEDBY
  1
gregb
  9
$REQUIREDVERSIONS
160
                 0
  9
$INSBASE
 10
0.0
 20
0.0
 30
0.0
  9
$EXTMIN
 10
10631.60707973639
 20
29787.83291091314
 30
0.0
  9
$EXTMAX
 10
10815.50210121412
 20
29962.27206671532
 30
0.0
  9
$LIMMIN
 10
0.0
 20
0.0
  9
$LIMMAX
 10
12.0
 20
9.0
  9
$ORTHOMODE
 70
     1
  9
$REGENMODE
 70
     1
  9
$FILLMODE
 70
     1
  9
$QTEXTMODE
 70
     0
  9
$MIRRTEXT
 70
     0
  9
$LTSCALE
 40
1.0
  9
$ATTMODE
 70
     1
  9
$TEXTSIZE
 40
0.2
  9
$TRACEWID
 40
0.05
  9
$TEXTSTYLE
  7
Standard
  9
$CLAYER
  8
freecads.com
  9
$CELTYPE
  6
ByLayer
  9
$CECOLOR
 62
   256
  9
$CELTSCALE
 40
1.0
  9
$DISPSILH
 70
     1
  9
$DIMSCALE
 40
1.0
  9
$DIMASZ
 40
0.18
  9
$DIMEXO
 40
0.0625
  9
$DIMDLI
 40
0.38
  9
$DIMRND
 40
0.0
  9
$DIMDLE
 40
0.0
  9
$DIMEXE
 40
0.18
  9
$DIMTP
 40
0.0
  9
$DIMTM
 40
0.0
  9
$DIMTXT
 40
0.18
  9
$DIMCEN
 40
0.09
  9
$DIMTSZ
 40
0.0
  9
$DIMTOL
 70
     0
  9
$DIMLIM
 70
     0
  9
$DIMTIH
 70
     1
  9
$DIMTOH
 70
     1
  9
$DIMSE1
 70
     0
  9
$DIMSE2
 70
     0
  9
$DIMTAD
 70
     0
  9
$DIMZIN
 70
     0
  9
$DIMBLK
  1

  9
$DIMASO
 70
     1
  9
$DIMSHO
 70
     1
  9
$DIMPOST
  1

  9
$DIMAPOST
  1

  9
$DIMALT
 70
     0
  9
$DIMALTD
 70
     2
  9
$DIMALTF
 40
25.4
  9
$DIMLFAC
 40
1.0
  9
$DIMTOFL
 70
     0
  9
$DIMTVP
 40
0.0
  9
$DIMTIX
 70
     0
  9
$DIMSOXD
 70
     0
  9
$DIMSAH
 70
     0
  9
$DIMBLK1
  1

  9
$DIMBLK2
  1

  9
$DIMSTYLE
  2
Standard
  9
$DIMCLRD
 70
     0
  9
$DIMCLRE
 70
     0
  9
$DIMCLRT
 70
     0
  9
$DIMTFAC
 40
1.0
  9
$DIMGAP
 40
0.09
  9
$DIMJUST
 70
     0
  9
$DIMSD1
 70
     0
  9
$DIMSD2
 70
     0
  9
$DIMTOLJ
 70
     1
  9
$DIMTZIN
 70
     0
  9
$DIMALTZ
 70
     0
  9
$DIMALTTZ
 70
     0
  9
$DIMUPT
 70
     0
  9
$DIMDEC
 70
     4
  9
$DIMTDEC
 70
     4
  9
$DIMALTU
 70
     2
  9
$DIMALTTD
 70
     2
  9
$DIMTXSTY
  7
Standard
  9
$DIMAUNIT
 70
     0
  9
$DIMADEC
 70
     0
  9
$DIMALTRND
 40
0.0
  9
$DIMAZIN
 70
     0
  9
$DIMDSEP
 70
    46
  9
$DIMATFIT
 70
     3
  9
$DIMFRAC
 70
     0
  9
$DIMLDRBLK
  1

  9
$DIMLUNIT
 70
     2
  9
$DIMLWD
 70
    -2
  9
$DIMLWE
 70
    -2
  9
$DIMTMOVE
 70
     0
  9
$DIMFXL
 40
1.0
  9
$DIMFXLON
 70
     0
  9
$DIMJOGANG
 40
0.7853981633974483
  9
$DIMTFILL
 70
     0
  9
$DIMTFILLCLR
 70
     0
  9
$DIMARCSYM
 70
     0
  9
$DIMLTYPE
  6

  9
$DIMLTEX1
  6

  9
$DIMLTEX2
  6

  9
$DIMTXTDIRECTION
 70
     0
  9
$LUNITS
 70
     2
  9
$LUPREC
 70
     4
  9
$SKETCHINC
 40
0.1
  9
$FILLETRAD
 40
0.0
  9
$AUNITS
 70
     0
  9
$AUPREC
 70
     0
  9
$MENU
  1
.
  9
$ELEVATION
 40
0.0
  9
$PELEVATION
 40
0.0
  9
$THICKNESS
 40
0.0
  9
$LIMCHECK
 70
     0
  9
$CHAMFERA
 40
0.0
  9
$CHAMFERB
 40
0.0
  9
$CHAMFERC
 40
0.0
  9
$CHAMFERD
 40
0.0
  9
$SKPOLY
 70
     0
  9
$TDCREATE
 40
2458157.371250000
  9
$TDUCREATE
 40
2458157.287916667
  9
$TDUPDATE
 40
2461016.544837963
  9
$TDUUPDATE
 40
2461016.461504630
  9
$TDINDWG
 40
0.1103356481
  9
$TDUSRTIMER
 40
0.1103356481
  9
$USRTIMER
 70
     1
  9
$ANGBASE
 50
0.0
  9
$ANGDIR
 70
     0
  9
$PDMODE
 70
     0
  9
$PDSIZE
 40
0.0
  9
$PLINEWID
 40
0.0
  9
$SPLFRAME
 70
     0
  9
$SPLINETYPE
 70
     6
  9
$SPLINESEGS
 70
     8
  9
$HANDSEED
  5
BF4D
  9
$SURFTAB1
 70
     6
  9
$SURFTAB2
 70
     6
  9
$SURFTYPE
 70
     6
  9
$SURFU
 70
     6
  9
$SURFV
 70
     6
  9
$UCSBASE
  2

  9
$UCSNAME
  2

  9
$UCSORG
 10
0.0
 20
0.0
 30
0.0
  9
$UCSXDIR
 10
1.0
 20
0.0
 30
0.0
  9
$UCSYDIR
 10
0.0
 20
1.0
 30
0.0
  9
$UCSORTHOREF
  2

  9
$UCSORTHOVIEW
 70
     0
  9
$UCSORGTOP
 10
0.0
 20
0.0
 30
0.0
  9
$UCSORGBOTTOM
 10
0.0
 20
0.0
 30
0.0
  9
$UCSORGLEFT
 10
0.0
 20
0.0
 30
0.0
  9
$UCSORGRIGHT
 10
0.0
 20
0.0
 30
0.0
  9
$UCSORGFRONT
 10
0.0
 20
0.0
 30
0.0
  9
$UCSORGBACK
 10
0.0
 20
0.0
 30
0.0
  9
$PUCSBASE
  2

  9
$PUCSNAME
  2

  9
$PUCSORG
 10
0.0
 20
0.0
 30
0.0
  9
$PUCSXDIR
 10
1.0
 20
0.0
 30
0.0
  9
$PUCSYDIR
 10
0.0
 20
1.0
 30
0.0
  9
$PUCSORTHOREF
  2

  9
$PUCSORTHOVIEW
 70
     0
  9
$PUCSORGTOP
 10
0.0
 20
0.0
 30
0.0
  9
$PUCSORGBOTTOM
 10
0.0
 20
0.0
 30
0.0
  9
$PUCSORGLEFT
 10
0.0
 20
0.0
 30
0.0
  9
$PUCSORGRIGHT
 10
0.0
 20
0.0
 30
0.0
  9
$PUCSORGFRONT
 10
0.0
 20
0.0
 30
0.0
  9
$PUCSORGBACK
 10
0.0
 20
0.0
 30
0.0
  9
$USERI1
 70
     0
  9
$USERI2
 70
     0
  9
$USERI3
 70
     0
  9
$USERI4
 70
     0
  9
$USERI5
 70
     0
  9
$USERR1
 40
0.0
  9
$USERR2
 40
0.0
  9
$USERR3
 40
0.0
  9
$USERR4
 40
0.0
  9
$USERR5
 40
0.0
  9
$WORLDVIEW
 70
     1
  9
$SHADEDGE
 70
     3
  9
$SHADEDIF
 70
    70
  9
$TILEMODE
 70
     1
  9
$MAXACTVP
 70
    64
  9
$PINSBASE
 10
0.0
 20
0.0
 30
0.0
  9
$PLIMCHECK
 70
     0
  9
$PEXTMIN
 10
0.0
 20
0.0
 30
0.0
  9
$PEXTMAX
 10
0.0
 20
0.0
 30
0.0
  9
$PLIMMIN
 10
0.0
 20
0.0
  9
$PLIMMAX
 10
12.0
 20
9.0
  9
$UNITMODE
 70
     0
  9
$VISRETAIN
 70
     1
  9
$PLINEGEN
 70
     0
  9
$PSLTSCALE
 70
     1
  9
$TREEDEPTH
 70
  3020
  9
$CMLSTYLE
  2
Standard
  9
$CMLJUST
 70
     0
  9
$CMLSCALE
 40
1.0
  9
$PROXYGRAPHICS
 70
     1
  9
$MEASUREMENT
 70
     0
  9
$CELWEIGHT
370
    -1
  9
$ENDCAPS
280
     0
  9
$JOINSTYLE
280
     0
  9
$LWDISPLAY
290
     0
  9
$INSUNITS
 70
     1
  9
$HYPERLINKBASE
  1

  9
$STYLESHEET
  1
monochrome.ctb
  9
$XEDIT
290
     1
  9
$CEPSNTYPE
380
     0
  9
$PSTYLEMODE
290
     1
  9
$FINGERPRINTGUID
  2
{358EB121-6EE0-9143-8A3E-6E8E8869FDA6}
  9
$VERSIONGUID
  2
{52238A58-F9CA-5745-AF99-78AA3D496E55}
  9
$EXTNAMES
290
     1
  9
$PSVPSCALE
 40
0.0
  9
$OLESTARTUP
290
     0
  9
$SORTENTS
280
   127
  9
$INDEXCTL
280
     0
  9
$HIDETEXT
280
     1
  9
$XCLIPFRAME
280
     2
  9
$HALOGAP
280
     0
  9
$OBSCOLOR
 70
   257
  9
$OBSLTYPE
280
     0
  9
$INTERSECTIONDISPLAY
280
     0
  9
$INTERSECTIONCOLOR
 70
   257
  9
$DIMASSOC
280
     2
  9
$PROJECTNAME
  1

  9
$CAMERADISPLAY
290
     0
  9
$LENSLENGTH
 40
50.0
  9
$CAMERAHEIGHT
 40
0.0
  9
$STEPSPERSEC
 40
2.0
  9
$STEPSIZE
 40
6.0
  9
$3DDWFPREC
 40
2.0
  9
$PSOLWIDTH
 40
0.25
  9
$PSOLHEIGHT
 40
4.0
  9
$LOFTANG1
 40
1.570796326794896
  9
$LOFTANG2
 40
1.570796326794896
  9
$LOFTMAG1
 40
0.0
  9
$LOFTMAG2
 40
0.0
  9
$LOFTPARAM
 70
     7
  9
$LOFTNORMALS
280
     1
  9
$LATITUDE
 40
37.795
  9
$LONGITUDE
 40
-122.394
  9
$NORTHDIRECTION
 40
0.0
  9
$TIMEZONE
 70
 -8000
  9
$LIGHTGLYPHDISPLAY
280
     1
  9
$TILEMODELIGHTSYNCH
280
     1
  9
$CMATERIAL
347
96
  9
$SOLIDHIST
280
     0
  9
$SHOWHIST
280
     1
  9
$DWFFRAME
280
     2
  9
$DGNFRAME
280
     0
  9
$REALWORLDSCALE
290
     1
  9
$INTERFERECOLOR
 62
     1
  9
$INTERFEREOBJVS
345
A3
  9
$INTERFEREVPVS
346
A0
  9
$CSHADOW
280
     0
  9
$SHADOWPLANELOCATION
 40
0.0
  0
ENDSEC
  0
SECTION
  2
CLASSES
  0
CLASS
  1
ACDBDICTIONARYWDFLT
  2
AcDbDictionaryWithDefault
  3
ObjectDBX Classes
 90
        0
 91
        1
280
     0
281
     0
  0
CLASS
  1
DICTIONARYVAR
  2
AcDbDictionaryVar
  3
ObjectDBX Classes
 90
        0
 91
        9
280
     0
281
     0
  0
CLASS
  1
TABLESTYLE
  2
AcDbTableStyle
  3
ObjectDBX Classes
 90
     4095
 91
        1
280
     0
281
     0
  0
CLASS
  1
MATERIAL
  2
AcDbMaterial
  3
ObjectDBX Classes
 90
     1153
 91
        3
280
     0
281
     0
  0
CLASS
  1
VISUALSTYLE
  2
AcDbVisualStyle
  3
ObjectDBX Classes
 90
     4095
 91
       25
280
     0
281
     0
  0
CLASS
  1
SCALE
  2
AcDbScale
  3
ObjectDBX Classes
 90
     1153
 91
       35
280
     0
281
     0
  0
CLASS
  1
MLEADERSTYLE
  2
AcDbMLeaderStyle
  3
ACDB_MLEADERSTYLE_CLASS
 90
     4095
 91
        1
280
     0
281
     0
  0
CLASS
  1
CELLSTYLEMAP
  2
AcDbCellStyleMap
  3
ObjectDBX Classes
 90
     1152
 91
        1
280
     0
281
     0
  0
CLASS
  1
EXACXREFPANELOBJECT
  2
ExAcXREFPanelObject
  3
EXAC_ESW
 90
     1025
 91
        0
280
     0
281
     0
  0
CLASS
  1
NPOCOLLECTION
  2
AcDbImpNonPersistentObjectsCollection
  3
ObjectDBX Classes
 90
     1153
 91
        0
280
     0
281
     0
  0
CLASS
  1
LAYER_INDEX
  2
AcDbLayerIndex
  3
ObjectDBX Classes
 90
        0
 91
        0
280
     0
281
     0
  0
CLASS
  1
SPATIAL_INDEX
  2
AcDbSpatialIndex
  3
ObjectDBX Classes
 90
        0
 91
        0
280
     0
281
     0
  0
CLASS
  1
IDBUFFER
  2
AcDbIdBuffer
  3
ObjectDBX Classes
 90
        0
 91
        0
280
     0
281
     0
  0
CLASS
  1
ACDBSECTIONVIEWSTYLE
  2
AcDbSectionViewStyle
  3
ObjectDBX Classes
 90
     1025
 91
        2
280
     0
281
     0
  0
CLASS
  1
ACDBDETAILVIEWSTYLE
  2
AcDbDetailViewStyle
  3
ObjectDBX Classes
 90
     1025
 91
        2
280
     0
281
     0
  0
CLASS
  1
SORTENTSTABLE
  2
AcDbSortentsTable
  3
ObjectDBX Classes
 90
        0
 91
        1
280
     0
281
     0
  0
CLASS
  1
SPATIAL_FILTER
  2
AcDbSpatialFilter
  3
ObjectDBX Classes
 90
        0
 91
        0
280
     0
281
     0
  0
CLASS
  1
SOLID_BACKGROUND
  2
AcDbSolidBackground
  3
SCENEOE
 90
     4095
 91
        0
280
     0
281
     0
  0
ENDSEC
  0
SECTION
  2
TABLES
  0
TABLE
  2
VPORT
  5
8
330
0
100
AcDbSymbolTable
 70
     1
  0
VPORT
  5
94
330
8
100
AcDbSymbolTableRecord
100
AcDbViewportTableRecord
  2
*Active
 70
     0
 10
0.0
 20
0.0
 11
1.0
 21
1.0
 12
10723.71234896904
 22
29888.47753656862
 13
0.0
 23
0.0
 14
0.5
 24
0.5
 15
0.5
 25
0.5
 16
0.0
 26
0.0
 36
1.0
 17
0.0
 27
0.0
 37
0.0
 40
196.7459596953017
 41
2.066284779050736
 42
50.0
 43
0.0
 44
0.0
 50
0.0
 51
0.0
 71
     0
 72
  1000
 73
     1
 74
     3
 75
     0
 76
     0
 77
     0
 78
     0
281
     0
 65
     1
110
0.0
120
0.0
130
0.0
111
1.0
121
0.0
131
0.0
112
0.0
122
1.0
132
0.0
 79
     0
146
0.0
348
9F
 60
     3
 61
     5
292
     1
282
     1
141
0.0
142
0.0
 63
   250
421
  3355443
1001
ACAD_NAV_VCDISPLAY
1070
     3
  0
ENDTAB
  0
TABLE
  2
LTYPE
  5
5
330
0
100
AcDbSymbolTable
 70
     1
  0
LTYPE
  5
14
330
5
100
AcDbSymbolTableRecord
100
AcDbLinetypeTableRecord
  2
ByBlock
 70
     0
  3

 72
    65
 73
     0
 40
0.0
  0
LTYPE
  5
15
330
5
100
AcDbSymbolTableRecord
100
AcDbLinetypeTableRecord
  2
ByLayer
 70
     0
  3

 72
    65
 73
     0
 40
0.0
  0
LTYPE
  5
16
330
5
100
AcDbSymbolTableRecord
100
AcDbLinetypeTableRecord
  2
Continuous
 70
     0
  3
Solid line
 72
    65
 73
     0
 40
0.0
  0
ENDTAB
  0
TABLE
  2
LAYER
  5
2
102
{ACAD_XDICTIONARY
360
18E
102
}
330
0
100
AcDbSymbolTable
 70
     2
  0
LAYER
  5
10
102
{ACAD_XDICTIONARY
360
E6
102
}
330
2
100
AcDbSymbolTableRecord
100
AcDbLayerTableRecord
  2
0
 70
     0
 62
     7
  6
Continuous
370
    -3
390
F
347
98
348
0
  0
LAYER
  5
204
330
2
100
AcDbSymbolTableRecord
100
AcDbLayerTableRecord
  2
freecads.com
 70
     0
 62
     7
  6
Continuous
370
    -3
390
F
347
98
348
0
1001
AcAecLayerStandard
1000

1000

1001
AcCmTransparency
1071
        0
  0
ENDTAB
  0
TABLE
  2
STYLE
  5
3
330
0
100
AcDbSymbolTable
 70
     1
  0
STYLE
  5
11
330
3
100
AcDbSymbolTableRecord
100
AcDbTextStyleTableRecord
  2
Standard
 70
     0
 40
0.0
 41
1.0
 50
0.0
 71
     0
 42
0.2
  3
arial.ttf
  4

1001
ACAD
1000
Arial
1071
       34
  0
ENDTAB
  0
TABLE
  2
VIEW
  5
6
330
0
100
AcDbSymbolTable
 70
     0
  0
ENDTAB
  0
TABLE
  2
UCS
  5
7
330
0
100
AcDbSymbolTable
 70
     0
  0
ENDTAB
  0
TABLE
  2
APPID
  5
9
330
0
100
AcDbSymbolTable
 70
    23
  0
APPID
  5
12
330
9
100
AcDbSymbolTableRecord
100
AcDbRegAppTableRecord
  2
ACAD
 70
     0
  0
APPID
  5
DD
330
9
100
AcDbSymbolTableRecord
100
AcDbRegAppTableRecord
  2
AcadAnnoPO
 70
     0
  0
APPID
  5
DE
330
9
100
AcDbSymbolTableRecord
100
AcDbRegAppTableRecord
  2
AcadAnnotative
 70
     0
  0
APPID
  5
DF
330
9
100
AcDbSymbolTableRecord
100
AcDbRegAppTableRecord
  2
ACAD_DSTYLE_DIMJAG
 70
     0
  0
APPID
  5
E0
330
9
100
AcDbSymbolTableRecord
100
AcDbRegAppTableRecord
  2
ACAD_DSTYLE_DIMTALN
 70
     0
  0
APPID
  5
107
330
9
100
AcDbSymbolTableRecord
100
AcDbRegAppTableRecord
  2
ACAD_MLEADERVER
 70
     0
  0
APPID
  5
1A6
330
9
100
AcDbSymbolTableRecord
100
AcDbRegAppTableRecord
  2
ACAD_NAV_VCDISPLAY
 70
     0
  0
APPID
  5
205
330
9
100
AcDbSymbolTableRecord
100
AcDbRegAppTableRecord
  2
AcAecLayerStandard
 70
     0
  0
APPID
  5
206
330
9
100
AcDbSymbolTableRecord
100
AcDbRegAppTableRecord
  2
AcCmTransparency
 70
     0
  0
APPID
  5
222
330
9
100
AcDbSymbolTableRecord
100
AcDbRegAppTableRecord
  2
ACAD_PSEXT
 70
     0
  0
APPID
  5
2DA
330
9
100
AcDbSymbolTableRecord
100
AcDbRegAppTableRecord
  2
GradientColor1ACI
 70
     0
  0
APPID
  5
2DB
330
9
100
AcDbSymbolTableRecord
100
AcDbRegAppTableRecord
  2
GradientColor2ACI
 70
     0
  0
APPID
  5
2F3
330
9
100
AcDbSymbolTableRecord
100
AcDbRegAppTableRecord
  2
ACAD_EXEMPT_FROM_CAD_STANDARDS
 70
     0
  0
APPID
  5
A1A
330
9
100
AcDbSymbolTableRecord
100
AcDbRegAppTableRecord
  2
AcDbBlockRepETag
 70
     0
  0
APPID
  5
228C
330
9
100
AcDbSymbolTableRecord
100
AcDbRegAppTableRecord
  2
RAK
 70
     0
  0
APPID
  5
2683
330
9
100
AcDbSymbolTableRecord
100
AcDbRegAppTableRecord
  2
ACAD_DSTYLE_DIMJOGGED_JOGANGLE_SYMBOL
 70
     0
  0
APPID
  5
47CF
330
9
100
AcDbSymbolTableRecord
100
AcDbRegAppTableRecord
  2
ACAD_DSTYLE_DIMBREAK
 70
     0
  0
APPID
  5
47D0
330
9
100
AcDbSymbolTableRecord
100
AcDbRegAppTableRecord
  2
AcDbDynamicBlockGUID
 70
     0
  0
APPID
  5
8BD5
330
9
100
AcDbSymbolTableRecord
100
AcDbRegAppTableRecord
  2
AcLayerTools
 70
     0
  0
APPID
  5
92D9
330
9
100
AcDbSymbolTableRecord
100
AcDbRegAppTableRecord
  2
AutoGrph01
 70
     0
  0
APPID
  5
92DA
330
9
100
AcDbSymbolTableRecord
100
AcDbRegAppTableRecord
  2
AutoGrphVars
 70
     0
  0
APPID
  5
92DB
330
9
100
AcDbSymbolTableRecord
100
AcDbRegAppTableRecord
  2
AutoGrphZ
 70
     0
  0
APPID
  5
92DC
330
9
100
AcDbSymbolTableRecord
100
AcDbRegAppTableRecord
  2
AutoGrph05
 70
     0
  0
ENDTAB
  0
TABLE
  2
DIMSTYLE
  5
A
330
0
100
AcDbSymbolTable
 70
     1
100
AcDbDimStyleTable
 71
     1
340
27
  0
DIMSTYLE
105
27
330
A
100
AcDbSymbolTableRecord
100
AcDbDimStyleTableRecord
  2
Standard
 70
     0
340
11
  0
ENDTAB
  0
TABLE
  2
BLOCK_RECORD
  5
1
330
0
100
AcDbSymbolTable
 70
     1
  0
BLOCK_RECORD
  5
1F
102
{ACAD_XDICTIONARY
360
15D
102
}
330
1
100
AcDbSymbolTableRecord
100
AcDbBlockTableRecord
  2
*Model_Space
340
22
 70
     0
280
     1
281
     0
  0
BLOCK_RECORD
  5
58
330
1
100
AcDbSymbolTableRecord
100
AcDbBlockTableRecord
  2
*Paper_Space
340
59
 70
     0
280
     1
281
     0
  0
BLOCK_RECORD
  5
5D
330
1
100
AcDbSymbolTableRecord
100
AcDbBlockTableRecord
  2
*Paper_Space0
340
5E
 70
     0
280
     1
281
     0
  0
ENDTAB
  0
ENDSEC
  0
SECTION
  2
BLOCKS
  0
BLOCK
  5
20
330
1F
100
AcDbEntity
  8
0
100
AcDbBlockBegin
  2
*Model_Space
 70
     0
 10
0.0
 20
0.0
 30
0.0
  3
*Model_Space
  1

  0
ENDBLK
  5
21
330
1F
100
AcDbEntity
  8
0
100
AcDbBlockEnd
  0
BLOCK
  5
5A
330
58
100
AcDbEntity
 67
     1
  8
0
100
AcDbBlockBegin
  2
*Paper_Space
 70
     0
 10
0.0
 20
0.0
 30
0.0
  3
*Paper_Space
  1

  0
ENDBLK
  5
5B
330
58
100
AcDbEntity
 67
     1
  8
0
100
AcDbBlockEnd
  0
BLOCK
  5
5F
330
5D
100
AcDbEntity
 67
     1
  8
0
100
AcDbBlockBegin
  2
*Paper_Space0
 70
     0
 10
0.0
 20
0.0
 30
0.0
  3
*Paper_Space0
  1

  0
ENDBLK
  5
60
330
5D
100
AcDbEntity
 67
     1
  8
0
100
AcDbBlockEnd
  0
ENDSEC
  0
SECTION
  2
ENTITIES
  0
LINE
  5
BC47
330
1F
100
AcDbEntity
  8
freecads.com
100
AcDbLine
 10
10724.86469934123
 20
29960.43801247841
 30
0.0
 11
10720.61469934123
 21
29958.54965447841
 31
0.0
  0
LINE
  5
BC48
330
1F
100
AcDbEntity
  8
freecads.com
100
AcDbLine
 10
10720.61469934123
 20
29958.54965447841
 30
0.0
 11
10720.61469934123
 21
29952.34466847842
 31
0.0
  0
ARC
  5
BC49
330
1F
100
AcDbEntity
  8
freecads.com
100
AcDbCircle
 10
10757.8330460107
 20
29952.34468019152
 30
0.0
 40
37.21834666946417
100
AcDbArc
 50
180.0000180317995
 51
188.4306104204761
  0
ARC
  5
BC4A
330
1F
100
AcDbEntity
  8
freecads.com
100
AcDbCircle
 10
10739.9387002298
 20
29949.6925087212
 30
0.0
 40
19.12852565226472
100
AcDbArc
 50
188.4306251028663
 51
202.3037566439822
  0
ARC
  5
BC4B
330
1F
100
AcDbEntity
  8
freecads.com
100
AcDbCircle
 10
10731.97915822286
 20
29946.42746317219
 30
0.0
 40
10.52533837096338
100
AcDbArc
 50
202.3038080509639
 51
221.3243857472467
  0
ARC
  5
BC4C
330
1F
100
AcDbEntity
  8
freecads.com
100
AcDbCircle
 10
10726.3071446249
 20
29941.44019638671
 30
0.0
 40
2.972552908303173
100
AcDbArc
 50
221.3243535211419
 51
270.0000523572103
  0
ARC
  5
BC4D
330
1F
100
AcDbEntity
  8
freecads.com
100
AcDbCircle
 10
10726.30714389321
 20
29930.89565664035
 30
0.0
 40
7.571986838063697
100
AcDbArc
 50
76.60802445310162
 51
89.99997390946111
  0
ARC
  5
BC4E
330
1F
100
AcDbEntity
  8
freecads.com
100
AcDbCircle
 10
10727.92828419633
 20
29937.70472376068
 30
0.0
 40
0.5725946550565386
100
AcDbArc
 50
349.2437242708195
 51
76.60796831124739
  0
ARC
  5
BC4F
330
1F
100
AcDbEntity
  8
freecads.com
100
AcDbCircle
 10
10726.90906229782
 20
29937.89834177409
 30
0.0
 40
1.61004403383692
100
AcDbArc
 50
306.0894287331964
 51
349.2438282495618
  0
ARC
  5
BC50
330
1F
100
AcDbEntity
  8
freecads.com
100
AcDbCircle
 10
10711.91146768778
 20
29958.47309829074
 30
0.0
 40
27.07076770396272
100
AcDbArc
 50
300.5709143802927
 51
306.0894937632217
  0
ARC
  5
BC51
330
1F
100
AcDbEntity
  8
freecads.com
100
AcDbCircle
 10
10729.39103461839
 20
29928.88250681646
 30
0.0
 40
7.296925903258569
100
AcDbArc
 50
120.5709748676241
 51
135.0201302615285
  0
ARC
  5
BC52
330
1F
100
AcDbEntity
  8
freecads.com
100
AcDbCircle
 10
10731.90805256428
 20
29926.36726501438
 30
0.0
 40
10.85527111738222
100
AcDbArc
 50
135.0201605406535
 51
145.7495441556652
  0
ARC
  5
BC53
330
1F
100
AcDbEntity
  8
freecads.com
100
AcDbCircle
 10
10735.7903251232
 20
29923.72387700978
 30
0.0
 40
15.55202961282664
100
AcDbArc
 50
145.7495517692292
 51
154.5774421742925
  0
ARC
  5
BC54
330
1F
100
AcDbEntity
  8
freecads.com
100
AcDbCircle
 10
10752.53294480534
 20
29915.7658270905
 30
0.0
 40
34.08971750368139
100
AcDbArc
 50
154.5774571233981
 51
159.4867252384857
  0
ARC
  5
BC55
330
1F
100
AcDbEntity
  8
freecads.com
100
AcDbCircle
 10
10650.52901126102
 20
29953.93039486841
 30
0.0
 40
74.82004648556214
100
AcDbArc
 50
337.6072935275908
 51
339.4867821436288
  0
ARC
  5
BC56
330
1F
100
AcDbEntity
  8
freecads.com
100
AcDbCircle
 10
10663.86862226937
 20
29948.4341645002
 30
0.0
 40
60.39251134909668
100
AcDbArc
 50
335.4003510604006
 51
337.6073162666199
  0
ARC
  5
BC57
330
1F
100
AcDbEntity
  8
freecads.com
100
AcDbCircle
 10
10667.43949968722
 20
29946.7993016762
 30
0.0
 40
56.4651786682
100
AcDbArc
 50
333.4106461038702
 51
335.4003639427255
  0
ARC
  5
BC58
330
1F
100
AcDbEntity
  8
freecads.com
100
AcDbCircle
 10
10714.0932975006
 20
29923.44765390986
 30
0.0
 40
4.293574285984822
100
AcDbArc
 50
320.3097925558258
 51
333.4107370799889
  0
ARC
  5
BC59
330
1F
100
AcDbEntity
  8
freecads.com
100
AcDbCircle
 10
10720.00621234979
 20
29918.54037047655
 30
0.0
 40
3.390434609684976
100
AcDbArc
 50
140.3098725121223
 51
151.2834753425813
  0
ARC
  5
BC5A
330
1F
100
AcDbEntity
  8
freecads.com
100
AcDbCircle
 10
10719.05337873868
 20
29919.06238603752
 30
0.0
 40
2.303976080175306
100
AcDbArc
 50
151.2834134789388
 51
165.94165516806
  0
ARC
  5
BC5B
330
1F
100
AcDbEntity
  8
freecads.com
100
AcDbCircle
 10
10718.27451118624
 20
29919.25742453083
 30
0.0
 40
1.501059722067229
100
AcDbArc
 50
165.9417423740284
 51
184.2180706007268
  0
ARC
  5
BC5C
330
1F
100
AcDbEntity
  8
freecads.com
100
AcDbCircle
 10
10717.28731727974
 20
29919.18461671257
 30
0.0
 40
0.5111845847773454
100
AcDbArc
 50
184.2180940157769
 51
225.0000234318293
  0
ARC
  5
BC5D
330
1F
100
AcDbEntity
  8
freecads.com
100
AcDbCircle
 10
10716.59112035549
 20
29918.48842042554
 30
0.0
 40
0.4733860969946048
100
AcDbArc
 50
343.4116132360383
 51
44.9999201611619
  0
ARC
  5
BC5E
330
1F
100
AcDbEntity
  8
freecads.com
100
AcDbCircle
 10
10686.31409810587
 20
29927.50773470235
 30
0.0
 40
32.06525382158385
100
AcDbArc
 50
340.3943219819725
 51
343.4115725820595
  0
ARC
  5
BC5F
330
1F
100
AcDbEntity
  8
freecads.com
100
AcDbCircle
 10
10689.69043708443
 20
29926.30513687135
 30
0.0
 40
28.48113517962032
100
AcDbArc
 50
336.1699640982408
 51
340.3942472518719
  0
ARC
  5
BC60
330
1F
100
AcDbEntity
  8
freecads.com
100
AcDbCircle
 10
10668.98694981886
 20
29935.44937594863
 30
0.0
 40
51.11410876367074
100
AcDbArc
 50
333.4435569197751
 51
336.1700198467998
  0
ARC
  5
BC61
330
1F
100
AcDbEntity
  8
freecads.com
100
AcDbCircle
 10
10766.50174191962
 20
29886.71029219766
 30
0.0
 40
57.90255493200909
100
AcDbArc
 50
153.4435573107762
 51
156.3308826485304
  0
ARC
  5
BC62
330
1F
100
AcDbEntity
  8
freecads.com
100
AcDbCircle
 10
10836.23223684896
 20
29856.14553225661
 30
0.0
 40
134.0376091011951
100
AcDbArc
 50
156.3308710901268
 51
157.8727918431752
  0
ARC
  5
BC63
330
1F
100
AcDbEntity
  8
freecads.com
100
AcDbCircle
 10
10839.62884045028
 20
29854.76448040934
 30
0.0
 40
137.7042451927179
100
AcDbArc
 50
157.8728092321533
 51
159.406708937185
  0
ARC
  5
BC64
330
1F
100
AcDbEntity
  8
freecads.com
100
AcDbCircle
 10
10782.55326172343
 20
29876.2101225391
 30
0.0
 40
76.73263496827551
100
AcDbArc
 50
159.4066876295186
 51
161.7832313775846
  0
ARC
  5
BC65
330
1F
100
AcDbEntity
  8
freecads.com
100
AcDbCircle
 10
10648.50054142304
 20
29920.32794205729
 30
0.0
 40
64.39324436990283
100
AcDbArc
 50
338.4941792024398
 51
341.7831895018526
  0
ARC
  5
BC66
330
1F
100
AcDbEntity
  8
freecads.com
100
AcDbCircle
 10
10695.61420985087
 20
29901.76384899003
 30
0.0
 40
13.75409642943145
100
AcDbArc
 50
328.1563141956741
 51
338.4941646753139
  0
ARC
  5
BC67
330
1F
100
AcDbEntity
  8
freecads.com
100
AcDbCircle
 10
10701.03402568804
 20
29898.39768914111
 30
0.0
 40
7.374015251479507
100
AcDbArc
 50
313.1304571771342
 51
328.1563664851391
  0
ARC
  5
BC68
330
1F
100
AcDbEntity
  8
freecads.com
100
AcDbCircle
 10
10701.35511676339
 20
29898.05492537639
 30
0.0
 40
6.904348904949204
100
AcDbArc
 50
297.3443771772448
 51
313.1304784604386
  0
ARC
  5
BC69
330
1F
100
AcDbEntity
  8
freecads.com
100
AcDbCircle
 10
10710.55499284894
 20
29880.26429385477
 30
0.0
 40
13.12423791308598
100
AcDbArc
 50
117.3443357458468
 51
122.9762936473544
  0
ARC
  5
BC6A
330
1F
100
AcDbEntity
  8
freecads.com
100
AcDbCircle
 10
10708.33347108708
 20
29883.68822983391
 30
0.0
 40
9.042755764698378
100
AcDbArc
 50
122.9762653931451
 51
130.4218669737766
  0
ARC
  5
BC6B
330
1F
100
AcDbEntity
  8
freecads.com
100
AcDbCircle
 10
10706.97363574735
 20
29885.28480224811
 30
0.0
 40
6.945568213493068
100
AcDbArc
 50
130.4219003423879
 51
138.2200536418868
  0
ARC
  5
BC6C
330
1F
100
AcDbEntity
  8
freecads.com
100
AcDbCircle
 10
10702.32082773337
 20
29889.44196316264
 30
0.0
 40
0.7061283921357193
100
AcDbArc
 50
138.2200444163343
 51
179.9999743780361
  0
ARC
  5
BC6D
330
1F
100
AcDbEntity
  8
freecads.com
100
AcDbCircle
 10
10701.08699307981
 20
29889.44196336572
 30
0.0
 40
0.5277062614262725
100
AcDbArc
 50
315.1392205120443
 51
0.0000122350599335
  0
ARC
  5
BC6E
330
1F
100
AcDbEntity
  8
freecads.com
100
AcDbCircle
 10
10700.32428000714
 20
29890.2009756603
 30
0.0
 40
1.603731769730919
100
AcDbArc
 50
295.5313934172409
 51
315.1393012711288
  0
ARC
  5
BC6F
330
1F
100
AcDbEntity
  8
freecads.com
100
AcDbCircle
 10
10699.87307496394
 20
29891.14563710473
 30
0.0
 40
2.650618217989003
100
AcDbArc
 50
280.489526353185
 51
295.5311813478875
  0
ARC
  5
BC70
330
1F
100
AcDbEntity
  8
freecads.com
100
AcDbCircle
 10
10699.57485483792
 20
29892.75631318132
 30
0.0
 40
4.288669702909519
100
AcDbArc
 50
270.0000868829327
 51
280.4895722630975
  0
ARC
  5
BC71
330
1F
100
AcDbEntity
  8
freecads.com
100
AcDbCircle
 10
10699.57485972206
 20
29884.24194351157
 30
0.0
 40
4.225699966846005
100
AcDbArc
 50
89.99997804586518
 51
104.3080550401044
  0
ARC
  5
BC72
330
1F
100
AcDbEntity
  8
freecads.com
100
AcDbCircle
 10
10703.91901943505
 20
29867.20911598705
 30
0.0
 40
21.80378112185537
100
AcDbArc
 50
104.3080452384707
 51
108.5497403678976
  0
ARC
  5
BC73
330
1F
100
AcDbEntity
  8
freecads.com
100
AcDbCircle
 10
10704.97706945126
 20
29864.05608924914
 30
0.0
 40
25.12959642738609
100
AcDbArc
 50
108.5497780855632
 51
112.7348841157771
  0
ARC
  5
BC74
330
1F
100
AcDbEntity
  8
freecads.com
100
AcDbCircle
 10
10704.6496950722
 20
29864.8373107065
 30
0.0
 40
24.28255395558527
100
AcDbArc
 50
112.7348332962927
 51
117.0289931610671
  0
ARC
  5
BC75
330
1F
100
AcDbEntity
  8
freecads.com
100
AcDbCircle
 10
10676.88461724509
 20
29919.261242989
 30
0.0
 40
36.81461416073908
100
AcDbArc
 50
294.2741163883285
 51
297.0289939581968
  0
ARC
  5
BC76
330
1F
100
AcDbEntity
  8
freecads.com
100
AcDbCircle
 10
10679.66934357902
 20
29913.08630563831
 30
0.0
 40
30.04080046093231
100
AcDbArc
 50
291.0655457468968
 51
294.2741289363084
  0
ARC
  5
BC77
330
1F
100
AcDbEntity
  8
freecads.com
100
AcDbCircle
 10
10680.70075747879
 20
29910.40862236673
 30
0.0
 40
27.17134017464229
100
AcDbArc
 50
288.0775636941083
 51
291.0654838900033
  0
ARC
  5
BC78
330
1F
100
AcDbEntity
  8
freecads.com
100
AcDbCircle
 10
10688.39189781018
 20
29886.84632361677
 30
0.0
 40
2.385546623103324
100
AcDbArc
 50
270.3035761973957
 51
288.0774475902167
  0
ARC
  5
BC79
330
1F
100
AcDbEntity
  8
freecads.com
100
AcDbCircle
 10
10688.4103670138
 20
29883.36060501717
 30
0.0
 40
1.100220906010221
100
AcDbArc
 50
90.30359102889855
 51
126.0092086834932
  0
ARC
  5
BC7A
330
1F
100
AcDbEntity
  8
freecads.com
100
AcDbCircle
 10
10693.46458079498
 20
29876.40645680825
 30
0.0
 40
9.697037424792814
100
AcDbArc
 50
126.0093114130988
 51
133.2133717242381
  0
ARC
  5
BC7B
330
1F
100
AcDbEntity
  8
freecads.com
100
AcDbCircle
 10
10695.20501680135
 20
29874.55394319704
 30
0.0
 40
12.23887222901447
100
AcDbArc
 50
133.2133586183652
 51
140.1836466785654
  0
ARC
  5
BC7C
330
1F
100
AcDbEntity
  8
freecads.com
100
AcDbCircle
 10
10698.48851198747
 20
29871.81663800371
 30
0.0
 40
16.51370326177688
100
AcDbArc
 50
140.1836146094201
 51
145.7518976384053
  0
ARC
  5
BC7D
330
1F
100
AcDbEntity
  8
freecads.com
100
AcDbCircle
 10
10659.06878285509
 20
29898.65466880056
 30
0.0
 40
31.17481676058418
100
AcDbArc
 50
322.4825879341314
 51
325.7518925200323
  0
ARC
  5
BC7E
330
1F
100
AcDbEntity
  8
freecads.com
100
AcDbCircle
 10
10643.80357565014
 20
29910.37544850044
 30
0.0
 40
50.4206793752709
100
AcDbArc
 50
320.202060184366
 51
322.4825861195593
  0
ARC
  5
BC7F
330
1F
100
AcDbEntity
  8
freecads.com
100
AcDbCircle
 10
10645.69333819059
 20
29908.80099480149
 30
0.0
 40
47.9609828684391
100
AcDbArc
 50
317.8993773237535
 51
320.2021317988907
  0
ARC
  5
BC80
330
1F
100
AcDbEntity
  8
freecads.com
100
AcDbCircle
 10
10667.54404955361
 20
29889.05692427636
 30
0.0
 40
18.51133248051143
100
AcDbArc
 50
313.211875885644
 51
317.8993919943504
  0
LINE
  5
BC81
330
1F
100
AcDbEntity
  8
freecads.com
100
AcDbLine
 10
10680.21872534123
 20
29875.56537047841
 30
0.0
 11
10677.87585734123
 21
29873.36436047841
 31
0.0
  0
LINE
  5
BC82
330
1F
100
AcDbEntity
  8
freecads.com
100
AcDbLine
 10
10677.87585734123
 20
29873.36436047841
 30
0.0
 11
10677.42455234123
 21
29884.31792247841
 31
0.0
  0
ARC
  5
BC83
330
1F
100
AcDbEntity
  8
freecads.com
100
AcDbCircle
 10
10538.58891976528
 20
29878.59768291622
 30
0.0
 40
138.953423899573
100
AcDbArc
 50
2.359338959149074
 51
5.881835266772229
  0
ARC
  5
BC84
330
1F
100
AcDbEntity
  8
freecads.com
100
AcDbCircle
 10
10662.48791076686
 20
29891.36169202893
 30
0.0
 40
14.39869737408528
100
AcDbArc
 50
5.881865651704097
 51
24.51090204879476
  0
ARC
  5
BC85
330
1F
100
AcDbEntity
  8
freecads.com
100
AcDbCircle
 10
10671.13631535506
 20
29895.30497569364
 30
0.0
 40
4.893730883806376
100
AcDbArc
 50
24.51099689094029
 51
61.91713873701969
  0
ARC
  5
BC86
330
1F
100
AcDbEntity
  8
freecads.com
100
AcDbCircle
 10
10670.06096974668
 20
29893.28955661806
 30
0.0
 40
7.178086860352223
100
AcDbArc
 50
61.91723264892214
 51
89.99996332608633
  0
ARC
  5
BC87
330
1F
100
AcDbEntity
  8
freecads.com
100
AcDbCircle
 10
10670.0609756023
 20
29890.30922018451
 30
0.0
 40
10.15842329389883
100
AcDbArc
 50
90.00000711273072
 51
113.1740796528321
  0
ARC
  5
BC88
330
1F
100
AcDbEntity
  8
freecads.com
100
AcDbCircle
 10
10695.72029687712
 20
29830.36653129086
 30
0.0
 40
75.36215570306071
100
AcDbArc
 50
113.1740412620071
 51
118.461503397997
  0
ARC
  5
BC89
330
1F
100
AcDbEntity
  8
freecads.com
100
AcDbCircle
 10
10705.45572122743
 20
29812.40722868155
 30
0.0
 40
95.79044582952228
100
AcDbArc
 50
118.4614702390291
 51
123.5285707245328
  0
ARC
  5
BC8A
330
1F
100
AcDbEntity
  8
freecads.com
100
AcDbCircle
 10
10729.7824693867
 20
29775.69361981895
 30
0.0
 40
139.8322413390225
100
AcDbArc
 50
123.5286404672068
 51
127.3448741825879
  0
ARC
  5
BC8B
330
1F
100
AcDbEntity
  8
freecads.com
100
AcDbCircle
 10
10736.12741933356
 20
29767.37850697344
 30
0.0
 40
150.2916625194584
100
AcDbArc
 50
127.3449449571451
 51
129.6183669171087
  0
ARC
  5
BC8C
330
1F
100
AcDbEntity
  8
freecads.com
100
AcDbCircle
 10
10649.7309373175
 20
29871.74578861733
 30
0.0
 40
14.80409267451768
100
AcDbArc
 50
129.618397365153
 51
142.0828223664932
  0
ARC
  5
BC8D
330
1F
100
AcDbEntity
  8
freecads.com
100
AcDbCircle
 10
10642.97592522633
 20
29877.00766914593
 30
0.0
 40
6.241524423752276
100
AcDbArc
 50
142.0827775306541
 51
163.8767892982526
  0
ARC
  5
BC8E
330
1F
100
AcDbEntity
  8
freecads.com
100
AcDbCircle
 10
10646.14045152177
 20
29876.09288732674
 30
0.0
 40
9.535617994263118
100
AcDbArc
 50
163.8767932500558
 51
179.7418143874988
  0
ARC
  5
BC8F
330
1F
100
AcDbEntity
  8
freecads.com
100
AcDbCircle
 10
10632.02389928523
 20
29876.15649117249
 30
0.0
 40
4.581077529000967
100
AcDbArc
 50
344.9289335601664
 51
359.7419199146591
  0
ARC
  5
BC90
330
1F
100
AcDbEntity
  8
freecads.com
100
AcDbCircle
 10
10602.86052098329
 20
29884.00958831009
 30
0.0
 40
34.78329216028664
100
AcDbArc
 50
341.6050773637475
 51
344.9289162468576
  0
ARC
  5
BC91
330
1F
100
AcDbEntity
  8
freecads.com
100
AcDbCircle
 10
10598.20889295938
 20
29885.55650911943
 30
0.0
 40
39.68539449122943
100
AcDbArc
 50
338.2104526420144
 51
341.6050938944199
  0
ARC
  5
BC92
330
1F
100
AcDbEntity
  8
freecads.com
100
AcDbCircle
 10
10594.74615250583
 20
29886.94083522714
 30
0.0
 40
43.41459416652263
100
AcDbArc
 50
335.0368523512925
 51
338.2103773211946
  0
ARC
  5
BC93
330
1F
100
AcDbEntity
  8
freecads.com
100
AcDbCircle
 10
10659.13991310302
 20
29856.96392229149
 30
0.0
 40
27.61477801851309
100
AcDbArc
 50
155.036818783202
 51
164.2326660421636
  0
ARC
  5
BC94
330
1F
100
AcDbEntity
  8
freecads.com
100
AcDbCircle
 10
10657.87922281307
 20
29857.31985001621
 30
0.0
 40
26.30480681608942
100
AcDbArc
 50
164.2325916615039
 51
173.7698092455369
  0
ARC
  5
BC95
330
1F
100
AcDbEntity
  8
freecads.com
100
AcDbCircle
 10
10652.38133360624
 20
29857.9200417861
 30
0.0
 40
20.77425386985173
100
AcDbArc
 50
173.7698051941116
 51
183.7217809317198
  0
ARC
  5
BC96
330
1F
100
AcDbEntity
  8
freecads.com
100
AcDbCircle
 10
10633.68785925335
 20
29856.70405327921
 30
0.0
 40
2.041271954761147
100
AcDbArc
 50
183.7217935707134
 51
238.2825342598405
  0
ARC
  5
BC97
330
1F
100
AcDbEntity
  8
freecads.com
100
AcDbCircle
 10
10632.15552440149
 20
29854.22468094783
 30
0.0
 40
0.8734042289434622
100
AcDbArc
 50
12.97080430278684
 51
58.28259012640188
  0
ARC
  5
BC98
330
1F
100
AcDbEntity
  8
freecads.com
100
AcDbCircle
 10
10611.53547088415
 20
29849.47520627994
 30
0.0
 40
22.03336917879246
100
AcDbArc
 50
8.602710916860878
 51
12.97087049328135
  0
ARC
  5
BC99
330
1F
100
AcDbEntity
  8
freecads.com
100
AcDbCircle
 10
10609.87339396211
 20
29849.22375661758
 30
0.0
 40
23.71435895492722
100
AcDbArc
 50
3.564024216715912
 51
8.60271980745815
  0
ARC
  5
BC9A
330
1F
100
AcDbEntity
  8
freecads.com
100
AcDbCircle
 10
10595.96629930594
 20
29848.35760475174
 30
0.0
 40
37.64840003529801
100
AcDbArc
 50
359.9999919746111
 51
3.563960512387983
  0
ARC
  5
BC9B
330
1F
100
AcDbEntity
  8
freecads.com
100
AcDbCircle
 10
10729.37725343059
 20
29848.35760710193
 30
0.0
 40
95.76255408935828
100
AcDbArc
 50
180.0000045613107
 51
182.2965717151674
  0
ARC
  5
BC9C
330
1F
100
AcDbEntity
  8
freecads.com
100
AcDbCircle
 10
10637.76403002862
 20
29844.68352531902
 30
0.0
 40
4.075687096058134
100
AcDbArc
 50
182.2964997317148
 51
204.9879645718155
  0
ARC
  5
BC9D
330
1F
100
AcDbEntity
  8
freecads.com
100
AcDbCircle
 10
10636.11794316988
 20
29843.91635911763
 30
0.0
 40
2.25960727209335
100
AcDbArc
 50
204.9878677818834
 51
239.7001896929824
  0
ARC
  5
BC9E
330
1F
100
AcDbEntity
  8
freecads.com
100
AcDbCircle
 10
10643.9013427874
 20
29857.23616995084
 30
0.0
 40
17.68681279475595
100
AcDbArc
 50
239.7002183139489
 51
247.3234738427438
  0
ARC
  5
BC9F
330
1F
100
AcDbEntity
  8
freecads.com
100
AcDbCircle
 10
10645.18548871653
 20
29860.30961693156
 30
0.0
 40
21.01774466289256
100
AcDbArc
 50
247.3235380680774
 51
251.6385462398845
  0
ARC
  5
BCA0
330
1F
100
AcDbEntity
  8
freecads.com
100
AcDbCircle
 10
10646.44705729431
 20
29864.11053728849
 30
0.0
 40
25.02256061821898
100
AcDbArc
 50
251.6385242917944
 51
255.4245141565047
  0
ARC
  5
BCA1
330
1F
100
AcDbEntity
  8
freecads.com
100
AcDbCircle
 10
10645.7452632268
 20
29861.41162184363
 30
0.0
 40
22.233894361468
100
AcDbArc
 50
255.4245445884734
 51
259.2806449945219
  0
ARC
  5
BCA2
330
1F
100
AcDbEntity
  8
freecads.com
100
AcDbCircle
 10
10642.65506167752
 20
29845.08742025985
 30
0.0
 40
5.619776781430203
100
AcDbArc
 50
259.2806443628921
 51
269.9999659852703
  0
ARC
  5
BCA3
330
1F
100
AcDbEntity
  8
freecads.com
100
AcDbCircle
 10
10642.6550601124
 20
29837.96076260201
 30
0.0
 40
1.506880876404824
100
AcDbArc
 50
49.58787895388764
 51
90.00006734473139
  0
ARC
  5
BCA4
330
1F
100
AcDbEntity
  8
freecads.com
100
AcDbCircle
 10
10643.25695105661
 20
29838.6676787925
 30
0.0
 40
0.5784395971053457
100
AcDbArc
 50
328.19204929259
 51
49.58789339344635
  0
ARC
  5
BCA5
330
1F
100
AcDbEntity
  8
freecads.com
100
AcDbCircle
 10
10629.684343567
 20
29847.08562193969
 30
0.0
 40
16.5495836042326
100
AcDbArc
 50
320.3406695371902
 51
328.1921602794535
  0
ARC
  5
BCA6
330
1F
100
AcDbEntity
  8
freecads.com
100
AcDbCircle
 10
8670.718532173481
 20
31471.10335692632
 30
0.0
 40
2561.147912173948
100
AcDbArc
 50
320.1215614471599
 51
320.3406604411843
  0
ARC
  5
BCA7
330
1F
100
AcDbEntity
  8
freecads.com
100
AcDbCircle
 10
10673.86839951248
 20
29797.49050300188
 30
0.0
 40
49.13739327474125
100
AcDbArc
 50
140.1215465949191
 51
144.5307149081805
  0
ARC
  5
BCA8
330
1F
100
AcDbEntity
  8
freecads.com
100
AcDbCircle
 10
10640.8278421432
 20
29821.03138668465
 30
0.0
 40
8.568296219988825
100
AcDbArc
 50
144.5306983827214
 51
160.5863888976698
  0
ARC
  5
BCA9
330
1F
100
AcDbEntity
  8
freecads.com
100
AcDbCircle
 10
10642.4399344565
 20
29820.46322886264
 30
0.0
 40
10.27757821456932
100
AcDbArc
 50
160.5862837062963
 51
174.7626320671622
  0
ARC
  5
BCAA
330
1F
100
AcDbEntity
  8
freecads.com
100
AcDbCircle
 10
10719.03754776576
 20
29813.44184306386
 30
0.0
 40
87.19632900532303
100
AcDbArc
 50
174.7625773056139
 51
177.7007730774743
  0
ARC
  5
BCAB
330
1F
100
AcDbEntity
  8
freecads.com
100
AcDbCircle
 10
10739.61589601289
 20
29812.61552499722
 30
0.0
 40
107.7912608605521
100
AcDbArc
 50
177.7007282893773
 51
179.9966079631378
  0
ARC
  5
BCAC
330
1F
100
AcDbEntity
  8
freecads.com
100
AcDbCircle
 10
10642.61599722936
 20
29812.62126131684
 30
0.0
 40
10.79136190741815
100
AcDbArc
 50
179.9965745717503
 51
192.4397484180437
  0
ARC
  5
BCAD
330
1F
100
AcDbEntity
  8
freecads.com
100
AcDbCircle
 10
10637.8115385131
 20
29811.56143354509
 30
0.0
 40
5.87139661668385
100
AcDbArc
 50
192.4397073355546
 51
211.0805826370321
  0
ARC
  5
BCAE
330
1F
100
AcDbEntity
  8
freecads.com
100
AcDbCircle
 10
10646.12414658967
 20
29816.57208710417
 30
0.0
 40
15.57737941719548
100
AcDbArc
 50
211.0806117722924
 51
220.078756646197
  0
ARC
  5
BCAF
330
1F
100
AcDbEntity
  8
freecads.com
100
AcDbCircle
 10
10646.41003272364
 20
29816.81264262224
 30
0.0
 40
15.95100735896072
100
AcDbArc
 50
220.0787515393154
 51
227.6811744079139
  0
ARC
  5
BCB0
330
1F
100
AcDbEntity
  8
freecads.com
100
AcDbCircle
 10
10639.56348721694
 20
29809.29333788002
 30
0.0
 40
5.781684412892675
100
AcDbArc
 50
227.6810797263669
 51
243.8927559143251
  0
ARC
  5
BCB1
330
1F
100
AcDbEntity
  8
freecads.com
100
AcDbCircle
 10
10639.37336018229
 20
29808.90536563173
 30
0.0
 40
5.349630301994801
100
AcDbArc
 50
243.8927613253128
 51
260.8975849414015
  0
ARC
  5
BCB2
330
1F
100
AcDbEntity
  8
freecads.com
100
AcDbCircle
 10
10640.48001524632
 20
29815.8125042493
 30
0.0
 40
12.34486077089104
100
AcDbArc
 50
260.8975295177265
 51
270.0000190055308
  0
LINE
  5
BCB3
330
1F
100
AcDbEntity
  8
freecads.com
100
AcDbLine
 10
10640.48001934123
 20
29803.46764347841
 30
0.0
 11
10644.16755134123
 21
29803.46764347841
 31
0.0
  0
LINE
  5
BCB4
330
1F
100
AcDbEntity
  8
freecads.com
100
AcDbLine
 10
10644.16755134123
 20
29803.46764347841
 30
0.0
 11
10643.78482234123
 21
29799.45435447842
 31
0.0
  0
ARC
  5
BCB5
330
1F
100
AcDbEntity
  8
freecads.com
100
AcDbCircle
 10
10658.37078222095
 20
29798.06337456733
 30
0.0
 40
14.65213468153523
100
AcDbArc
 50
174.5525018287415
 51
181.9301071855567
  0
ARC
  5
BCB6
330
1F
100
AcDbEntity
  8
freecads.com
100
AcDbCircle
 10
10654.82609187727
 20
29797.9439224886
 30
0.0
 40
11.10543220857792
100
AcDbArc
 50
181.9301181167692
 51
191.0115559235961
  0
ARC
  5
BCB7
330
1F
100
AcDbEntity
  8
freecads.com
100
AcDbCircle
 10
10653.23809150619
 20
29797.63490542465
 30
0.0
 40
9.487644606851127
100
AcDbArc
 50
191.0115045630139
 51
200.8557362746278
  0
ARC
  5
BCB8
330
1F
100
AcDbEntity
  8
freecads.com
100
AcDbCircle
 10
10650.90386879638
 20
29796.74561557824
 30
0.0
 40
6.989759083072585
100
AcDbArc
 50
200.8557170142474
 51
213.2337650204286
  0
ARC
  5
BCB9
330
1F
100
AcDbEntity
  8
freecads.com
100
AcDbCircle
 10
10654.48201649305
 20
29799.09010645624
 30
0.0
 40
11.26758311127273
100
AcDbArc
 50
213.2337815230095
 51
251.0097774066645
  0
ARC
  5
BCBA
330
1F
100
AcDbEntity
  8
freecads.com
100
AcDbCircle
 10
10654.41989782993
 20
29798.90956243873
 30
0.0
 40
11.07665152559319
100
AcDbArc
 50
251.0097130037796
 51
289.2717044207671
  0
ARC
  5
BCBB
330
1F
100
AcDbEntity
  8
freecads.com
100
AcDbCircle
 10
10654.51330463438
 20
29798.64239358367
 30
0.0
 40
10.7936249752598
100
AcDbArc
 50
289.2717359946122
 51
328.1556509099127
  0
ARC
  5
BCBC
330
1F
100
AcDbEntity
  8
freecads.com
100
AcDbCircle
 10
10654.49916123969
 20
29798.65115990579
 30
0.0
 40
10.81026480038239
100
AcDbArc
 50
328.1557324817645
 51
6.99489344908765
  0
ARC
  5
BCBD
330
1F
100
AcDbEntity
  8
freecads.com
100
AcDbCircle
 10
10655.89024736102
 20
29798.82182774021
 30
0.0
 40
9.408748440668961
100
AcDbArc
 50
6.99495518729476
 51
27.47211786020268
  0
ARC
  5
BCBE
330
1F
100
AcDbEntity
  8
freecads.com
100
AcDbCircle
 10
10650.16486055238
 20
29795.84491803254
 30
0.0
 40
15.86181325641653
100
AcDbArc
 50
27.47212518918813
 51
41.32082372575641
  0
ARC
  5
BCBF
330
1F
100
AcDbEntity
  8
freecads.com
100
AcDbCircle
 10
10651.37452837721
 20
29796.90840040786
 30
0.0
 40
14.25113296260438
100
AcDbArc
 50
41.32087199780096
 51
55.77071221166102
  0
ARC
  5
BCC0
330
1F
100
AcDbEntity
  8
freecads.com
100
AcDbCircle
 10
10656.76326989416
 20
29804.8289779804
 30
0.0
 40
4.671253828750439
100
AcDbArc
 50
55.77073062562362
 51
88.94936157656905
  0
ARC
  5
BCC1
330
1F
100
AcDbEntity
  8
freecads.com
100
AcDbCircle
 10
10657.07134174932
 20
29821.62832780089
 30
0.0
 40
12.13092051444276
100
AcDbArc
 50
264.332012859151
 51
268.9494278308284
  0
ARC
  5
BCC2
330
1F
100
AcDbEntity
  8
freecads.com
100
AcDbCircle
 10
10655.89137041877
 20
29809.73932893499
 30
0.0
 40
0.1835096495678294
100
AcDbArc
 50
172.6263489784138
 51
264.3320212511473
  0
ARC
  5
BCC3
330
1F
100
AcDbEntity
  8
freecads.com
100
AcDbCircle
 10
10656.21628712289
 20
29809.69728264868
 30
0.0
 40
0.511135586889129
100
AcDbArc
 50
128.7895404302762
 51
172.6264704536299
  0
ARC
  5
BCC4
330
1F
100
AcDbEntity
  8
freecads.com
100
AcDbCircle
 10
10686.93049500834
 20
29771.48224007597
 30
0.0
 40
49.53920963498148
100
AcDbArc
 50
127.1092082555227
 51
128.7895487668736
  0
ARC
  5
BCC5
330
1F
100
AcDbEntity
  8
freecads.com
100
AcDbCircle
 10
10653.4231083824
 20
29815.77214991455
 30
0.0
 40
5.997634639878941
100
AcDbArc
 50
307.1092092998622
 51
324.3392050283821
  0
ARC
  5
BCC6
330
1F
100
AcDbEntity
  8
freecads.com
100
AcDbCircle
 10
10657.79365740502
 20
29812.63612420587
 30
0.0
 40
0.6183822750469986
100
AcDbArc
 50
324.3392177077229
 51
54.31797991826076
  0
ARC
  5
BCC7
330
1F
100
AcDbEntity
  8
freecads.com
100
AcDbCircle
 10
10657.19489067051
 20
29811.80229823227
 30
0.0
 40
1.64492372896836
100
AcDbArc
 50
54.31801751731414
 51
101.1993124204994
  0
ARC
  5
BCC8
330
1F
100
AcDbEntity
  8
freecads.com
100
AcDbCircle
 10
10659.68505621592
 20
29799.22528506498
 30
0.0
 40
14.46608532429873
100
AcDbArc
 50
101.1993385503804
 51
110.6793589248681
  0
ARC
  5
BCC9
330
1F
100
AcDbEntity
  8
freecads.com
100
AcDbCircle
 10
10647.30025443417
 20
29832.03641988429
 30
0.0
 40
20.60461303350393
100
AcDbArc
 50
284.1034143475456
 51
290.6793937665362
  0
ARC
  5
BCCA
330
1F
100
AcDbEntity
  8
freecads.com
100
AcDbCircle
 10
10652.21499564293
 20
29812.47495111885
 30
0.0
 40
0.4351871266946241
100
AcDbArc
 50
181.1706035941887
 51
284.1033368770805
  0
ARC
  5
BCCB
330
1F
100
AcDbEntity
  8
freecads.com
100
AcDbCircle
 10
10653.52659943195
 20
29812.5017508506
 30
0.0
 40
1.747064683856498
100
AcDbArc
 50
142.241229618158
 51
181.1705633892341
  0
ARC
  5
BCCC
330
1F
100
AcDbEntity
  8
freecads.com
100
AcDbCircle
 10
10733.28711812912
 20
29750.72505877919
 30
0.0
 40
102.6336347818036
100
AcDbArc
 50
140.1435887390072
 51
142.2412432409892
  0
LINE
  5
BCCD
330
1F
100
AcDbEntity
  8
freecads.com
100
AcDbLine
 10
10654.50010834123
 20
29816.49944647841
 30
0.0
 11
10657.38551734123
 21
29819.95570047841
 31
0.0
  0
LINE
  5
BCCE
330
1F
100
AcDbEntity
  8
freecads.com
100
AcDbLine
 10
10657.38551734123
 20
29819.95570047841
 30
0.0
 11
10662.45726734123
 21
29815.21167247842
 31
0.0
  0
ARC
  5
BCCF
330
1F
100
AcDbEntity
  8
freecads.com
100
AcDbCircle
 10
10716.68803090447
 20
29873.18866590165
 30
0.0
 40
79.38707377809712
100
AcDbArc
 50
226.912198119047
 51
229.9321984393742
  0
ARC
  5
BCD0
330
1F
100
AcDbEntity
  8
freecads.com
100
AcDbCircle
 10
10671.20771300194
 20
29819.11740862453
 30
0.0
 40
8.731853305417821
100
AcDbArc
 50
229.9321984868532
 51
245.2399111430416
  0
ARC
  5
BCD1
330
1F
100
AcDbEntity
  8
freecads.com
100
AcDbCircle
 10
10670.24548530363
 20
29817.03115361908
 30
0.0
 40
6.434389031236643
100
AcDbArc
 50
245.2399556367054
 51
264.0811664587946
  0
ARC
  5
BCD2
330
1F
100
AcDbEntity
  8
freecads.com
100
AcDbCircle
 10
10672.74308498941
 20
29841.12222577681
 30
0.0
 40
30.65458229841808
100
AcDbArc
 50
264.0811184829966
 51
270.0000604680599
  0
ARC
  5
BCD3
330
1F
100
AcDbEntity
  8
freecads.com
100
AcDbCircle
 10
10672.74311873622
 20
29834.81965985533
 30
0.0
 40
24.35201637691857
100
AcDbArc
 50
269.9999967178907
 51
275.1399413005783
  0
ARC
  5
BCD4
330
1F
100
AcDbEntity
  8
freecads.com
100
AcDbCircle
 10
10673.30257010749
 20
29828.59979213606
 30
0.0
 40
18.10703917271584
100
AcDbArc
 50
275.1400287799034
 51
281.5584569099539
  0
ARC
  5
BCD5
330
1F
100
AcDbEntity
  8
freecads.com
100
AcDbCircle
 10
10674.13247061365
 20
29824.54191331728
 30
0.0
 40
13.96516576107527
100
AcDbArc
 50
281.558443452344
 51
288.5257548859026
  0
ARC
  5
BCD6
330
1F
100
AcDbEntity
  8
freecads.com
100
AcDbCircle
 10
10677.67420166979
 20
29813.97259160767
 30
0.0
 40
2.818219081597139
100
AcDbArc
 50
288.5257201043108
 51
311.3467625419373
  0
ARC
  5
BCD7
330
1F
100
AcDbEntity
  8
freecads.com
100
AcDbCircle
 10
10681.85889143305
 20
29809.21708438245
 30
0.0
 40
3.516327262372762
100
AcDbArc
 50
97.74222333193392
 51
131.3466749361909
  0
ARC
  5
BCD8
330
1F
100
AcDbEntity
  8
freecads.com
100
AcDbCircle
 10
10681.89590136302
 20
29808.9448232444
 30
0.0
 40
3.791092366020128
100
AcDbArc
 50
65.97879283089787
 51
97.74214025707438
  0
ARC
  5
BCD9
330
1F
100
AcDbEntity
  8
freecads.com
100
AcDbCircle
 10
10681.9090894613
 20
29808.97442673184
 30
0.0
 40
3.758684151306775
100
AcDbArc
 50
34.05060237887243
 51
65.97871827098984
  0
ARC
  5
BCDA
330
1F
100
AcDbEntity
  8
freecads.com
100
AcDbCircle
 10
10682.16556933917
 20
29809.14775256247
 30
0.0
 40
3.449130002063651
100
AcDbArc
 50
359.9999653802707
 51
34.05062718187963
  0
ARC
  5
BCDB
330
1F
100
AcDbEntity
  8
freecads.com
100
AcDbCircle
 10
10692.57631360876
 20
29809.14775401453
 30
0.0
 40
6.961614267530069
100
AcDbArc
 50
180.0000291031342
 51
204.8875116903897
  0
ARC
  5
BCDC
330
1F
100
AcDbEntity
  8
freecads.com
100
AcDbCircle
 10
10700.55906459797
 20
29812.85110817259
 30
0.0
 40
15.76156570919917
100
AcDbArc
 50
204.8875088633828
 51
218.4002789604504
  0
ARC
  5
BCDD
330
1F
100
AcDbEntity
  8
freecads.com
100
AcDbCircle
 10
10701.60047911237
 20
29813.67652576444
 30
0.0
 40
17.09042175547176
100
AcDbArc
 50
218.4002641505116
 51
231.4584908679402
  0
ARC
  5
BCDE
330
1F
100
AcDbEntity
  8
freecads.com
100
AcDbCircle
 10
10698.04535864891
 20
29809.21375396551
 30
0.0
 40
11.3847041284801
100
AcDbArc
 50
231.4584500114106
 51
249.1630663123409
  0
ARC
  5
BCDF
330
1F
100
AcDbEntity
  8
freecads.com
100
AcDbCircle
 10
10702.9052889002
 20
29821.98276592925
 30
0.0
 40
25.04730229198564
100
AcDbArc
 50
249.1630310267831
 51
254.5847211690601
  0
ARC
  5
BCE0
330
1F
100
AcDbEntity
  8
freecads.com
100
AcDbCircle
 10
10697.91686249988
 20
29803.89124910276
 30
0.0
 40
6.280646249033641
100
AcDbArc
 50
254.5847355075383
 51
269.7441363363588
  0
ARC
  5
BCE1
330
1F
100
AcDbEntity
  8
freecads.com
100
AcDbCircle
 10
10697.918376011
 20
29804.22933881809
 30
0.0
 40
6.618739352058649
100
AcDbArc
 50
269.7441042533476
 51
284.395270275402
  0
ARC
  5
BCE2
330
1F
100
AcDbEntity
  8
freecads.com
100
AcDbCircle
 10
10692.19881257683
 20
29826.51331255746
 30
0.0
 40
29.62501874475411
100
AcDbArc
 50
284.3952181880035
 51
289.2117089240668
  0
ARC
  5
BCE3
330
1F
100
AcDbEntity
  8
freecads.com
100
AcDbCircle
 10
10698.04472575413
 20
29809.73717708801
 30
0.0
 40
11.85950658872312
100
AcDbArc
 50
289.2117074609203
 51
306.7586652406526
  0
ARC
  5
BCE4
330
1F
100
AcDbEntity
  8
freecads.com
100
AcDbCircle
 10
10695.46565874712
 20
29813.18988195652
 30
0.0
 40
16.16911881439658
100
AcDbArc
 50
306.7586554551293
 51
320.6676367206587
  0
ARC
  5
BCE5
330
1F
100
AcDbEntity
  8
freecads.com
100
AcDbCircle
 10
10696.56059997616
 20
29812.29267456241
 30
0.0
 40
14.75353504693716
100
AcDbArc
 50
320.6675619254697
 51
335.169219431719
  0
ARC
  5
BCE6
330
1F
100
AcDbEntity
  8
freecads.com
100
AcDbCircle
 10
10703.42691077334
 20
29809.11552240651
 30
0.0
 40
7.187788567891219
100
AcDbArc
 50
335.1691741800076
 51
0.0000324581978566
  0
ARC
  5
BCE7
330
1F
100
AcDbEntity
  8
freecads.com
100
AcDbCircle
 10
10714.22746604911
 20
29809.11552762097
 30
0.0
 40
3.6127667078734
100
AcDbArc
 50
158.4351890567355
 51
180.0000181201783
  0
ARC
  5
BCE8
330
1F
100
AcDbEntity
  8
freecads.com
100
AcDbCircle
 10
10711.97945308886
 20
29810.00398342223
 30
0.0
 40
1.195554267847678
100
AcDbArc
 50
109.3274148785172
 51
158.4352424577879
  0
ARC
  5
BCE9
330
1F
100
AcDbEntity
  8
freecads.com
100
AcDbCircle
 10
10713.29055483516
 20
29806.2657851241
 30
0.0
 40
5.157007827498031
100
AcDbArc
 50
91.55759135886343
 51
109.3273622116558
  0
ARC
  5
BCEA
330
1F
100
AcDbEntity
  8
freecads.com
100
AcDbCircle
 10
10717.74857238175
 20
29642.31733045141
 30
0.0
 40
169.1660615715161
100
AcDbArc
 50
90.13001617325498
 51
91.55757935240805
  0
ARC
  5
BCEB
330
1F
100
AcDbEntity
  8
freecads.com
100
AcDbCircle
 10
10717.21379402437
 20
29878.0031118165
 30
0.0
 40
66.52032650715241
100
AcDbArc
 50
270.1299789949234
 51
272.4272336291355
  0
ARC
  5
BCEC
330
1F
100
AcDbEntity
  8
freecads.com
100
AcDbCircle
 10
10718.07741348828
 20
29857.62865630304
 30
0.0
 40
46.12757593133266
100
AcDbArc
 50
272.4272643484582
 51
275.4497852450228
  0
ARC
  5
BCED
330
1F
100
AcDbEntity
  8
freecads.com
100
AcDbCircle
 10
10717.96988811377
 20
29858.75571982391
 30
0.0
 40
47.25975696201579
100
AcDbArc
 50
275.4497832513495
 51
277.8927827554032
  0
ARC
  5
BCEE
330
1F
100
AcDbEntity
  8
freecads.com
100
AcDbCircle
 10
10724.20553253871
 20
29813.77625276014
 30
0.0
 40
1.850113506740473
100
AcDbArc
 50
277.8927086788461
 51
303.4712129058181
  0
ARC
  5
BCEF
330
1F
100
AcDbEntity
  8
freecads.com
100
AcDbCircle
 10
10724.5224651663
 20
29813.29689888814
 30
0.0
 40
1.275460198188592
100
AcDbArc
 50
303.4711582588268
 51
337.2947111698379
  0
ARC
  5
BCF0
330
1F
100
AcDbEntity
  8
freecads.com
100
AcDbCircle
 10
10710.0631762942
 20
29819.34692322139
 30
0.0
 40
16.9494459427209
100
AcDbArc
 50
337.2946972437542
 51
342.3952420025068
  0
ARC
  5
BCF1
330
1F
100
AcDbEntity
  8
freecads.com
100
AcDbCircle
 10
10707.44485992372
 20
29820.17774223932
 30
0.0
 40
19.69641533761436
100
AcDbArc
 50
342.3952397225067
 51
347.7521069007491
  0
ARC
  5
BCF2
330
1F
100
AcDbEntity
  8
freecads.com
100
AcDbCircle
 10
10699.92217129508
 20
29821.81083241718
 30
0.0
 40
27.39432594577181
100
AcDbArc
 50
347.7520169023388
 51
351.9352900786766
  0
ARC
  5
BCF3
330
1F
100
AcDbEntity
  8
freecads.com
100
AcDbCircle
 10
10758.03807441779
 20
29813.57622738532
 30
0.0
 40
31.30207015994372
100
AcDbArc
 50
167.5836180210846
 51
171.9352823840627
  0
ARC
  5
BCF4
330
1F
100
AcDbEntity
  8
freecads.com
100
AcDbCircle
 10
10806.19229339965
 20
29802.97456109751
 30
0.0
 40
80.60951517407058
100
AcDbArc
 50
165.4363461848392
 51
167.5837291579008
  0
ARC
  5
BCF5
330
1F
100
AcDbEntity
  8
freecads.com
100
AcDbCircle
 10
10810.06412495769
 20
29801.96863163963
 30
0.0
 40
84.60988686779071
100
AcDbArc
 50
163.308890425059
 51
165.4363362009481
  0
ARC
  5
BCF6
330
1F
100
AcDbEntity
  8
freecads.com
100
AcDbCircle
 10
10778.75965085164
 20
29811.35508902995
 30
0.0
 40
51.92845970503928
100
AcDbArc
 50
160.2421021467303
 51
163.3088475790673
  0
LINE
  5
BCF7
330
1F
100
AcDbEntity
  8
freecads.com
100
AcDbLine
 10
10729.88824934123
 20
29828.90932047841
 30
0.0
 11
10732.02245834123
 21
29834.85099747841
 31
0.0
  0
LINE
  5
BCF8
330
1F
100
AcDbEntity
  8
freecads.com
100
AcDbLine
 10
10732.02245834123
 20
29834.85099747841
 30
0.0
 11
10733.16042134123
 21
29828.40932047841
 31
0.0
  0
ARC
  5
BCF9
330
1F
100
AcDbEntity
  8
freecads.com
100
AcDbCircle
 10
10844.63445756347
 20
29848.1019393556
 30
0.0
 40
113.2000882946595
100
AcDbArc
 50
190.0183126182782
 51
191.3487056746799
  0
ARC
  5
BCFA
330
1F
100
AcDbEntity
  8
freecads.com
100
AcDbCircle
 10
10822.94273986128
 20
29843.74836133305
 30
0.0
 40
91.07579715418628
100
AcDbArc
 50
191.3487266306341
 51
192.914710504683
  0
ARC
  5
BCFB
330
1F
100
AcDbEntity
  8
freecads.com
100
AcDbCircle
 10
10818.53022170933
 20
29842.73663378439
 30
0.0
 40
86.54877726582741
100
AcDbArc
 50
192.9147533583921
 51
194.3049611012219
  0
ARC
  5
BCFC
330
1F
100
AcDbEntity
  8
freecads.com
100
AcDbCircle
 10
10740.65164371699
 20
29822.87845742348
 30
0.0
 40
6.178259795240957
100
AcDbArc
 50
194.3050137006968
 51
203.8749475545933
  0
ARC
  5
BCFD
330
1F
100
AcDbEntity
  8
freecads.com
100
AcDbCircle
 10
10733.09802085696
 20
29819.53510205644
 30
0.0
 40
2.082202868668887
100
AcDbArc
 50
347.6698607331518
 51
23.87497464392218
  0
ARC
  5
BCFE
330
1F
100
AcDbEntity
  8
freecads.com
100
AcDbCircle
 10
10732.66988501166
 20
29819.6286834778
 30
0.0
 40
2.520446846896615
100
AcDbArc
 50
316.288849058394
 51
347.6699325707497
  0
ARC
  5
BCFF
330
1F
100
AcDbEntity
  8
freecads.com
100
AcDbCircle
 10
10731.39635621039
 20
29820.84616879399
 30
0.0
 40
4.282305553716612
100
AcDbArc
 50
293.400182425138
 51
316.288844491174
  0
ARC
  5
BD00
330
1F
100
AcDbEntity
  8
freecads.com
100
AcDbCircle
 10
10729.42867513273
 20
29825.39320571768
 30
0.0
 40
9.236830113017282
100
AcDbArc
 50
280.5173215198924
 51
293.4000987670442
  0
ARC
  5
BD01
330
1F
100
AcDbEntity
  8
freecads.com
100
AcDbCircle
 10
10731.6555017447
 20
29813.39854565647
 30
0.0
 40
2.962785731088643
100
AcDbArc
 50
100.5172607431364
 51
116.1388956206327
  0
ARC
  5
BD02
330
1F
100
AcDbEntity
  8
freecads.com
100
AcDbCircle
 10
10731.53987237558
 20
29813.63418406817
 30
0.0
 40
2.700305994677972
100
AcDbArc
 50
116.1390312327408
 51
132.8860516802652
  0
ARC
  5
BD03
330
1F
100
AcDbEntity
  8
freecads.com
100
AcDbCircle
 10
10731.19730332594
 20
29814.00300883279
 30
0.0
 40
2.196932116967725
100
AcDbArc
 50
132.8859902936173
 51
151.5469004370034
  0
ARC
  5
BD04
330
1F
100
AcDbEntity
  8
freecads.com
100
AcDbCircle
 10
10730.3651511754
 20
29814.45394976471
 30
0.0
 40
1.250451834171848
100
AcDbArc
 50
151.5469314463512
 51
180.0000589383126
  0
ARC
  5
BD05
330
1F
100
AcDbEntity
  8
freecads.com
100
AcDbCircle
 10
10730.00502147282
 20
29814.45394877012
 30
0.0
 40
0.8903221315866199
100
AcDbArc
 50
180.0000187728066
 51
236.8011170630032
  0
ARC
  5
BD06
330
1F
100
AcDbEntity
  8
freecads.com
100
AcDbCircle
 10
10731.75778924879
 20
29817.13257947713
 30
0.0
 40
4.091455890272217
100
AcDbArc
 50
236.801169284289
 51
255.1663089684217
  0
ARC
  5
BD07
330
1F
100
AcDbEntity
  8
freecads.com
100
AcDbCircle
 10
10734.29508814121
 20
29826.71299437109
 30
0.0
 40
14.00216904371716
100
AcDbArc
 50
255.1662439985522
 51
264.1721690825335
  0
ARC
  5
BD08
330
1F
100
AcDbEntity
  8
freecads.com
100
AcDbCircle
 10
10743.72112177802
 20
29919.06379783685
 30
0.0
 40
106.8327728922968
100
AcDbArc
 50
264.1721384355014
 51
266.1859186659377
  0
ARC
  5
BD09
330
1F
100
AcDbEntity
  8
freecads.com
100
AcDbCircle
 10
10733.54279354138
 20
29766.38893255744
 30
0.0
 40
46.18099398434268
100
AcDbArc
 50
82.31746261303893
 51
86.18593539294657
  0
ARC
  5
BD0A
330
1F
100
AcDbEntity
  8
freecads.com
100
AcDbCircle
 10
10733.47835084382
 20
29765.91102896255
 30
0.0
 40
46.66322287886448
100
AcDbArc
 50
78.47903365009762
 51
82.31749192846223
  0
ARC
  5
BD0B
330
1F
100
AcDbEntity
  8
freecads.com
100
AcDbCircle
 10
10734.73624197059
 20
29772.08196279395
 30
0.0
 40
40.36538877215471
100
AcDbArc
 50
74.58817504078606
 51
78.47910133051176
  0
ARC
  5
BD0C
330
1F
100
AcDbEntity
  8
freecads.com
100
AcDbCircle
 10
10743.41282128453
 20
29803.55669272877
 30
0.0
 40
7.716626880450959
100
AcDbArc
 50
61.33239442676281
 51
74.58821189226355
  0
ARC
  5
BD0D
330
1F
100
AcDbEntity
  8
freecads.com
100
AcDbCircle
 10
10756.96638878256
 20
29828.34606067782
 30
0.0
 40
20.53601822115052
100
AcDbArc
 50
241.3324041781085
 51
245.8238182103252
  0
ARC
  5
BD0E
330
1F
100
AcDbEntity
  8
freecads.com
100
AcDbCircle
 10
10770.24115045324
 20
29857.91671164848
 30
0.0
 40
52.94963721442589
100
AcDbArc
 50
245.8238606923808
 51
248.0381590759867
  0
ARC
  5
BD0F
330
1F
100
AcDbEntity
  8
freecads.com
100
AcDbCircle
 10
10771.23076490879
 20
29860.37086585726
 30
0.0
 40
55.59580607723124
100
AcDbArc
 50
248.0381853042854
 51
250.231859114814
  0
ARC
  5
BD10
330
1F
100
AcDbEntity
  8
freecads.com
100
AcDbCircle
 10
10763.99184971574
 20
29840.22895857672
 30
0.0
 40
34.19257449719518
100
AcDbArc
 50
250.2319085499757
 51
253.3891646223779
  0
ARC
  5
BD11
330
1F
100
AcDbEntity
  8
freecads.com
100
AcDbCircle
 10
10759.40569242554
 20
29824.85572967906
 30
0.0
 40
18.14985012044928
100
AcDbArc
 50
253.3892640867023
 51
265.7090399078271
  0
ARC
  5
BD12
330
1F
100
AcDbEntity
  8
freecads.com
100
AcDbCircle
 10
10758.35346450341
 20
29810.83196827682
 30
0.0
 40
4.08666884923118
100
AcDbArc
 50
265.7090553361936
 51
302.9560859794292
  0
ARC
  5
BD13
330
1F
100
AcDbEntity
  8
freecads.com
100
AcDbCircle
 10
10758.36454717249
 20
29810.81488300375
 30
0.0
 40
4.066303877234783
100
AcDbArc
 50
302.9560153817044
 51
340.325339491876
  0
ARC
  5
BD14
330
1F
100
AcDbEntity
  8
freecads.com
100
AcDbCircle
 10
10745.30483700764
 20
29815.48440992313
 30
0.0
 40
17.93571306582562
100
AcDbArc
 50
340.3253729357998
 51
352.7477524338343
  0
ARC
  5
BD15
330
1F
100
AcDbEntity
  8
freecads.com
100
AcDbCircle
 10
10801.7169798059
 20
29808.30565065699
 30
0.0
 40
38.93136387410886
100
AcDbArc
 50
169.3080020088793
 51
172.7477822986565
  0
ARC
  5
BD16
330
1F
100
AcDbEntity
  8
freecads.com
100
AcDbCircle
 10
10888.78076398795
 20
29791.86725565429
 30
0.0
 40
127.5334143377367
100
AcDbArc
 50
167.8868047454351
 51
169.3079510451275
  0
ARC
  5
BD17
330
1F
100
AcDbEntity
  8
freecads.com
100
AcDbCircle
 10
10899.49920055897
 20
29789.56682908977
 30
0.0
 40
138.4959343448185
100
AcDbArc
 50
166.4821546234063
 51
167.8868003659244
  0
ARC
  5
BD18
330
1F
100
AcDbEntity
  8
freecads.com
100
AcDbCircle
 10
10861.66938474341
 20
29798.6615187343
 30
0.0
 40
99.5882443034087
100
AcDbArc
 50
164.6836138243674
 51
166.482206009788
  0
ARC
  5
BD19
330
1F
100
AcDbEntity
  8
freecads.com
100
AcDbCircle
 10
10727.60917750982
 20
29835.37741317333
 30
0.0
 40
39.4088638246953
100
AcDbArc
 50
344.6836713473299
 51
349.8128497291724
  0
ARC
  5
BD1A
330
1F
100
AcDbEntity
  8
freecads.com
100
AcDbCircle
 10
10673.94753817016
 20
29845.02021991118
 30
0.0
 40
93.93000888239338
100
AcDbArc
 50
349.8128631282573
 51
352.4932666580958
  0
ARC
  5
BD1B
330
1F
100
AcDbEntity
  8
freecads.com
100
AcDbCircle
 10
10665.9264580655
 20
29846.07712360995
 30
0.0
 40
102.0204212001643
100
AcDbArc
 50
352.49329478332
 51
355.1054108497276
  0
ARC
  5
BD1C
330
1F
100
AcDbEntity
  8
freecads.com
100
AcDbCircle
 10
10689.795569863
 20
29844.03308127679
 30
0.0
 40
78.06394802356216
100
AcDbArc
 50
355.1054169099468
 51
358.2979604096047
  0
ARC
  5
BD1D
330
1F
100
AcDbEntity
  8
freecads.com
100
AcDbCircle
 10
11201.68330952955
 20
29828.82274221763
 30
0.0
 40
434.0497233768874
100
AcDbArc
 50
177.8043498745238
 51
178.2980095474485
  0
ARC
  5
BD1E
330
1F
100
AcDbEntity
  8
freecads.com
100
AcDbCircle
 10
10987.41753592773
 20
29837.03801106791
 30
0.0
 40
219.6265147932772
100
AcDbArc
 50
176.9825806944744
 51
177.8044278329764
  0
ARC
  5
BD1F
330
1F
100
AcDbEntity
  8
freecads.com
100
AcDbCircle
 10
12107.34540668404
 20
29778.00383431036
 30
0.0
 40
1341.109225191516
100
AcDbArc
 50
176.8638716035446
 51
176.9825884481747
  0
ARC
  5
BD20
330
1F
100
AcDbEntity
  8
freecads.com
100
AcDbCircle
 10
10768.34038842502
 20
29851.3685815905
 30
0.0
 40
0.0958676643371474
100
AcDbArc
 50
90.818267449784
 51
176.863801183483
  0
ARC
  5
BD21
330
1F
100
AcDbEntity
  8
freecads.com
100
AcDbCircle
 10
10768.34815844974
 20
29850.82458035731
 30
0.0
 40
0.6399243847238566
100
AcDbArc
 50
24.99015980113244
 51
90.81830003751694
  0
ARC
  5
BD22
330
1F
100
AcDbEntity
  8
freecads.com
100
AcDbCircle
 10
10680.29933337593
 20
29809.78523453872
 30
0.0
 40
97.78323862762869
100
AcDbArc
 50
23.13170837399935
 51
24.99011354531859
  0
ARC
  5
BD23
330
1F
100
AcDbEntity
  8
freecads.com
100
AcDbCircle
 10
10720.96358415357
 20
29827.15662358847
 30
0.0
 40
53.56393912137222
100
AcDbArc
 50
19.84658211006488
 51
23.13169709773468
  0
ARC
  5
BD24
330
1F
100
AcDbEntity
  8
freecads.com
100
AcDbCircle
 10
10766.89331429016
 20
29843.73453343309
 30
0.0
 40
4.733956475089502
100
AcDbArc
 50
0.3966239015845969
 51
19.84663076031173
  0
ARC
  5
BD25
330
1F
100
AcDbEntity
  8
freecads.com
100
AcDbCircle
 10
10775.47697278651
 20
29843.79395381243
 30
0.0
 40
3.849907687595085
100
AcDbArc
 50
180.3966234986586
 51
198.4937180348923
  0
ARC
  5
BD26
330
1F
100
AcDbEntity
  8
freecads.com
100
AcDbCircle
 10
10998.00435596631
 20
29918.22351122628
 30
0.0
 40
238.4947356333071
100
AcDbArc
 50
198.4937328743272
 51
199.4338367516071
  0
ARC
  5
BD27
330
1F
100
AcDbEntity
  8
freecads.com
100
AcDbCircle
 10
10944.59736061725
 20
29899.38055438875
 30
0.0
 40
181.8611398213732
100
AcDbArc
 50
199.4338587683462
 51
200.9056525194309
  0
ARC
  5
BD28
330
1F
100
AcDbEntity
  8
freecads.com
100
AcDbCircle
 10
11038.90191834796
 20
29935.40273887772
 30
0.0
 40
282.8113621298705
100
AcDbArc
 50
200.9056742821818
 51
201.9628885067382
  0
ARC
  5
BD29
330
1F
100
AcDbEntity
  8
freecads.com
100
AcDbCircle
 10
10502.14210335527
 20
29718.94180605697
 30
0.0
 40
295.9514860460051
100
AcDbArc
 50
20.23698009394134
 51
21.96292552697283
  0
ARC
  5
BD2A
330
1F
100
AcDbEntity
  8
freecads.com
100
AcDbCircle
 10
10765.67972764326
 20
29816.09793184615
 30
0.0
 40
15.07537066108555
100
AcDbArc
 50
5.187814169365815
 51
20.23699965954524
  0
ARC
  5
BD2B
330
1F
100
AcDbEntity
  8
freecads.com
100
AcDbCircle
 10
10776.27084918421
 20
29817.05952359629
 30
0.0
 40
4.440686171694645
100
AcDbArc
 50
330.9175657909909
 51
5.187873978418063
  0
ARC
  5
BD2C
330
1F
100
AcDbEntity
  8
freecads.com
100
AcDbCircle
 10
10772.78858033474
 20
29818.9963288863
 30
0.0
 40
8.425333090978909
100
AcDbArc
 50
309.6901313104909
 51
330.9175811955179
  0
ARC
  5
BD2D
330
1F
100
AcDbEntity
  8
freecads.com
100
AcDbCircle
 10
10781.6357094267
 20
29808.33617746549
 30
0.0
 40
5.42784421548784
100
AcDbArc
 50
129.6901483705285
 51
148.2092148057431
  0
ARC
  5
BD2E
330
1F
100
AcDbEntity
  8
freecads.com
100
AcDbCircle
 10
10779.02314120054
 20
29809.95545608769
 30
0.0
 40
2.354153275810281
100
AcDbArc
 50
148.2092011458082
 51
182.7718991273081
  0
ARC
  5
BD2F
330
1F
100
AcDbEntity
  8
freecads.com
100
AcDbCircle
 10
10777.96879114585
 20
29809.90440673067
 30
0.0
 40
1.298568094652655
100
AcDbArc
 50
182.7718387553668
 51
233.039877013285
  0
ARC
  5
BD30
330
1F
100
AcDbEntity
  8
freecads.com
100
AcDbCircle
 10
10778.35429744068
 20
29810.41673434015
 30
0.0
 40
1.939734752225566
100
AcDbArc
 50
233.0399122610901
 51
270.3072522449052
  0
ARC
  5
BD31
330
1F
100
AcDbEntity
  8
freecads.com
100
AcDbCircle
 10
10778.33711782851
 20
29813.62076222984
 30
0.0
 40
5.143808699091255
100
AcDbArc
 50
270.3072260142294
 51
296.1747256815487
  0
ARC
  5
BD32
330
1F
100
AcDbEntity
  8
freecads.com
100
AcDbCircle
 10
10740.92134348599
 20
29889.74461713378
 30
0.0
 40
89.96586629667138
100
AcDbArc
 50
296.1746657659602
 51
299.3908105124538
  0
ARC
  5
BD33
330
1F
100
AcDbEntity
  8
freecads.com
100
AcDbCircle
 10
10746.47436211166
 20
29879.88618181412
 30
0.0
 40
78.65106347968873
100
AcDbArc
 50
299.390709718466
 51
303.0793226585839
  0
ARC
  5
BD34
330
1F
100
AcDbEntity
  8
freecads.com
100
AcDbCircle
 10
10784.1081213165
 20
29822.11054542863
 30
0.0
 40
9.699457322648363
100
AcDbArc
 50
303.0793231370844
 51
320.3097746458233
  0
ARC
  5
BD35
330
1F
100
AcDbEntity
  8
freecads.com
100
AcDbCircle
 10
10789.84138982578
 20
29817.35234458866
 30
0.0
 40
2.248897408584338
100
AcDbArc
 50
320.3098067439631
 51
358.5735809940709
  0
ARC
  5
BD36
330
1F
100
AcDbEntity
  8
freecads.com
100
AcDbCircle
 10
10784.38201881465
 20
29817.48827707374
 30
0.0
 40
7.709960444085727
100
AcDbArc
 50
358.5736590678892
 51
13.87064806734327
  0
ARC
  5
BD37
330
1F
100
AcDbEntity
  8
freecads.com
100
AcDbCircle
 10
10763.23722207177
 20
29812.26695029494
 30
0.0
 40
29.48987510481405
100
AcDbArc
 50
13.87067218888493
 51
20.66877000968755
  0
ARC
  5
BD38
330
1F
100
AcDbEntity
  8
freecads.com
100
AcDbCircle
 10
10411.93959021555
 20
29679.74183480062
 30
0.0
 40
404.9534983555349
100
AcDbArc
 50
20.66871414879065
 51
21.67023799936314
  0
ARC
  5
BD39
330
1F
100
AcDbEntity
  8
freecads.com
100
AcDbCircle
 10
11287.71552536774
 20
30027.72763015308
 30
0.0
 40
537.4251953548789
100
AcDbArc
 50
201.1487554658089
 51
201.6701461597673
  0
ARC
  5
BD3A
330
1F
100
AcDbEntity
  8
freecads.com
100
AcDbCircle
 10
11072.15548460797
 20
29944.33868571686
 30
0.0
 40
306.297855504633
100
AcDbArc
 50
200.3543337171086
 51
201.1486792235524
  0
ARC
  5
BD3B
330
1F
100
AcDbEntity
  8
freecads.com
100
AcDbCircle
 10
11453.61320088498
 20
30085.85458799829
 30
0.0
 40
713.1599204670044
100
AcDbArc
 50
200.0609063215391
 51
200.3542605524792
  0
ARC
  5
BD3C
330
1F
100
AcDbEntity
  8
freecads.com
100
AcDbCircle
 10
10785.37914210911
 20
29841.83252263802
 30
0.0
 40
1.764442767879876
100
AcDbArc
 50
180.0000701276249
 51
200.0608723147385
  0
ARC
  5
BD3D
330
1F
100
AcDbEntity
  8
freecads.com
100
AcDbCircle
 10
10781.94584459173
 20
29841.83252082538
 30
0.0
 40
1.668854749506444
100
AcDbArc
 50
359.9999880878149
 51
17.18827933779627
  0
ARC
  5
BD3E
330
1F
100
AcDbEntity
  8
freecads.com
100
AcDbCircle
 10
10756.7963286225
 20
29834.0530951724
 30
0.0
 40
27.99408251635299
100
AcDbArc
 50
17.18825450482051
 51
19.38857401501433
  0
ARC
  5
BD3F
330
1F
100
AcDbEntity
  8
freecads.com
100
AcDbCircle
 10
10755.79632044706
 20
29833.70118091664
 30
0.0
 40
29.05420514794429
100
AcDbArc
 50
19.38853667066859
 51
21.92319861010462
  0
ARC
  5
BD40
330
1F
100
AcDbEntity
  8
freecads.com
100
AcDbCircle
 10
10747.28964760846
 20
29830.27757002382
 30
0.0
 40
38.22397037541089
100
AcDbArc
 50
21.92312741128955
 51
23.9866364431522
  0
ARC
  5
BD41
330
1F
100
AcDbEntity
  8
freecads.com
100
AcDbCircle
 10
10799.66022025252
 20
29853.57981328577
 30
0.0
 40
19.09680613805533
100
AcDbArc
 50
198.3716187587857
 51
203.9866273183524
  0
ARC
  5
BD42
330
1F
100
AcDbEntity
  8
freecads.com
100
AcDbCircle
 10
10904.75555205275
 20
29888.48250193886
 30
0.0
 40
129.8362590959539
100
AcDbArc
 50
197.0077388020871
 51
198.3715914379502
  0
ARC
  5
BD43
330
1F
100
AcDbEntity
  8
freecads.com
100
AcDbCircle
 10
10919.95567552273
 20
29893.1317830489
 30
0.0
 40
145.7315278364655
100
AcDbArc
 50
195.612219425539
 51
197.0076981852592
  0
ARC
  5
BD44
330
1F
100
AcDbEntity
  8
freecads.com
100
AcDbCircle
 10
10921.9158910776
 20
29893.67951405406
 30
0.0
 40
147.7668298472562
100
AcDbArc
 50
194.2311705755916
 51
195.6122113286285
  0
ARC
  5
BD45
330
1F
100
AcDbEntity
  8
freecads.com
100
AcDbCircle
 10
11133.98330320371
 20
29947.46383587915
 30
0.0
 40
366.5483202892704
100
AcDbArc
 50
193.3545861080271
 51
194.23120725949
  0
ARC
  5
BD46
330
1F
100
AcDbEntity
  8
freecads.com
100
AcDbCircle
 10
10786.71823955115
 20
29865.02445202805
 30
0.0
 40
9.631976528778029
100
AcDbArc
 50
181.2681835255643
 51
193.3546261898804
  0
ARC
  5
BD47
330
1F
100
AcDbEntity
  8
freecads.com
100
AcDbCircle
 10
10779.19044539799
 20
29864.85780543776
 30
0.0
 40
2.102338031583036
100
AcDbArc
 50
146.6105290709761
 51
181.2682013795587
  0
ARC
  5
BD48
330
1F
100
AcDbEntity
  8
freecads.com
100
AcDbCircle
 10
10780.73776178225
 20
29863.83794086906
 30
0.0
 40
3.955527641813878
100
AcDbArc
 50
125.0083819922993
 51
146.610464719242
  0
ARC
  5
BD49
330
1F
100
AcDbEntity
  8
freecads.com
100
AcDbCircle
 10
10776.64717255286
 20
29869.67808143779
 30
0.0
 40
3.174701113716476
100
AcDbArc
 50
305.0084615688146
 51
326.0375302238864
  0
ARC
  5
BD4A
330
1F
100
AcDbEntity
  8
freecads.com
100
AcDbCircle
 10
10771.60312846971
 20
29873.07553026956
 30
0.0
 40
9.256233755845196
100
AcDbArc
 50
326.0375138957703
 51
335.5049507252464
  0
ARC
  5
BD4B
330
1F
100
AcDbEntity
  8
freecads.com
100
AcDbCircle
 10
10769.29415741638
 20
29874.12753334842
 30
0.0
 40
11.79356656864141
100
AcDbArc
 50
335.5050157901762
 51
344.0491271754182
  0
ARC
  5
BD4C
330
1F
100
AcDbEntity
  8
freecads.com
100
AcDbCircle
 10
10766.7767491083
 20
29874.84702798261
 30
0.0
 40
14.41177532994179
100
AcDbArc
 50
344.0492234026517
 51
351.4007288529894
  0
ARC
  5
BD4D
330
1F
100
AcDbEntity
  8
freecads.com
100
AcDbCircle
 10
10807.37254941457
 20
29868.70803526399
 30
0.0
 40
26.64557765470604
100
AcDbArc
 50
167.579718960937
 51
171.4007641857057
  0
ARC
  5
BD4E
330
1F
100
AcDbEntity
  8
freecads.com
100
AcDbCircle
 10
10806.90197028955
 20
29868.81165844767
 30
0.0
 40
26.1637244852831
100
AcDbArc
 50
163.7059444273669
 51
167.579686915226
  0
ARC
  5
BD4F
330
1F
100
AcDbEntity
  8
freecads.com
100
AcDbCircle
 10
10803.58182236914
 20
29869.78215730395
 30
0.0
 40
22.70464220187887
100
AcDbArc
 50
159.8225634282532
 51
163.7059288504557
  0
ARC
  5
BD50
330
1F
100
AcDbEntity
  8
freecads.com
100
AcDbCircle
 10
10785.82582713753
 20
29876.30714884515
 30
0.0
 40
3.787695268575316
100
AcDbArc
 50
145.2220005927862
 51
159.8224948920204
  0
ARC
  5
BD51
330
1F
100
AcDbEntity
  8
freecads.com
100
AcDbCircle
 10
10782.94335505922
 20
29878.30887774136
 30
0.0
 40
0.2783415023941528
100
AcDbArc
 50
40.29171394687003
 51
145.2219404545448
  0
ARC
  5
BD52
330
1F
100
AcDbEntity
  8
freecads.com
100
AcDbCircle
 10
10782.47061243352
 20
29877.90808098891
 30
0.0
 40
0.8981185808070918
100
AcDbArc
 50
354.1735822314211
 51
40.29168349001932
  0
ARC
  5
BD53
330
1F
100
AcDbEntity
  8
freecads.com
100
AcDbCircle
 10
10756.51396534754
 20
29880.55672841579
 30
0.0
 40
26.9895512961276
100
AcDbArc
 50
348.4709022074649
 51
354.1736343960055
  0
ARC
  5
BD54
330
1F
100
AcDbEntity
  8
freecads.com
100
AcDbCircle
 10
10422.65125430014
 20
29948.65826781599
 30
0.0
 40
367.7271768918227
100
AcDbArc
 50
347.6261655071267
 51
348.4709306543416
  0
ARC
  5
BD55
330
1F
100
AcDbEntity
  8
freecads.com
100
AcDbCircle
 10
10817.26693839547
 20
29862.08527045824
 30
0.0
 40
36.27334539191325
100
AcDbArc
 50
167.6261415440216
 51
171.3466026148891
  0
ARC
  5
BD56
330
1F
100
AcDbEntity
  8
freecads.com
100
AcDbCircle
 10
10785.12711428392
 20
29866.97660978937
 30
0.0
 40
3.763446985831572
100
AcDbArc
 50
171.3466850131994
 51
191.0050990517098
  0
ARC
  5
BD57
330
1F
100
AcDbEntity
  8
freecads.com
100
AcDbCircle
 10
10783.2529272579
 20
29866.61213350581
 30
0.0
 40
1.854148693323466
100
AcDbArc
 50
191.0051557365716
 51
222.4024328288616
  0
ARC
  5
BD58
330
1F
100
AcDbEntity
  8
freecads.com
100
AcDbCircle
 10
10785.37453133615
 20
29868.54959773939
 30
0.0
 40
4.727295317020532
100
AcDbArc
 50
222.4025069895029
 51
238.0147889227028
  0
ARC
  5
BD59
330
1F
100
AcDbEntity
  8
freecads.com
100
AcDbCircle
 10
10786.41885184919
 20
29870.22184110358
 30
0.0
 40
6.698843744763034
100
AcDbArc
 50
238.0148835481862
 51
248.3268888618098
  0
ARC
  5
BD5A
330
1F
100
AcDbEntity
  8
freecads.com
100
AcDbCircle
 10
10784.5849610388
 20
29865.60717475406
 30
0.0
 40
1.733131205575057
100
AcDbArc
 50
248.3268945028109
 51
276.5035362691714
  0
ARC
  5
BD5B
330
1F
100
AcDbEntity
  8
freecads.com
100
AcDbCircle
 10
10784.56914149651
 20
29865.74594263576
 30
0.0
 40
1.872797890610247
100
AcDbArc
 50
276.5035442739584
 51
303.2935971152399
  0
ARC
  5
BD5C
330
1F
100
AcDbEntity
  8
freecads.com
100
AcDbCircle
 10
10781.02641004492
 20
29871.14052853407
 30
0.0
 40
8.32667293993056
100
AcDbArc
 50
303.293676277391
 51
312.1446797604432
  0
ARC
  5
BD5D
330
1F
100
AcDbEntity
  8
freecads.com
100
AcDbCircle
 10
10784.23698769647
 20
29867.59287356447
 30
0.0
 40
3.541940487652302
100
AcDbArc
 50
312.1447193954212
 51
340.9089912049859
  0
ARC
  5
BD5E
330
1F
100
AcDbEntity
  8
freecads.com
100
AcDbCircle
 10
10779.20788760344
 20
29869.33346037412
 30
0.0
 40
8.863734375772324
100
AcDbArc
 50
340.9090611810763
 51
355.4098056197843
  0
ARC
  5
BD5F
330
1F
100
AcDbEntity
  8
freecads.com
100
AcDbCircle
 10
10752.08548946122
 20
29871.51101005157
 30
0.0
 40
36.07340551643156
100
AcDbArc
 50
355.4097976120666
 51
1.442795204787881
  0
ARC
  5
BD60
330
1F
100
AcDbEntity
  8
freecads.com
100
AcDbCircle
 10
10128.89099442876
 20
29855.81524327101
 30
0.0
 40
659.4655258817497
100
AcDbArc
 50
1.442748308866552
 51
2.169943902100643
  0
ARC
  5
BD61
330
1F
100
AcDbEntity
  8
freecads.com
100
AcDbCircle
 10
10600.21961533967
 20
29873.67439936653
 30
0.0
 40
187.79867486703
100
AcDbArc
 50
2.169899582060683
 51
4.070700778470918
  0
ARC
  5
BD62
330
1F
100
AcDbEntity
  8
freecads.com
100
AcDbCircle
 10
10626.28086089635
 20
29875.52900930151
 30
0.0
 40
161.6715223630209
100
AcDbArc
 50
4.070732065160216
 51
6.19749035107091
  0
ARC
  5
BD63
330
1F
100
AcDbEntity
  8
freecads.com
100
AcDbCircle
 10
10654.86670083278
 20
29878.63304152509
 30
0.0
 40
132.9176485214007
100
AcDbArc
 50
6.197540441156862
 51
8.465691706882532
  0
ARC
  5
BD64
330
1F
100
AcDbEntity
  8
freecads.com
100
AcDbCircle
 10
10747.92337064114
 20
29892.48347508005
 30
0.0
 40
38.83588458448789
100
AcDbArc
 50
8.465717669473923
 51
14.13523875763028
  0
ARC
  5
BD65
330
1F
100
AcDbEntity
  8
freecads.com
100
AcDbCircle
 10
10887.05088741281
 20
29927.52094734704
 30
0.0
 40
104.6356818874554
100
AcDbArc
 50
191.9251050131204
 51
194.1352784849483
  0
ARC
  5
BD66
330
1F
100
AcDbEntity
  8
freecads.com
100
AcDbCircle
 10
10798.97231213814
 20
29908.91959336195
 30
0.0
 40
14.61431890904794
100
AcDbArc
 50
182.4815531556802
 51
191.9251954895275
  0
ARC
  5
BD67
330
1F
100
AcDbEntity
  8
freecads.com
100
AcDbCircle
 10
10791.91541656752
 20
29908.61377022273
 30
0.0
 40
7.550799751655524
100
AcDbArc
 50
168.1406878435744
 51
182.4816384487824
  0
ARC
  5
BD68
330
1F
100
AcDbEntity
  8
freecads.com
100
AcDbCircle
 10
10795.53782316877
 20
29907.85310270555
 30
0.0
 40
11.25221092260386
100
AcDbArc
 50
157.5053290979522
 51
168.140722947242
  0
ARC
  5
BD69
330
1F
100
AcDbEntity
  8
freecads.com
100
AcDbCircle
 10
10762.82345216631
 20
29921.40027858467
 30
0.0
 40
24.15620678259674
100
AcDbArc
 50
337.5053194137684
 51
341.7724451039735
  0
ARC
  5
BD6A
330
1F
100
AcDbEntity
  8
freecads.com
100
AcDbCircle
 10
10782.33206632683
 20
29914.97578050571
 30
0.0
 40
3.616971109611215
100
AcDbArc
 50
341.7723564255717
 51
359.1153814874914
  0
ARC
  5
BD6B
330
1F
100
AcDbEntity
  8
freecads.com
100
AcDbCircle
 10
10784.30967940905
 20
29914.9452435316
 30
0.0
 40
1.639122275717745
100
AcDbArc
 50
359.1154227059507
 51
27.71409499872615
  0
ARC
  5
BD6C
330
1F
100
AcDbEntity
  8
freecads.com
100
AcDbCircle
 10
10783.77347856315
 20
29914.66356295017
 30
0.0
 40
2.244808082963051
100
AcDbArc
 50
27.71410755537406
 51
50.3097981573254
  0
ARC
  5
BD6D
330
1F
100
AcDbEntity
  8
freecads.com
100
AcDbCircle
 10
10786.72399559972
 20
29918.21871797987
 30
0.0
 40
2.375222010913877
100
AcDbArc
 50
207.5103626580556
 51
230.3098476641701
  0
ARC
  5
BD6E
330
1F
100
AcDbEntity
  8
freecads.com
100
AcDbCircle
 10
10812.3134811356
 20
29931.54569062089
 30
0.0
 40
31.22708451171857
100
AcDbArc
 50
204.0468287397206
 51
207.510438667712
  0
ARC
  5
BD6F
330
1F
100
AcDbEntity
  8
freecads.com
100
AcDbCircle
 10
10815.23313114358
 20
29932.8485245842
 30
0.0
 40
34.42422894107275
100
AcDbArc
 50
200.2815535137727
 51
204.0469224955085
  0
ARC
  5
BD70
330
1F
100
AcDbEntity
  8
freecads.com
100
AcDbCircle
 10
10824.69154759991
 20
29936.34387271131
 30
0.0
 40
44.50783446639234
100
AcDbArc
 50
197.1758963573181
 51
200.281595855028
  0
ARC
  5
BD71
330
1F
100
AcDbEntity
  8
freecads.com
100
AcDbCircle
 10
10707.13886920045
 20
29900.00939771615
 30
0.0
 40
78.532103245156
100
AcDbArc
 50
17.17591523149523
 51
19.09573730497225
  0
ARC
  5
BD72
330
1F
100
AcDbEntity
  8
freecads.com
100
AcDbCircle
 10
10668.89757168918
 20
29886.77036480082
 30
0.0
 40
119.0002243762199
100
AcDbArc
 50
19.09572934869381
 51
20.50175013806903
  0
ARC
  5
BD73
330
1F
100
AcDbEntity
  8
freecads.com
100
AcDbCircle
 10
10675.88584524756
 20
29889.38332487929
 30
0.0
 40
111.5394249759775
100
AcDbArc
 50
20.50179423285658
 51
21.92316970678032
  0
ARC
  5
BD74
330
1F
100
AcDbEntity
  8
freecads.com
100
AcDbCircle
 10
10743.41498040169
 20
29916.56157451735
 30
0.0
 40
38.74628417238096
100
AcDbArc
 50
21.92318996046168
 51
25.05088696874659
  0
ARC
  5
BD75
330
1F
100
AcDbEntity
  8
freecads.com
100
AcDbCircle
 10
10808.75442574638
 20
29947.10056216756
 30
0.0
 40
33.37772628635361
100
AcDbArc
 50
201.621456945808
 51
205.0509263115394
  0
ARC
  5
BD76
330
1F
100
AcDbEntity
  8
freecads.com
100
AcDbCircle
 10
10838.81506757237
 20
29959.01541522006
 30
0.0
 40
65.71355641723103
100
AcDbArc
 50
199.5556390835222
 51
201.6214397606609
  0
ARC
  5
BD77
330
1F
100
AcDbEntity
  8
freecads.com
100
AcDbCircle
 10
10838.45969281611
 20
29958.88914122117
 30
0.0
 40
65.33641408507893
100
AcDbArc
 50
197.4872839737767
 51
199.5556054599601
  0
ARC
  5
BD78
330
1F
100
AcDbEntity
  8
freecads.com
100
AcDbCircle
 10
10806.17474687326
 20
29948.7176499539
 30
0.0
 40
31.48708663044817
100
AcDbArc
 50
193.9167334113178
 51
197.4873466493747
  0
ARC
  5
BD79
330
1F
100
AcDbEntity
  8
freecads.com
100
AcDbCircle
 10
10761.93645580313
 20
29937.75605495163
 30
0.0
 40
14.08903608528166
100
AcDbArc
 50
13.91678309801354
 51
30.77048590577274
  0
ARC
  5
BD7A
330
1F
100
AcDbEntity
  8
freecads.com
100
AcDbCircle
 10
10763.44324417016
 20
29938.65321327018
 30
0.0
 40
12.3353815493617
100
AcDbArc
 50
30.7705503583743
 51
49.39070751152465
  0
ARC
  5
BD7B
330
1F
100
AcDbEntity
  8
freecads.com
100
AcDbCircle
 10
10765.08402544035
 20
29940.56691864524
 30
0.0
 40
9.814581787561003
100
AcDbArc
 50
49.3907027703692
 51
70.46681314318901
  0
ARC
  5
BD7C
330
1F
100
AcDbEntity
  8
freecads.com
100
AcDbCircle
 10
10766.39235053108
 20
29944.25472909134
 30
0.0
 40
5.901570104797547
100
AcDbArc
 50
70.46679952889181
 51
101.3099430644826
  0
ARC
  5
BD7D
330
1F
100
AcDbEntity
  8
freecads.com
100
AcDbCircle
 10
10768.39059588037
 20
29934.26355393872
 30
0.0
 40
16.09061154186473
100
AcDbArc
 50
101.3099723879975
 51
111.9586302175232
  0
ARC
  5
BD7E
330
1F
100
AcDbEntity
  8
freecads.com
100
AcDbCircle
 10
10767.15696981282
 20
29937.32330661788
 30
0.0
 40
12.79153292330103
100
AcDbArc
 50
111.9587345491715
 51
124.6064132596569
  0
ARC
  5
BD7F
330
1F
100
AcDbEntity
  8
freecads.com
100
AcDbCircle
 10
10765.10944657704
 20
29940.29066119875
 30
0.0
 40
9.186322165301522
100
AcDbArc
 50
124.6064534110926
 51
139.3678597063158
  0
ARC
  5
BD80
330
1F
100
AcDbEntity
  8
freecads.com
100
AcDbCircle
 10
10760.214589012
 20
29944.49083044529
 30
0.0
 40
2.736434392508188
100
AcDbArc
 50
139.3679184274374
 51
175.7296964978557
  0
ARC
  5
BD81
330
1F
100
AcDbEntity
  8
freecads.com
100
AcDbCircle
 10
10631.35325083429
 20
29954.11281571588
 30
0.0
 40
126.4836378776263
100
AcDbArc
 50
355.3354944180956
 51
355.7296889925295
  0
ARC
  5
BD82
330
1F
100
AcDbEntity
  8
freecads.com
100
AcDbCircle
 10
10260.05054275169
 20
29984.40832501278
 30
0.0
 40
499.0202386472386
100
AcDbArc
 50
355.1933513696075
 51
355.3354448846188
  0
ARC
  5
BD83
330
1F
100
AcDbEntity
  8
freecads.com
100
AcDbCircle
 10
10208.1226001804
 20
29988.77473382121
 30
0.0
 40
551.1314346183941
100
AcDbArc
 50
355.0524214486072
 51
355.1933690485762
  0
ARC
  5
BD84
330
1F
100
AcDbEntity
  8
freecads.com
100
AcDbCircle
 10
10321.041006707
 20
29978.99952930739
 30
0.0
 40
437.7907042707631
100
AcDbArc
 50
354.8849171217932
 51
355.0524499513229
  0
ARC
  5
BD85
330
1F
100
AcDbEntity
  8
freecads.com
100
AcDbCircle
 10
10787.82966583915
 20
29937.21592304518
 30
0.0
 40
30.86430962184661
100
AcDbArc
 50
174.8849792055058
 51
182.3985756985258
  0
ARC
  5
BD86
330
1F
100
AcDbEntity
  8
freecads.com
100
AcDbCircle
 10
10768.87504015955
 20
29936.42196772555
 30
0.0
 40
11.89306296531282
100
AcDbArc
 50
182.3986087188468
 51
197.7120254205086
  0
ARC
  5
BD87
330
1F
100
AcDbEntity
  8
freecads.com
100
AcDbCircle
 10
10764.06751197006
 20
29934.8865846764
 30
0.0
 40
6.846308721219113
100
AcDbArc
 50
197.7120793986592
 51
218.6822865904542
  0
ARC
  5
BD88
330
1F
100
AcDbEntity
  8
freecads.com
100
AcDbCircle
 10
10761.98325187921
 20
29933.21783799886
 30
0.0
 40
4.176317035815696
100
AcDbArc
 50
218.6823170326444
 51
249.0432512323526
  0
LINE
  5
BD89
330
1F
100
AcDbEntity
  8
freecads.com
100
AcDbLine
 10
10760.48953734123
 20
29929.31778147842
 30
0.0
 11
10763.11469934123
 21
29928.31234747841
 31
0.0
  0
LINE
  5
BD8A
330
1F
100
AcDbEntity
  8
freecads.com
100
AcDbLine
 10
10763.11469934123
 20
29928.31234747841
 30
0.0
 11
10759.92372434123
 21
29926.96308747841
 31
0.0
  0
ARC
  5
BD8B
330
1F
100
AcDbEntity
  8
freecads.com
100
AcDbCircle
 10
10762.63158769883
 20
29920.55904980672
 30
0.0
 40
6.95300096820355
100
AcDbArc
 50
112.9204343904853
 51
134.1901469547362
  0
ARC
  5
BD8C
330
1F
100
AcDbEntity
  8
freecads.com
100
AcDbCircle
 10
10761.03697236858
 20
29922.199396073
 30
0.0
 40
4.66530913477393
100
AcDbArc
 50
134.1901729676032
 51
162.869167041988
  0
ARC
  5
BD8D
330
1F
100
AcDbEntity
  8
freecads.com
100
AcDbCircle
 10
10772.98627348118
 20
29918.51623722951
 30
0.0
 40
17.16936672204174
100
AcDbArc
 50
162.8690595260867
 51
174.836197751678
  0
ARC
  5
BD8E
330
1F
100
AcDbEntity
  8
freecads.com
100
AcDbCircle
 10
11133.44247295559
 20
29885.9413527592
 30
0.0
 40
379.094489969622
100
AcDbArc
 50
174.836137715718
 51
176.1007573258433
  0
ARC
  5
BD8F
330
1F
100
AcDbEntity
  8
freecads.com
100
AcDbCircle
 10
10699.18233211808
 20
29915.54053630215
 30
0.0
 40
56.17322257823704
100
AcDbArc
 50
352.3362398777063
 51
356.1006923743625
  0
ARC
  5
BD90
330
1F
100
AcDbEntity
  8
freecads.com
100
AcDbCircle
 10
10731.29194269181
 20
29911.21984362845
 30
0.0
 40
23.77421832846574
100
AcDbArc
 50
345.1790729856235
 51
352.3361968629635
  0
ARC
  5
BD91
330
1F
100
AcDbEntity
  8
freecads.com
100
AcDbCircle
 10
10736.60499322418
 20
29909.81402300128
 30
0.0
 40
18.27832553524679
100
AcDbArc
 50
336.8642194895286
 51
345.1789999279461
  0
ARC
  5
BD92
330
1F
100
AcDbEntity
  8
freecads.com
100
AcDbCircle
 10
10735.11050549582
 20
29910.45259572511
 30
0.0
 40
19.90352358276154
100
AcDbArc
 50
329.063962759132
 51
336.86417631896
  0
LINE
  5
BD93
330
1F
100
AcDbEntity
  8
freecads.com
100
AcDbLine
 10
10752.18258834123
 20
29900.22057547841
 30
0.0
 11
10749.63362034123
 21
29895.96764347841
 31
0.0
  0
LINE
  5
BD94
330
1F
100
AcDbEntity
  8
freecads.com
100
AcDbLine
 10
10749.63362034123
 20
29895.96764347841
 30
0.0
 11
10749.62415934123
 21
29912.81651447841
 31
0.0
  0
ARC
  5
BD95
330
1F
100
AcDbEntity
  8
freecads.com
100
AcDbCircle
 10
10405.7653851689
 20
29912.62371824784
 30
0.0
 40
343.8588282212391
100
AcDbArc
 50
0.0321248430359846
 51
2.126341885987158
  0
ARC
  5
BD96
330
1F
100
AcDbEntity
  8
freecads.com
100
AcDbCircle
 10
10721.82794568949
 20
29924.35873074423
 30
0.0
 40
27.57848946917781
100
AcDbArc
 50
2.126308495163323
 51
15.40633804236373
  0
ARC
  5
BD97
330
1F
100
AcDbEntity
  8
freecads.com
100
AcDbCircle
 10
10738.0235245359
 20
29928.82166592936
 30
0.0
 40
10.77924649108283
100
AcDbArc
 50
15.40632775639587
 51
40.03172753894963
  0
ARC
  5
BD98
330
1F
100
AcDbEntity
  8
freecads.com
100
AcDbCircle
 10
10732.15662487405
 20
29923.89322813224
 30
0.0
 40
18.44149229517395
100
AcDbArc
 50
40.03169339194948
 51
56.50468020909583
  0
LINE
  5
BD99
330
1F
100
AcDbEntity
  8
freecads.com
100
AcDbLine
 10
10742.33391034123
 20
29939.27215847841
 30
0.0
 11
10738.36569534123
 21
29941.89819847841
 31
0.0
  0
LINE
  5
BD9A
330
1F
100
AcDbEntity
  8
freecads.com
100
AcDbLine
 10
10738.36569534123
 20
29941.89819847841
 30
0.0
 11
10738.95511034123
 21
29948.21010647841
 31
0.0
  0
ARC
  5
BD9B
330
1F
100
AcDbEntity
  8
freecads.com
100
AcDbCircle
 10
10692.06338709751
 20
29952.58890240927
 30
0.0
 40
47.09572764667984
100
AcDbArc
 50
354.6651337106919
 51
1.032951774256418
  0
ARC
  5
BD9C
330
1F
100
AcDbEntity
  8
freecads.com
100
AcDbCircle
 10
10728.74355834147
 20
29953.25025051941
 30
0.0
 40
10.40959479230318
100
AcDbArc
 50
1.032999599606657
 51
20.55490604573194
  0
ARC
  5
BD9D
330
1F
100
AcDbEntity
  8
freecads.com
100
AcDbCircle
 10
10732.76761648502
 20
29954.75917557349
 30
0.0
 40
6.111932781224136
100
AcDbArc
 50
20.55495424950724
 51
47.76562434384384
  0
ARC
  5
BD9E
330
1F
100
AcDbEntity
  8
freecads.com
100
AcDbCircle
 10
10730.4911856446
 20
29952.2516455024
 30
0.0
 40
9.498648657802508
100
AcDbArc
 50
47.76563079628339
 51
67.32348559255925
  0
ARC
  5
BD9F
330
1F
100
AcDbEntity
  8
freecads.com
100
AcDbCircle
 10
10716.45168896952
 20
29918.65041641547
 30
0.0
 40
45.91499200858331
100
AcDbArc
 50
67.32351030344041
 51
70.99402244380501
  0
ARC
  5
BDA0
330
1F
100
AcDbEntity
  8
freecads.com
100
AcDbCircle
 10
10730.15177315481
 20
29958.42488390892
 30
0.0
 40
3.847182806396038
100
AcDbArc
 50
70.99395179425489
 51
93.56081779194562
  0
ARC
  5
BDA1
330
1F
100
AcDbEntity
  8
freecads.com
100
AcDbCircle
 10
10730.22801223698
 20
29957.19978113259
 30
0.0
 40
5.07465549864936
100
AcDbArc
 50
93.56085414271879
 51
111.9644770767231
  0
ARC
  5
BDA2
330
1F
100
AcDbEntity
  8
freecads.com
100
AcDbCircle
 10
10768.81930301742
 20
29861.51233342974
 30
0.0
 40
108.2510838725012
100
AcDbArc
 50
111.9644990288695
 51
113.9565085259313
  0
LINE
  5
BDA3
330
1F
100
AcDbEntity
  8
freecads.com
100
AcDbLine
 10
10720.61469934123
 20
29898.47051147841
 30
0.0
 11
10720.61469934123
 21
29890.47337947841
 31
0.0
  0
LINE
  5
BDA4
330
1F
100
AcDbEntity
  8
freecads.com
100
AcDbLine
 10
10720.61469934123
 20
29890.47337947841
 30
0.0
 11
10717.36469934123
 21
29889.13798547841
 31
0.0
  0
ARC
  5
BDA5
330
1F
100
AcDbEntity
  8
freecads.com
100
AcDbCircle
 10
10711.58913009131
 20
29903.194201635
 30
0.0
 40
15.19652633997078
100
AcDbArc
 50
281.7629744391636
 51
292.3373073230592
  0
ARC
  5
BDA6
330
1F
100
AcDbEntity
  8
freecads.com
100
AcDbCircle
 10
10713.55301311082
 20
29893.76321795913
 30
0.0
 40
5.563235645259321
100
AcDbArc
 50
259.3798918188221
 51
281.762899036885
  0
ARC
  5
BDA7
330
1F
100
AcDbEntity
  8
freecads.com
100
AcDbCircle
 10
10712.99379166346
 20
29890.78081094762
 30
0.0
 40
2.52885264217069
100
AcDbArc
 50
223.3152849678698
 51
259.3797967063082
  0
ARC
  5
BDA8
330
1F
100
AcDbEntity
  8
freecads.com
100
AcDbCircle
 10
10712.59379849524
 20
29890.4036712346
 30
0.0
 40
1.979099154013221
100
AcDbArc
 50
180.0000508424707
 51
223.3152069822796
  0
ARC
  5
BDA9
330
1F
100
AcDbEntity
  8
freecads.com
100
AcDbCircle
 10
10712.8152859684
 20
29890.40367024827
 30
0.0
 40
2.200586627173059
100
AcDbArc
 50
154.1524328502193
 51
180.0000200445041
  0
ARC
  5
BDAA
330
1F
100
AcDbEntity
  8
freecads.com
100
AcDbCircle
 10
10739.75069315399
 20
29877.35502589285
 30
0.0
 40
32.13022544503206
100
AcDbArc
 50
150.5051249170548
 51
154.1524954620565
  0
ARC
  5
BDAB
330
1F
100
AcDbEntity
  8
freecads.com
100
AcDbCircle
 10
10742.45387554803
 20
29875.8259399137
 30
0.0
 40
35.23591361142655
100
AcDbArc
 50
146.4966369353986
 51
150.5050992465731
  0
ARC
  5
BDAC
330
1F
100
AcDbEntity
  8
freecads.com
100
AcDbCircle
 10
10752.37129806714
 20
29869.26087028172
 30
0.0
 40
47.12941640474212
100
AcDbArc
 50
143.2733547623017
 51
146.4966027833764
  0
ARC
  5
BDAD
330
1F
100
AcDbEntity
  8
freecads.com
100
AcDbCircle
 10
10652.43152096259
 20
29943.82593142537
 30
0.0
 40
77.56183184896285
100
AcDbArc
 50
323.2734000815449
 51
325.2562429432913
  0
ARC
  5
BDAE
330
1F
100
AcDbEntity
  8
freecads.com
100
AcDbCircle
 10
10663.39737713516
 20
29936.22043833292
 30
0.0
 40
64.21666318099333
100
AcDbArc
 50
325.256226599301
 51
327.5406482612602
  0
ARC
  5
BDAF
330
1F
100
AcDbEntity
  8
freecads.com
100
AcDbCircle
 10
10667.6752213182
 20
29933.4994447122
 30
0.0
 40
59.14677589055945
100
AcDbArc
 50
327.5406245770702
 51
329.6380499153976
  0
ARC
  5
BDB0
330
1F
100
AcDbEntity
  8
freecads.com
100
AcDbCircle
 10
10714.36608287391
 20
29906.1477456933
 30
0.0
 40
5.034374428093547
100
AcDbArc
 50
329.6380237373974
 51
342.3912602184933
  0
ARC
  5
BDB1
330
1F
100
AcDbEntity
  8
freecads.com
100
AcDbCircle
 10
10723.65613721842
 20
29903.1992049605
 30
0.0
 40
4.712368729333818
100
AcDbArc
 50
144.4979977000376
 51
162.3912353596427
  0
ARC
  5
BDB2
330
1F
100
AcDbEntity
  8
freecads.com
100
AcDbCircle
 10
10720.03709214812
 20
29905.78083569054
 30
0.0
 40
0.2668873777679634
100
AcDbArc
 50
13.25884356656503
 51
144.4980225601908
  0
ARC
  5
BDB3
330
1F
100
AcDbEntity
  8
freecads.com
100
AcDbCircle
 10
10710.50773791114
 20
29903.53544240122
 30
0.0
 40
10.05720827126288
100
AcDbArc
 50
1.125643558842272
 51
13.25870916805013
  0
ARC
  5
BDB4
330
1F
100
AcDbEntity
  8
freecads.com
100
AcDbCircle
 10
10452.70160537807
 20
29898.47028550813
 30
0.0
 40
267.9130939632546
100
AcDbArc
 50
0.0000483259646033
 51
1.125557570410959
  0
ARC
  5
BDB5
330
1F
100
AcDbEntity
  8
freecads.com
100
AcDbCircle
 10
10760.82904450865
 20
29868.37984671007
 30
0.0
 40
1.336873683741804
100
AcDbArc
 50
14.34552841282196
 51
58.33441808824598
  0
ARC
  5
BDB6
330
1F
100
AcDbEntity
  8
freecads.com
100
AcDbCircle
 10
10759.04070721912
 20
29867.92249241709
 30
0.0
 40
3.182767291301858
100
AcDbArc
 50
351.3154985513976
 51
14.34551355504268
  0
ARC
  5
BDB7
330
1F
100
AcDbEntity
  8
freecads.com
100
AcDbCircle
 10
10749.48894515233
 20
29869.38146444203
 30
0.0
 40
12.84531136364683
100
AcDbArc
 50
341.5751649968225
 51
351.3155374104771
  0
ARC
  5
BDB8
330
1F
100
AcDbEntity
  8
freecads.com
100
AcDbCircle
 10
10614.61945129055
 20
29914.31142903198
 30
0.0
 40
155.001852164933
100
AcDbArc
 50
340.0032516079481
 51
341.5751939637974
  0
ARC
  5
BDB9
330
1F
100
AcDbEntity
  8
freecads.com
100
AcDbCircle
 10
10804.41833020207
 20
29845.24251235253
 30
0.0
 40
46.97371489045042
100
AcDbArc
 50
160.0032834066669
 51
164.1677697999311
  0
ARC
  5
BDBA
330
1F
100
AcDbEntity
  8
freecads.com
100
AcDbCircle
 10
10829.68884706201
 20
29838.07634569993
 30
0.0
 40
73.24067068782532
100
AcDbArc
 50
164.1677884534797
 51
167.1534172072544
  0
ARC
  5
BDBB
330
1F
100
AcDbEntity
  8
freecads.com
100
AcDbCircle
 10
10825.65829087663
 20
29838.99552610615
 30
0.0
 40
69.10663201087674
100
AcDbArc
 50
167.1534283533215
 51
170.1745743902253
  0
ARC
  5
BDBC
330
1F
100
AcDbEntity
  8
freecads.com
100
AcDbCircle
 10
10783.09359780644
 20
29846.36719068756
 30
0.0
 40
25.90831566799356
100
AcDbArc
 50
170.1746002721706
 51
176.4583721949355
  0
ARC
  5
BDBD
330
1F
100
AcDbEntity
  8
freecads.com
100
AcDbCircle
 10
10714.69961635233
 20
29850.60019836576
 30
0.0
 40
42.61653422713597
100
AcDbArc
 50
352.46208866063
 51
356.458407970842
  0
ARC
  5
BDBE
330
1F
100
AcDbEntity
  8
freecads.com
100
AcDbCircle
 10
10606.44515469621
 20
29864.92516575355
 30
0.0
 40
151.8146713866729
100
AcDbArc
 50
350.9095811783014
 51
352.4620438744573
  0
ARC
  5
BDBF
330
1F
100
AcDbEntity
  8
freecads.com
100
AcDbCircle
 10
10591.88556339785
 20
29867.25481941102
 30
0.0
 40
166.5594665677852
100
AcDbArc
 50
349.3749660782583
 51
350.9095533018886
  0
ARC
  5
BDC0
330
1F
100
AcDbEntity
  8
freecads.com
100
AcDbCircle
 10
10631.58087725623
 20
29859.80823182464
 30
0.0
 40
126.1717257424841
100
AcDbArc
 50
347.4851018820447
 51
349.3749030411262
  0
ARC
  5
BDC1
330
1F
100
AcDbEntity
  8
freecads.com
100
AcDbCircle
 10
10911.41439746633
 20
29797.69434901873
 30
0.0
 40
160.4725371870287
100
AcDbArc
 50
167.4851221972583
 51
168.8954973015291
  0
ARC
  5
BDC2
330
1F
100
AcDbEntity
  8
freecads.com
100
AcDbCircle
 10
10892.1993745334
 20
29801.46575883995
 30
0.0
 40
140.8908968483728
100
AcDbArc
 50
168.8954988989119
 51
170.450482493284
  0
ARC
  5
BDC3
330
1F
100
AcDbEntity
  8
freecads.com
100
AcDbCircle
 10
10879.80045989553
 20
29803.55145154648
 30
0.0
 40
128.3177827462753
100
AcDbArc
 50
170.4503982262255
 51
171.9079832042492
  0
ARC
  5
BDC4
330
1F
100
AcDbEntity
  8
freecads.com
100
AcDbCircle
 10
10765.69642889
 20
29819.77463106714
 30
0.0
 40
13.0662255096458
100
AcDbArc
 50
171.9079453151548
 51
179.7129661438866
  0
ARC
  5
BDC5
330
1F
100
AcDbEntity
  8
freecads.com
100
AcDbCircle
 10
10745.04622225163
 20
29819.87808481231
 30
0.0
 40
7.584240269235801
100
AcDbArc
 50
349.9256825748457
 51
359.7129523063685
  0
ARC
  5
BDC6
330
1F
100
AcDbEntity
  8
freecads.com
100
AcDbCircle
 10
10744.21704901787
 20
29820.0253985534
 30
0.0
 40
8.426397968186821
100
AcDbArc
 50
340.8815504075718
 51
349.9256897514267
  0
ARC
  5
BDC7
330
1F
100
AcDbEntity
  8
freecads.com
100
AcDbCircle
 10
10745.39109521464
 20
29819.6184083748
 30
0.0
 40
7.183809751062357
100
AcDbArc
 50
331.2872634221232
 51
340.8816770270702
  0
ARC
  5
BDC8
330
1F
100
AcDbEntity
  8
freecads.com
100
AcDbCircle
 10
10749.56935359587
 20
29817.32967288564
 30
0.0
 40
2.419761762258363
100
AcDbArc
 50
309.690146719385
 51
331.2872320699538
  0
ARC
  5
BDC9
330
1F
100
AcDbEntity
  8
freecads.com
100
AcDbCircle
 10
10747.73938453245
 20
29819.53464618055
 30
0.0
 40
5.28519262066834
100
AcDbArc
 50
299.0577711369296
 51
309.6901920152907
  0
ARC
  5
BDCA
330
1F
100
AcDbEntity
  8
freecads.com
100
AcDbCircle
 10
10750.14247717951
 20
29815.20964359347
 30
0.0
 40
0.3374151753347074
100
AcDbArc
 50
220.513509062045
 51
299.057686353258
  0
ARC
  5
BDCB
330
1F
100
AcDbEntity
  8
freecads.com
100
AcDbCircle
 10
10750.61329497472
 20
29815.61195347258
 30
0.0
 40
0.9567072188166237
100
AcDbArc
 50
182.9786990329614
 51
220.5135760576613
  0
ARC
  5
BDCC
330
1F
100
AcDbEntity
  8
freecads.com
100
AcDbCircle
 10
10781.57496127285
 20
29817.223047782
 30
0.0
 40
31.96026193163221
100
AcDbArc
 50
179.9999521407344
 51
182.9787065653527
  0
ARC
  5
BDCD
330
1F
100
AcDbEntity
  8
freecads.com
100
AcDbCircle
 10
10739.88153235853
 20
29817.22308448521
 30
0.0
 40
9.733166982704601
100
AcDbArc
 50
359.9999410935788
 51
8.216300920435331
  0
ARC
  5
BDCE
330
1F
100
AcDbEntity
  8
freecads.com
100
AcDbCircle
 10
10726.10210080383
 20
29815.23344469278
 30
0.0
 40
23.65550157408815
100
AcDbArc
 50
8.21628051410016
 51
12.44835324178575
  0
ARC
  5
BDCF
330
1F
100
AcDbEntity
  8
freecads.com
100
AcDbCircle
 10
10724.9837482682
 20
29814.98658382453
 30
0.0
 40
24.80077563824505
100
AcDbArc
 50
12.44832054198844
 51
16.63251014521543
  0
ARC
  5
BDD0
330
1F
100
AcDbEntity
  8
freecads.com
100
AcDbCircle
 10
10734.09665320122
 20
29817.70887859246
 30
0.0
 40
15.28994364931409
100
AcDbArc
 50
16.63255111896556
 51
22.64379134492143
  0
ARC
  5
BDD1
330
1F
100
AcDbEntity
  8
freecads.com
100
AcDbCircle
 10
10761.85511808943
 20
29829.28852084883
 30
0.0
 40
14.78696589497707
100
AcDbArc
 50
194.5055142989281
 51
202.6438221348096
  0
ARC
  5
BDD2
330
1F
100
AcDbEntity
  8
freecads.com
100
AcDbCircle
 10
10900.01959421293
 20
29865.03430346147
 30
0.0
 40
157.5006072789386
100
AcDbArc
 50
193.0707877350384
 51
194.5054553138519
  0
ARC
  5
BDD3
330
1F
100
AcDbEntity
  8
freecads.com
100
AcDbCircle
 10
10913.67722169507
 20
29868.20528802008
 30
0.0
 40
171.5215177880313
100
AcDbArc
 50
191.5227101150264
 51
193.0708185308882
  0
ARC
  5
BDD4
330
1F
100
AcDbEntity
  8
freecads.com
100
AcDbCircle
 10
10941.1947431371
 20
29873.81536132851
 30
0.0
 40
199.605087874503
100
AcDbArc
 50
190.1410411524963
 51
191.5227694300331
  0
ARC
  5
BDD5
330
1F
100
AcDbEntity
  8
freecads.com
100
AcDbCircle
 10
10509.11260208316
 20
29796.53017875096
 30
0.0
 40
239.3345162441759
100
AcDbArc
 50
10.14110428120532
 51
11.27486391752429
  0
ARC
  5
BDD6
330
1F
100
AcDbEntity
  8
freecads.com
100
AcDbCircle
 10
10569.13229453455
 20
29808.49577316458
 30
0.0
 40
178.1337079847749
100
AcDbArc
 50
11.27490920105855
 51
12.68963861906662
  0
ARC
  5
BDD7
330
1F
100
AcDbEntity
  8
freecads.com
100
AcDbCircle
 10
10565.65648259766
 20
29807.71295405086
 30
0.0
 40
181.6965824363861
100
AcDbArc
 50
12.68969138659847
 51
13.85186901647957
  0
ARC
  5
BDD8
330
1F
100
AcDbEntity
  8
freecads.com
100
AcDbCircle
 10
10733.69411816693
 20
29849.14829212411
 30
0.0
 40
8.625688843749207
100
AcDbArc
 50
13.85186566953845
 51
24.49549234263642
  0
ARC
  5
BDD9
330
1F
100
AcDbEntity
  8
freecads.com
100
AcDbCircle
 10
10745.87501412963
 20
29854.69828147273
 30
0.0
 40
4.759997848543213
100
AcDbArc
 50
184.6836697732112
 51
204.4954106615197
  0
ARC
  5
BDDA
330
1F
100
AcDbEntity
  8
freecads.com
100
AcDbCircle
 10
10752.52104462417
 20
29855.24276107878
 30
0.0
 40
11.42829443580126
100
AcDbArc
 50
174.3857622686671
 51
184.6835869371545
  0
ARC
  5
BDDB
330
1F
100
AcDbEntity
  8
freecads.com
100
AcDbCircle
 10
10766.12785523085
 20
29853.90516322521
 30
0.0
 40
25.10069228342014
100
AcDbArc
 50
167.7852246540532
 51
174.385706407662
  0
ARC
  5
BDDC
330
1F
100
AcDbEntity
  8
freecads.com
100
AcDbCircle
 10
10868.15741331381
 20
29831.81789756583
 30
0.0
 40
129.4935944698618
100
AcDbArc
 50
165.8282119789882
 51
167.7851590616818
  0
ARC
  5
BDDD
330
1F
100
AcDbEntity
  8
freecads.com
100
AcDbCircle
 10
11240.65383251984
 20
29737.75615324828
 30
0.0
 40
513.682602726512
100
AcDbArc
 50
164.4892536227088
 51
165.8281261669477
  0
ARC
  5
BDDE
330
1F
100
AcDbEntity
  8
freecads.com
100
AcDbCircle
 10
10798.34774253592
 20
29860.50783079072
 30
0.0
 40
54.65901773730045
100
AcDbArc
 50
157.5404880090581
 51
164.4892527156921
  0
ARC
  5
BDDF
330
1F
100
AcDbEntity
  8
freecads.com
100
AcDbCircle
 10
10771.17475757904
 20
29871.74079951855
 30
0.0
 40
25.255774754514
100
AcDbArc
 50
146.1369013406429
 51
157.5405708555861
  0
ARC
  5
BDE0
330
1F
100
AcDbEntity
  8
freecads.com
100
AcDbCircle
 10
10780.94200427111
 20
29865.1866102098
 30
0.0
 40
37.0182789708289
100
AcDbArc
 50
137.5744820485977
 51
146.1369025579189
  0
ARC
  5
BDE1
330
1F
100
AcDbEntity
  8
freecads.com
100
AcDbCircle
 10
10687.9783219946
 20
29950.15027316809
 30
0.0
 40
88.92246203742351
100
AcDbArc
 50
317.5743871761139
 51
319.4495216049971
  0
ARC
  5
BDE2
330
1F
100
AcDbEntity
  8
freecads.com
100
AcDbCircle
 10
10711.33350024148
 20
29930.16749055879
 30
0.0
 40
58.18525410057555
100
AcDbArc
 50
319.4494942906988
 51
322.0260915255204
  0
ARC
  5
BDE3
330
1F
100
AcDbEntity
  8
freecads.com
100
AcDbCircle
 10
10704.43349407997
 20
29935.55328244694
 30
0.0
 40
66.93835865216157
100
AcDbArc
 50
322.0261086731902
 51
323.8838263403433
  0
ARC
  5
BDE4
330
1F
100
AcDbEntity
  8
freecads.com
100
AcDbCircle
 10
10757.20646205172
 20
29897.0477488827
 30
0.0
 40
1.611011670864422
100
AcDbArc
 50
323.8838355537458
 51
351.0899862859174
  0
ARC
  5
BDE5
330
1F
100
AcDbEntity
  8
freecads.com
100
AcDbCircle
 10
10758.8440180271
 20
29896.79102152407
 30
0.0
 40
0.0465463248556703
100
AcDbArc
 50
3.831024284983994
 51
171.0903382782856
  0
ARC
  5
BDE6
330
1F
100
AcDbEntity
  8
freecads.com
100
AcDbCircle
 10
10329.16190263803
 20
29868.02043555464
 30
0.0
 40
430.690792660796
100
AcDbArc
 50
3.40142420777538
 51
3.830683685992204
  0
ARC
  5
BDE7
330
1F
100
AcDbEntity
  8
freecads.com
100
AcDbCircle
 10
10410.44238823974
 20
29872.85156681361
 30
0.0
 40
349.2668577960291
100
AcDbArc
 50
2.713851845275323
 51
3.401399136741149
  0
ARC
  5
BDE8
330
1F
100
AcDbEntity
  8
freecads.com
100
AcDbCircle
 10
9931.520970504113
 20
29850.14949173985
 30
0.0
 40
828.7260412291661
100
AcDbArc
 50
2.353393459621815
 51
2.71389820698645
  0
ARC
  5
BDE9
330
1F
100
AcDbEntity
  8
freecads.com
100
AcDbCircle
 10
11113.50571884476
 20
29898.72650489491
 30
0.0
 40
354.2564909821911
100
AcDbArc
 50
182.3534421697647
 51
183.4509917315649
  0
ARC
  5
BDEA
330
1F
100
AcDbEntity
  8
freecads.com
100
AcDbCircle
 10
10816.50770090573
 20
29880.8163086348
 30
0.0
 40
56.71893404224263
100
AcDbArc
 50
183.450996488262
 51
187.7018557957807
  0
ARC
  5
BDEB
330
1F
100
AcDbEntity
  8
freecads.com
100
AcDbCircle
 10
10787.36637800299
 20
29876.87529263266
 30
0.0
 40
27.31233091215616
100
AcDbArc
 50
187.7018694698656
 51
193.4474321718702
  0
ARC
  5
BDEC
330
1F
100
AcDbEntity
  8
freecads.com
100
AcDbCircle
 10
10762.38463561525
 20
29870.9019446938
 30
0.0
 40
1.626374859746011
100
AcDbArc
 50
193.4474917381744
 51
238.3343034741894
  0
ARC
  5
BDED
330
1F
100
AcDbEntity
  8
freecads.com
100
AcDbCircle
 10
10708.32482319055
 20
29884.30142123882
 30
0.0
 40
1.578820593357212
100
AcDbArc
 50
79.66844245847095
 51
133.5154846521764
  0
ARC
  5
BDEE
330
1F
100
AcDbEntity
  8
freecads.com
100
AcDbCircle
 10
10704.38744173653
 20
29862.70287351816
 30
0.0
 40
23.53332437631634
100
AcDbArc
 50
72.16842543419507
 51
79.66851462538038
  0
ARC
  5
BDEF
330
1F
100
AcDbEntity
  8
freecads.com
100
AcDbCircle
 10
10704.37595971418
 20
29862.66713025364
 30
0.0
 40
23.57086658689672
100
AcDbArc
 50
64.81512454120755
 51
72.16846157025286
  0
ARC
  5
BDF0
330
1F
100
AcDbEntity
  8
freecads.com
100
AcDbCircle
 10
10713.9982233411
 20
29883.12950187366
 30
0.0
 40
0.9589978091561329
100
AcDbArc
 50
350.2831828115998
 51
64.8150807595926
  0
ARC
  5
BDF1
330
1F
100
AcDbEntity
  8
freecads.com
100
AcDbCircle
 10
10714.26284959135
 20
29883.08419007373
 30
0.0
 40
0.6905202280953644
100
AcDbArc
 50
302.3103710662751
 51
350.2830569701983
  0
ARC
  5
BDF2
330
1F
100
AcDbEntity
  8
freecads.com
100
AcDbCircle
 10
10706.89219410351
 20
29894.73873415171
 30
0.0
 40
14.48018882404071
100
AcDbArc
 50
297.0508730783397
 51
302.3103896751018
  0
ARC
  5
BDF3
330
1F
100
AcDbEntity
  8
freecads.com
100
AcDbCircle
 10
10705.90447933041
 20
29896.67289299402
 30
0.0
 40
16.65195098844574
100
AcDbArc
 50
291.3242370094367
 51
297.051018465975
  0
ARC
  5
BDF4
330
1F
100
AcDbEntity
  8
freecads.com
100
AcDbCircle
 10
10702.28268947646
 20
29905.950643573
 30
0.0
 40
26.61157033616757
100
AcDbArc
 50
287.2935991024365
 51
291.3242853384883
  0
ARC
  5
BDF5
330
1F
100
AcDbEntity
  8
freecads.com
100
AcDbCircle
 10
10716.77550214976
 20
29859.40131509872
 30
0.0
 40
22.14170238054162
100
AcDbArc
 50
107.2936386374612
 51
112.1163145814854
  0
ARC
  5
BDF6
330
1F
100
AcDbEntity
  8
freecads.com
100
AcDbCircle
 10
10713.47549468043
 20
29867.52168035673
 30
0.0
 40
13.3764082485572
100
AcDbArc
 50
112.1164126303394
 51
119.1508120769521
  0
ARC
  5
BDF7
330
1F
100
AcDbEntity
  8
freecads.com
100
AcDbCircle
 10
10711.99719535694
 20
29870.17215946409
 30
0.0
 40
10.34154278399186
100
AcDbArc
 50
119.1509024543875
 51
126.2732242953318
  0
ARC
  5
BDF8
330
1F
100
AcDbEntity
  8
freecads.com
100
AcDbCircle
 10
10706.26133358806
 20
29877.9882416868
 30
0.0
 40
0.6466342468248789
100
AcDbArc
 50
126.2732060904156
 51
179.9999298582011
  0
ARC
  5
BDF9
330
1F
100
AcDbEntity
  8
freecads.com
100
AcDbCircle
 10
10704.48930305461
 20
29877.98824395881
 30
0.0
 40
1.12539628662109
100
AcDbArc
 50
326.3277401010675
 51
359.9999246307135
  0
ARC
  5
BDFA
330
1F
100
AcDbEntity
  8
freecads.com
100
AcDbCircle
 10
10688.65821667074
 20
29888.53517576796
 30
0.0
 40
20.14804244010735
100
AcDbArc
 50
322.2084356308543
 51
326.3277876947394
  0
ARC
  5
BDFB
330
1F
100
AcDbEntity
  8
freecads.com
100
AcDbCircle
 10
10687.17174326351
 20
29889.68782417969
 30
0.0
 40
22.02905321918686
100
AcDbArc
 50
317.6087183023069
 51
322.208493308808
  0
ARC
  5
BDFC
330
1F
100
AcDbEntity
  8
freecads.com
100
AcDbCircle
 10
10680.04790630667
 20
29896.19076049793
 30
0.0
 40
31.67463426680748
100
AcDbArc
 50
314.1050549369252
 51
317.6087626443857
  0
ARC
  5
BDFD
330
1F
100
AcDbEntity
  8
freecads.com
100
AcDbCircle
 10
10684.47306527359
 20
29891.62516911619
 30
0.0
 40
25.31643825320279
100
AcDbArc
 50
306.9055542871869
 51
314.1050354605828
  0
ARC
  5
BDFE
330
1F
100
AcDbEntity
  8
freecads.com
100
AcDbCircle
 10
10696.31974094582
 20
29875.85007379873
 30
0.0
 40
5.588352771890276
100
AcDbArc
 50
284.8133131946324
 51
306.9054922407592
  0
ARC
  5
BDFF
330
1F
100
AcDbEntity
  8
freecads.com
100
AcDbCircle
 10
10694.61696925203
 20
29882.28879451081
 30
0.0
 40
12.24842453196253
100
AcDbArc
 50
272.1559823338193
 51
284.813257427827
  0
ARC
  5
BE00
330
1F
100
AcDbEntity
  8
freecads.com
100
AcDbCircle
 10
10683.95540517071
 20
30165.48139310889
 30
0.0
 40
295.6416440157539
100
AcDbArc
 50
270.8987506130925
 51
272.1560365856029
  0
ARC
  5
BE01
330
1F
100
AcDbEntity
  8
freecads.com
100
AcDbCircle
 10
10686.17853294312
 20
30023.76386545497
 30
0.0
 40
153.9066802932362
100
AcDbArc
 50
269.4744174668888
 51
270.8987722065716
  0
ARC
  5
BE02
330
1F
100
AcDbEntity
  8
freecads.com
100
AcDbCircle
 10
10685.48081494071
 20
29947.69806303146
 30
0.0
 40
77.8376780075757
100
AcDbArc
 50
267.102180433204
 51
269.4743701692583
  0
ARC
  5
BE03
330
1F
100
AcDbEntity
  8
freecads.com
100
AcDbCircle
 10
10689.56557229318
 20
30028.39136150539
 30
0.0
 40
158.6342971276055
100
AcDbArc
 50
266.1304174023594
 51
267.1021479998208
  0
ARC
  5
BE04
330
1F
100
AcDbEntity
  8
freecads.com
100
AcDbCircle
 10
10678.87779274755
 20
29870.38120507071
 30
0.0
 40
0.2630934063223365
100
AcDbArc
 50
179.9999112112927
 51
266.1303338193263
  0
ARC
  5
BE05
330
1F
100
AcDbEntity
  8
freecads.com
100
AcDbCircle
 10
10680.14966358858
 20
29870.38120410032
 30
0.0
 40
1.534964247350835
100
AcDbArc
 50
133.5620186776015
 51
179.9999485597209
  0
ARC
  5
BE06
330
1F
100
AcDbEntity
  8
freecads.com
100
AcDbCircle
 10
10919.1675378461
 20
29619.05456946497
 30
0.0
 40
348.3701145590064
100
AcDbArc
 50
132.560294679288
 51
133.5620477085579
  0
ARC
  5
BE07
330
1F
100
AcDbEntity
  8
freecads.com
100
AcDbCircle
 10
10784.03164206205
 20
29766.21847610209
 30
0.0
 40
148.5729030018319
100
AcDbArc
 50
130.3208331057385
 51
132.5603392522284
  0
ARC
  5
BE08
330
1F
100
AcDbEntity
  8
freecads.com
100
AcDbCircle
 10
10699.5022496114
 20
29865.81869053435
 30
0.0
 40
17.93821808611674
100
AcDbArc
 50
119.6996492886238
 51
130.320864321444
  0
ARC
  5
BE09
330
1F
100
AcDbEntity
  8
freecads.com
100
AcDbCircle
 10
10711.38707124422
 20
29844.98218897673
 30
0.0
 40
41.92589789062355
100
AcDbArc
 50
113.5918326200021
 51
119.6997205258058
  0
ARC
  5
BE0A
330
1F
100
AcDbEntity
  8
freecads.com
100
AcDbCircle
 10
10708.38128235044
 20
29851.86487087077
 30
0.0
 40
34.41549996984925
100
AcDbArc
 50
106.5095985201105
 51
113.5918518199568
  0
ARC
  5
BE0B
330
1F
100
AcDbEntity
  8
freecads.com
100
AcDbCircle
 10
10706.42014097625
 20
29858.48136301259
 30
0.0
 40
27.51448238181317
100
AcDbArc
 50
99.0902427061412
 51
106.5095159374056
  0
ARC
  5
BE0C
330
1F
100
AcDbEntity
  8
freecads.com
100
AcDbCircle
 10
10702.73137985418
 20
29881.53620153696
 30
0.0
 40
4.166408842437055
100
AcDbArc
 50
69.1831598631391
 51
99.09022806742461
  0
ARC
  5
BE0D
330
1F
100
AcDbEntity
  8
freecads.com
100
AcDbCircle
 10
10706.08371526371
 20
29890.35349725834
 30
0.0
 40
5.266663644101115
100
AcDbArc
 50
249.1832296287872
 51
259.2239593489789
  0
ARC
  5
BE0E
330
1F
100
AcDbEntity
  8
freecads.com
100
AcDbCircle
 10
10705.96314816774
 20
29889.72001600812
 30
0.0
 40
4.62181101055112
100
AcDbArc
 50
259.2239423590911
 51
270.29792397728
  0
ARC
  5
BE0F
330
1F
100
AcDbEntity
  8
freecads.com
100
AcDbCircle
 10
10705.96874728539
 20
29888.64454327775
 30
0.0
 40
3.546323705262718
100
AcDbArc
 50
270.2978129315314
 51
282.6987123381461
  0
ARC
  5
BE10
330
1F
100
AcDbEntity
  8
freecads.com
100
AcDbCircle
 10
10706.51879055677
 20
29886.20355107367
 30
0.0
 40
1.044126562593872
100
AcDbArc
 50
282.6987356485787
 51
313.5155470717571
  0
ARC
  5
BE11
330
1F
100
AcDbEntity
  8
freecads.com
100
AcDbCircle
 10
10665.12421738547
 20
29857.35454929431
 30
0.0
 40
59.95442915224093
100
AcDbArc
 50
10.92667780128119
 51
14.27549235059828
  0
ARC
  5
BE12
330
1F
100
AcDbEntity
  8
freecads.com
100
AcDbCircle
 10
10712.16981107726
 20
29866.43680869656
 30
0.0
 40
12.04017947991967
100
AcDbArc
 50
359.918382217949
 51
10.92674082495804
  0
ARC
  5
BE13
330
1F
100
AcDbEntity
  8
freecads.com
100
AcDbCircle
 10
10713.3877058269
 20
29866.43507130604
 30
0.0
 40
10.82228349104114
100
AcDbArc
 50
348.1160542872635
 51
359.91839545062
  0
ARC
  5
BE14
330
1F
100
AcDbEntity
  8
freecads.com
100
AcDbCircle
 10
10682.55726765288
 20
29872.92304565175
 30
0.0
 40
42.32799295952795
100
AcDbArc
 50
343.834490062576
 51
348.1160492675684
  0
ARC
  5
BE15
330
1F
100
AcDbEntity
  8
freecads.com
100
AcDbCircle
 10
10771.37812811218
 20
29847.17619357656
 30
0.0
 40
50.14927800210594
100
AcDbArc
 50
163.8345158078262
 51
167.0859477279689
  0
ARC
  5
BE16
330
1F
100
AcDbEntity
  8
freecads.com
100
AcDbCircle
 10
10996.39395279892
 20
29795.58248701633
 30
0.0
 40
281.0042799320504
100
AcDbArc
 50
167.0859242955879
 51
167.9939430582922
  0
ARC
  5
BE17
330
1F
100
AcDbEntity
  8
freecads.com
100
AcDbCircle
 10
11030.17047566422
 20
29788.3988100763
 30
0.0
 40
315.5362754002524
100
AcDbArc
 50
167.9938501092301
 51
168.9092026155225
  0
ARC
  5
BE18
330
1F
100
AcDbEntity
  8
freecads.com
100
AcDbCircle
 10
11011.19148787276
 20
29792.11881249648
 30
0.0
 40
296.1961514228676
100
AcDbArc
 50
168.9091340154192
 51
169.8689473023122
  0
ARC
  5
BE19
330
1F
100
AcDbEntity
  8
freecads.com
100
AcDbCircle
 10
10527.39345303193
 20
29878.56694218647
 30
0.0
 40
195.264750015637
100
AcDbArc
 50
348.4491692472709
 51
349.8689405011455
  0
ARC
  5
BE1A
330
1F
100
AcDbEntity
  8
freecads.com
100
AcDbCircle
 10
10552.36499874866
 20
29873.46344035922
 30
0.0
 40
169.7770308871202
100
AcDbArc
 50
346.8723839837961
 51
348.4491389580987
  0
ARC
  5
BE1B
330
1F
100
AcDbEntity
  8
freecads.com
100
AcDbCircle
 10
10566.64406472787
 20
29870.13337761018
 30
0.0
 40
155.1147990259755
100
AcDbArc
 50
345.4012648474886
 51
346.8723710775242
  0
ARC
  5
BE1C
330
1F
100
AcDbEntity
  8
freecads.com
100
AcDbCircle
 10
10701.99695101107
 20
29834.87975563604
 30
0.0
 40
15.24621181827204
100
AcDbArc
 50
337.3234826134573
 51
345.4013618032025
  0
ARC
  5
BE1D
330
1F
100
AcDbEntity
  8
freecads.com
100
AcDbCircle
 10
10737.01779415982
 20
29820.24708808543
 30
0.0
 40
22.70868792467023
100
AcDbArc
 50
157.3234978486375
 51
161.286824740718
  0
ARC
  5
BE1E
330
1F
100
AcDbEntity
  8
freecads.com
100
AcDbCircle
 10
10739.51521220573
 20
29819.40106596137
 30
0.0
 40
25.34551373010247
100
AcDbArc
 50
161.2867120723462
 51
164.9366029927652
  0
ARC
  5
BE1F
330
1F
100
AcDbEntity
  8
freecads.com
100
AcDbCircle
 10
10736.57797816414
 20
29820.19157003521
 30
0.0
 40
22.30376415037674
100
AcDbArc
 50
164.9365786824143
 51
168.6396264043895
  0
ARC
  5
BE20
330
1F
100
AcDbEntity
  8
freecads.com
100
AcDbCircle
 10
10719.53994009883
 20
29823.6147752874
 30
0.0
 40
4.925240757599794
100
AcDbArc
 50
168.6395720222449
 51
180.0000326772691
  0
ARC
  5
BE21
330
1F
100
AcDbEntity
  8
freecads.com
100
AcDbCircle
 10
10712.50070772795
 20
29823.61477308599
 30
0.0
 40
2.113991613280946
100
AcDbArc
 50
336.2076945698625
 51
359.9999835327574
  0
ARC
  5
BE22
330
1F
100
AcDbEntity
  8
freecads.com
100
AcDbCircle
 10
10709.2030536626
 20
29825.0686946217
 30
0.0
 40
5.717935309667002
100
AcDbArc
 50
324.8850772811906
 51
336.2075866302918
  0
ARC
  5
BE23
330
1F
100
AcDbEntity
  8
freecads.com
100
AcDbCircle
 10
10708.31852424487
 20
29825.69069132429
 30
0.0
 40
6.799264209132236
100
AcDbArc
 50
314.3453136260131
 51
324.885113238549
  0
ARC
  5
BE24
330
1F
100
AcDbEntity
  8
freecads.com
100
AcDbCircle
 10
10708.6417437037
 20
29825.36000181885
 30
0.0
 40
6.336850576581372
100
AcDbArc
 50
303.2338203718169
 51
314.3453000382067
  0
ARC
  5
BE25
330
1F
100
AcDbEntity
  8
freecads.com
100
AcDbCircle
 10
10694.9695958729
 20
29846.22634165587
 30
0.0
 40
31.28342878886015
100
AcDbArc
 50
300.3251838677159
 51
303.2338198278546
  0
ARC
  5
BE26
330
1F
100
AcDbEntity
  8
freecads.com
100
AcDbCircle
 10
10709.95269769545
 20
29820.6116882558
 30
0.0
 40
1.608459386514421
100
AcDbArc
 50
275.1294973625292
 51
300.3251890111613
  0
ARC
  5
BE27
330
1F
100
AcDbEntity
  8
freecads.com
100
AcDbCircle
 10
10710.06529119806
 20
29819.35740102853
 30
0.0
 40
0.3491287129694331
100
AcDbArc
 50
203.9786440750349
 51
275.1294259923539
  0
ARC
  5
BE28
330
1F
100
AcDbEntity
  8
freecads.com
100
AcDbCircle
 10
10711.13948800616
 20
29819.83518501748
 30
0.0
 40
1.524788664925444
100
AcDbArc
 50
180.0000202560715
 51
203.9786588894899
  0
ARC
  5
BE29
330
1F
100
AcDbEntity
  8
freecads.com
100
AcDbCircle
 10
10708.01721647695
 20
29819.83518537815
 30
0.0
 40
1.597482864278416
100
AcDbArc
 50
359.9999677298157
 51
76.98942030578229
  0
ARC
  5
BE2A
330
1F
100
AcDbEntity
  8
freecads.com
100
AcDbCircle
 10
10694.1021529289
 20
29759.6132084966
 30
0.0
 40
63.40618365202239
100
AcDbArc
 50
76.98941021286394
 51
82.44820710371707
  0
ARC
  5
BE2B
330
1F
100
AcDbEntity
  8
freecads.com
100
AcDbCircle
 10
10695.50665938765
 20
29770.20715405234
 30
0.0
 40
52.71954148395095
100
AcDbArc
 50
82.44825392131458
 51
89.22024775960068
  0
ARC
  5
BE2C
330
1F
100
AcDbEntity
  8
freecads.com
100
AcDbCircle
 10
10696.10784531521
 20
29814.37901103357
 30
0.0
 40
8.543593574597625
100
AcDbArc
 50
89.22026944956483
 51
115.217416865979
  0
ARC
  5
BE2D
330
1F
100
AcDbEntity
  8
freecads.com
100
AcDbCircle
 10
10692.07751183971
 20
29822.93715155854
 30
0.0
 40
0.9160764602855056
100
AcDbArc
 50
218.8565273440045
 51
295.2174283201775
  0
ARC
  5
BE2E
330
1F
100
AcDbEntity
  8
freecads.com
100
AcDbCircle
 10
10694.32232027287
 20
29824.74567614171
 30
0.0
 40
3.798770698239375
100
AcDbArc
 50
192.0565625958188
 51
218.856562280241
  0
ARC
  5
BE2F
330
1F
100
AcDbEntity
  8
freecads.com
100
AcDbCircle
 10
10724.57144745809
 20
29831.20653686147
 30
0.0
 40
34.73018542028898
100
AcDbArc
 50
185.536446072139
 51
192.0565504471145
  0
ARC
  5
BE30
330
1F
100
AcDbEntity
  8
freecads.com
100
AcDbCircle
 10
11759.27505564809
 20
29931.50102524296
 30
0.0
 40
1074.283234187453
100
AcDbArc
 50
184.9909668927004
 51
185.5364216839711
  0
LINE
  5
BE31
330
1F
100
AcDbEntity
  8
freecads.com
100
AcDbLine
 10
10689.06504534123
 20
29838.03979747841
 30
0.0
 11
10688.44743734123
 21
29845.11195247841
 31
0.0
  0
LINE
  5
BE32
330
1F
100
AcDbEntity
  8
freecads.com
100
AcDbLine
 10
10688.44743734123
 20
29845.11195247841
 30
0.0
 11
10693.95379034123
 21
29846.34421947841
 31
0.0
  0
ARC
  5
BE33
330
1F
100
AcDbEntity
  8
freecads.com
100
AcDbCircle
 10
10686.12039866332
 20
29881.34757140189
 30
0.0
 40
35.86916044540355
100
AcDbArc
 50
282.6143659600198
 51
286.2056006435287
  0
ARC
  5
BE34
330
1F
100
AcDbEntity
  8
freecads.com
100
AcDbCircle
 10
10688.570820957
 20
29872.91636305025
 30
0.0
 40
27.08907823140958
100
AcDbArc
 50
286.205527329427
 51
290.6380636233803
  0
ARC
  5
BE35
330
1F
100
AcDbEntity
  8
freecads.com
100
AcDbCircle
 10
10689.62814805579
 20
29870.10916238425
 30
0.0
 40
24.08935888263851
100
AcDbArc
 50
290.6379728053837
 51
294.7719878338202
  0
ARC
  5
BE36
330
1F
100
AcDbEntity
  8
freecads.com
100
AcDbCircle
 10
10698.94783009379
 20
29849.91360244652
 30
0.0
 40
1.847121709012669
100
AcDbArc
 50
294.7719220968557
 51
321.8291479758875
  0
ARC
  5
BE37
330
1F
100
AcDbEntity
  8
freecads.com
100
AcDbCircle
 10
10696.78807325588
 20
29851.61138781096
 30
0.0
 40
4.594306584949785
100
AcDbArc
 50
321.8291212691918
 51
348.5750902905094
  0
ARC
  5
BE38
330
1F
100
AcDbEntity
  8
freecads.com
100
AcDbCircle
 10
10608.72749363512
 20
29869.4075041921
 30
0.0
 40
94.43509599262844
100
AcDbArc
 50
348.5750046898116
 51
351.5459682009314
  0
ARC
  5
BE39
330
1F
100
AcDbEntity
  8
freecads.com
100
AcDbCircle
 10
10621.7267736911
 20
29867.47542479563
 30
0.0
 40
81.29301804552254
100
AcDbArc
 50
351.5459576877938
 51
355.3631078814212
  0
ARC
  5
BE3A
330
1F
100
AcDbEntity
  8
freecads.com
100
AcDbCircle
 10
10646.85799291559
 20
29865.437098309
 30
0.0
 40
56.07927269553274
100
AcDbArc
 50
355.3631377045704
 51
0.4050403071642755
  0
LINE
  5
BE3B
330
1F
100
AcDbEntity
  8
freecads.com
100
AcDbLine
 10
10702.93586434123
 20
29865.83353547842
 30
0.0
 11
10702.90146534123
 21
29870.69942647841
 31
0.0
  0
LINE
  5
BE3C
330
1F
100
AcDbEntity
  8
freecads.com
100
AcDbLine
 10
10702.90146534123
 20
29870.69942647841
 30
0.0
 11
10711.22446434123
 21
29876.12463147841
 31
0.0
  0
ARC
  5
BE3D
330
1F
100
AcDbEntity
  8
freecads.com
100
AcDbCircle
 10
10613.62777376578
 20
30025.85135336333
 30
0.0
 40
178.726621569604
100
AcDbArc
 50
303.0976014172253
 51
304.3484704546105
  0
ARC
  5
BE3E
330
1F
100
AcDbEntity
  8
freecads.com
100
AcDbCircle
 10
10648.78064169873
 20
29974.41269888506
 30
0.0
 40
116.4236577681355
100
AcDbArc
 50
304.3484723473277
 51
306.0730427595708
  0
ARC
  5
BE3F
330
1F
100
AcDbEntity
  8
freecads.com
100
AcDbCircle
 10
10631.80273462103
 20
29997.71823711479
 30
0.0
 40
145.2576210912178
100
AcDbArc
 50
306.0730447724707
 51
307.2278887299898
  0
ARC
  5
BE40
330
1F
100
AcDbEntity
  8
freecads.com
100
AcDbCircle
 10
10718.00371827987
 20
29884.26735037133
 30
0.0
 40
2.773540272946587
100
AcDbArc
 50
307.2278351217977
 51
327.04844749587
  0
ARC
  5
BE41
330
1F
100
AcDbEntity
  8
freecads.com
100
AcDbCircle
 10
10720.78002299734
 20
29882.4677334035
 30
0.0
 40
0.5350076132426823
100
AcDbArc
 50
101.3334178592848
 51
147.0485047701957
  0
ARC
  5
BE42
330
1F
100
AcDbEntity
  8
freecads.com
100
AcDbCircle
 10
10720.73404677393
 20
29882.69712789672
 30
0.0
 40
0.3010511073675474
100
AcDbArc
 50
31.51736974260022
 51
101.333506044102
  0
ARC
  5
BE43
330
1F
100
AcDbEntity
  8
freecads.com
100
AcDbCircle
 10
10719.28389344508
 20
29881.80786691798
 30
0.0
 40
2.002147743510064
100
AcDbArc
 50
10.74492829089672
 51
31.51739524186228
  0
ARC
  5
BE44
330
1F
100
AcDbEntity
  8
freecads.com
100
AcDbCircle
 10
10706.73024123121
 20
29879.42561489543
 30
0.0
 40
14.77983566448677
100
AcDbArc
 50
5.988754754675716
 51
10.74499661682657
  0
ARC
  5
BE45
330
1F
100
AcDbEntity
  8
freecads.com
100
AcDbCircle
 10
10742.54770025631
 20
29883.1830626741
 30
0.0
 40
21.23417251045591
100
AcDbArc
 50
185.988723675573
 51
190.1907835786713
  0
ARC
  5
BE46
330
1F
100
AcDbEntity
  8
freecads.com
100
AcDbCircle
 10
10821.32720443956
 20
29897.34484923247
 30
0.0
 40
101.2764518250405
100
AcDbArc
 50
190.1908941483187
 51
191.5098284317713
  0
ARC
  5
BE47
330
1F
100
AcDbEntity
  8
freecads.com
100
AcDbCircle
 10
10833.24353889214
 20
29899.77151989634
 30
0.0
 40
113.4373628633106
100
AcDbArc
 50
191.5098958524765
 51
192.8256216783184
  0
ARC
  5
BE48
330
1F
100
AcDbEntity
  8
freecads.com
100
AcDbCircle
 10
10819.82161048377
 20
29896.71593842342
 30
0.0
 40
99.67201723300718
100
AcDbArc
 50
192.8256880136036
 51
194.2754810792362
  0
ARC
  5
BE49
330
1F
100
AcDbEntity
  8
freecads.com
100
AcDbCircle
 10
10669.01887942091
 20
29836.9676529114
 30
0.0
 40
16.59581992032094
100
AcDbArc
 50
355.3708688784506
 51
359.9999674334129
  0
ARC
  5
BE4A
330
1F
100
AcDbEntity
  8
freecads.com
100
AcDbCircle
 10
10676.98871541786
 20
29836.32235172304
 30
0.0
 40
8.599902246811099
100
AcDbArc
 50
347.7997092650086
 51
355.3707684408527
  0
ARC
  5
BE4B
330
1F
100
AcDbEntity
  8
freecads.com
100
AcDbCircle
 10
10679.65350728838
 20
29835.74619700595
 30
0.0
 40
5.873536539296294
100
AcDbArc
 50
339.5326907575438
 51
347.7996345820939
  0
ARC
  5
BE4C
330
1F
100
AcDbEntity
  8
freecads.com
100
AcDbCircle
 10
10684.87708901887
 20
29833.79657603435
 30
0.0
 40
0.2979802416702828
100
AcDbArc
 50
267.6170200662129
 51
339.5327026447427
  0
ARC
  5
BE4D
330
1F
100
AcDbEntity
  8
freecads.com
100
AcDbCircle
 10
10684.91390542592
 20
29834.68135771372
 30
0.0
 40
1.183527568457285
100
AcDbArc
 50
244.0815865389355
 51
267.61719633592
  0
ARC
  5
BE4E
330
1F
100
AcDbEntity
  8
freecads.com
100
AcDbCircle
 10
10704.85099268671
 20
29875.70625526209
 30
0.0
 40
46.79635106468345
100
AcDbArc
 50
242.4187030569697
 51
244.0813974068013
  0
ARC
  5
BE4F
330
1F
100
AcDbEntity
  8
freecads.com
100
AcDbCircle
 10
10702.06010096974
 20
29870.36356638599
 30
0.0
 40
40.7686316781964
100
AcDbArc
 50
240.1233088045174
 51
242.4187301579036
  0
ARC
  5
BE50
330
1F
100
AcDbEntity
  8
freecads.com
100
AcDbCircle
 10
10712.32118341541
 20
29888.22502538618
 30
0.0
 40
61.36769793303073
100
AcDbArc
 50
238.4338381528332
 51
240.1233454932937
  0
LINE
  5
BE51
330
1F
100
AcDbEntity
  8
freecads.com
100
AcDbLine
 10
10680.19624934123
 20
29835.93752247841
 30
0.0
 11
10676.27779934123
 21
29838.34498247841
 31
0.0
  0
LINE
  5
BE52
330
1F
100
AcDbEntity
  8
freecads.com
100
AcDbLine
 10
10676.27779934123
 20
29838.34498247841
 30
0.0
 11
10679.19624934123
 21
29838.99378447841
 31
0.0
  0
ARC
  5
BE53
330
1F
100
AcDbEntity
  8
freecads.com
100
AcDbCircle
 10
10658.89221560202
 20
29930.32563020377
 30
0.0
 40
93.56152964591805
100
AcDbArc
 50
282.5336308002579
 51
283.2816818411248
  0
ARC
  5
BE54
330
1F
100
AcDbEntity
  8
freecads.com
100
AcDbCircle
 10
10660.48489275163
 20
29923.57771495507
 30
0.0
 40
86.6282057192785
100
AcDbArc
 50
283.2818006999016
 51
284.0743127631995
  0
ARC
  5
BE55
330
1F
100
AcDbEntity
  8
freecads.com
100
AcDbCircle
 10
10662.5322576983
 20
29915.41067228581
 30
0.0
 40
78.20844983452435
100
AcDbArc
 50
284.074428094632
 51
284.8305004581808
  0
ARC
  5
BE56
330
1F
100
AcDbEntity
  8
freecads.com
100
AcDbCircle
 10
10680.16272421021
 20
29848.82552167985
 30
0.0
 40
9.328731261900051
100
AcDbArc
 50
284.830585599191
 51
288.4477115706682
  0
ARC
  5
BE57
330
1F
100
AcDbEntity
  8
freecads.com
100
AcDbCircle
 10
10685.35023036278
 20
29833.27455855094
 30
0.0
 40
7.064641616181033
100
AcDbArc
 50
97.02828754350358
 51
108.4477315197105
  0
ARC
  5
BE58
330
1F
100
AcDbEntity
  8
freecads.com
100
AcDbCircle
 10
10684.58193320132
 20
29839.50640736074
 30
0.0
 40
0.7856114270099985
100
AcDbArc
 50
39.72567592494413
 51
97.02835729826109
  0
ARC
  5
BE59
330
1F
100
AcDbEntity
  8
freecads.com
100
AcDbCircle
 10
10684.00135335423
 20
29839.02396209869
 30
0.0
 40
1.540479885571815
100
AcDbArc
 50
4.058946161857526
 51
39.7256450311407
  0
ARC
  5
BE5A
330
1F
100
AcDbEntity
  8
freecads.com
100
AcDbCircle
 10
10655.02249097464
 20
29836.96763942946
 30
0.0
 40
30.59220836659168
100
AcDbArc
 50
0.0000075832858946
 51
4.058874563363359
  0
ARC
  5
BE5B
330
1F
100
AcDbEntity
  8
freecads.com
100
AcDbCircle
 10
10658.04175325901
 20
29830.66381201158
 30
0.0
 40
12.42705391777211
100
AcDbArc
 50
180.0000070688539
 51
189.576804426382
  0
ARC
  5
BE5C
330
1F
100
AcDbEntity
  8
freecads.com
100
AcDbCircle
 10
10651.81490069173
 20
29829.61320754491
 30
0.0
 40
6.112193456926862
100
AcDbArc
 50
189.576767449764
 51
205.8605021224893
  0
ARC
  5
BE5D
330
1F
100
AcDbEntity
  8
freecads.com
100
AcDbCircle
 10
10653.13808651151
 20
29830.25458214339
 30
0.0
 40
7.582629477031755
100
AcDbArc
 50
205.8604813305083
 51
220.1165072353946
  0
ARC
  5
BE5E
330
1F
100
AcDbEntity
  8
freecads.com
100
AcDbCircle
 10
10666.83517689704
 20
29841.79530426471
 30
0.0
 40
25.4934795995346
100
AcDbArc
 50
220.1164297877368
 51
225.8949740021934
  0
ARC
  5
BE5F
330
1F
100
AcDbEntity
  8
freecads.com
100
AcDbCircle
 10
10622.82412330108
 20
29796.38736232399
 30
0.0
 40
37.74301326589262
100
AcDbArc
 50
42.21395251469888
 51
45.89500436674873
  0
ARC
  5
BE60
330
1F
100
AcDbEntity
  8
freecads.com
100
AcDbCircle
 10
10646.77820333592
 20
29818.11821392155
 30
0.0
 40
5.400659278124275
100
AcDbArc
 50
26.75690557335631
 51
42.21405792920205
  0
ARC
  5
BE61
330
1F
100
AcDbEntity
  8
freecads.com
100
AcDbCircle
 10
10649.97092936097
 20
29819.72796609677
 30
0.0
 40
1.825075194838485
100
AcDbArc
 50
356.4886631577699
 51
26.75681632705027
  0
ARC
  5
BE62
330
1F
100
AcDbEntity
  8
freecads.com
100
AcDbCircle
 10
10650.35713681292
 20
29819.70426943405
 30
0.0
 40
1.438141443705769
100
AcDbArc
 50
320.3098643550438
 51
356.4886034785555
  0
ARC
  5
BE63
330
1F
100
AcDbEntity
  8
freecads.com
100
AcDbCircle
 10
10649.85237264052
 20
29820.1231873622
 30
0.0
 40
2.094098073574975
100
AcDbArc
 50
296.6415694433208
 51
320.3098344816429
  0
ARC
  5
BE64
330
1F
100
AcDbEntity
  8
freecads.com
100
AcDbCircle
 10
10650.40096723684
 20
29819.02965157003
 30
0.0
 40
0.8706698738530779
100
AcDbArc
 50
251.0973736609305
 51
296.641571564582
  0
ARC
  5
BE65
330
1F
100
AcDbEntity
  8
freecads.com
100
AcDbCircle
 10
10650.86705156716
 20
29820.39076942795
 30
0.0
 40
2.309376385319409
100
AcDbArc
 50
227.1765450396755
 51
251.0973778618191
  0
ARC
  5
BE66
330
1F
100
AcDbEntity
  8
freecads.com
100
AcDbCircle
 10
10665.28531157101
 20
29835.94836136341
 30
0.0
 40
23.52080934890228
100
AcDbArc
 50
222.8233886429468
 51
227.1766567090845
  0
ARC
  5
BE67
330
1F
100
AcDbEntity
  8
freecads.com
100
AcDbCircle
 10
10641.67829911744
 20
29814.07012434287
 30
0.0
 40
8.66534127694617
100
AcDbArc
 50
42.82337464561964
 51
53.56830853136486
  0
ARC
  5
BE68
330
1F
100
AcDbEntity
  8
freecads.com
100
AcDbCircle
 10
10642.12139931251
 20
29814.67043604369
 30
0.0
 40
7.919209974148827
100
AcDbArc
 50
53.56830561585837
 51
65.06387698845056
  0
ARC
  5
BE69
330
1F
100
AcDbEntity
  8
freecads.com
100
AcDbCircle
 10
10642.19101153434
 20
29814.8201692016
 30
0.0
 40
7.754086141923257
100
AcDbArc
 50
65.06383429656786
 51
76.6878791721222
  0
ARC
  5
BE6A
330
1F
100
AcDbEntity
  8
freecads.com
100
AcDbCircle
 10
10642.15779674685
 20
29814.67976740965
 30
0.0
 40
7.898363254634652
100
AcDbArc
 50
76.68792260610489
 51
88.15240321564955
  0
LINE
  5
BE6B
330
1F
100
AcDbEntity
  8
freecads.com
100
AcDbLine
 10
10642.41244834123
 20
29822.57402447841
 30
0.0
 11
10639.11469934123
 21
29822.68040447841
 31
0.0
  0
LINE
  5
BE6C
330
1F
100
AcDbEntity
  8
freecads.com
100
AcDbLine
 10
10639.11469934123
 20
29822.68040447841
 30
0.0
 11
10641.86469934123
 21
29823.76706547841
 31
0.0
  0
ARC
  5
BE6D
330
1F
100
AcDbEntity
  8
freecads.com
100
AcDbCircle
 10
10634.90528117128
 20
29841.37913226801
 30
0.0
 40
18.93722254886927
100
AcDbArc
 50
291.5614820287222
 51
299.3600931640335
  0
ARC
  5
BE6E
330
1F
100
AcDbEntity
  8
freecads.com
100
AcDbCircle
 10
10643.82888594961
 20
29825.51645962973
 30
0.0
 40
0.7368075681895682
100
AcDbArc
 50
299.3601803514243
 51
20.67663505166235
  0
ARC
  5
BE6F
330
1F
100
AcDbEntity
  8
freecads.com
100
AcDbCircle
 10
10643.70375118394
 20
29825.46923321231
 30
0.0
 40
0.8705574993356256
100
AcDbArc
 50
20.67664960458586
 51
93.34957948154679
  0
ARC
  5
BE70
330
1F
100
AcDbEntity
  8
freecads.com
100
AcDbCircle
 10
10644.87592923136
 20
29805.44143480605
 30
0.0
 40
20.93262893716927
100
AcDbArc
 50
93.34956147149911
 51
100.6252845363328
  0
ARC
  5
BE71
330
1F
100
AcDbEntity
  8
freecads.com
100
AcDbCircle
 10
10636.4107496738
 20
29850.56473300254
 30
0.0
 40
24.97784160138954
100
AcDbArc
 50
274.9758558636588
 51
280.6252211333336
  0
ARC
  5
BE72
330
1F
100
AcDbEntity
  8
freecads.com
100
AcDbCircle
 10
10638.53839827457
 20
29826.12700038055
 30
0.0
 40
0.4476629580898294
100
AcDbArc
 50
175.6441786567989
 51
274.9758041466693
  0
ARC
  5
BE73
330
1F
100
AcDbEntity
  8
freecads.com
100
AcDbCircle
 10
10640.24457604068
 20
29825.99704412796
 30
0.0
 40
2.158782824470925
100
AcDbArc
 50
144.0745122248343
 51
175.6442763159656
  0
ARC
  5
BE74
330
1F
100
AcDbEntity
  8
freecads.com
100
AcDbCircle
 10
10874.07933695256
 20
29656.57100972268
 30
0.0
 40
290.9214475597429
100
AcDbArc
 50
143.1070155232704
 51
144.0746208984895
  0
ARC
  5
BE75
330
1F
100
AcDbEntity
  8
freecads.com
100
AcDbCircle
 10
10675.63980755541
 20
29805.52561865467
 30
0.0
 40
42.79703854393647
100
AcDbArc
 50
138.5741219820545
 51
143.1070020814828
  0
ARC
  5
BE76
330
1F
100
AcDbEntity
  8
freecads.com
100
AcDbCircle
 10
10644.53457544134
 20
29832.97354718954
 30
0.0
 40
1.313014562094148
100
AcDbArc
 50
82.4918966786709
 51
138.5740970421147
  0
ARC
  5
BE77
330
1F
100
AcDbEntity
  8
freecads.com
100
AcDbCircle
 10
10644.59414877899
 20
29833.42556610049
 30
0.0
 40
0.8570868502634867
100
AcDbArc
 50
6.774612729783385
 51
82.49182251227374
  0
ARC
  5
BE78
330
1F
100
AcDbEntity
  8
freecads.com
100
AcDbCircle
 10
10621.34539998799
 20
29830.66379602721
 30
0.0
 40
24.26929935324427
100
AcDbArc
 50
0.0000341169699945
 51
6.774546768158751
  0
ARC
  5
BE79
330
1F
100
AcDbEntity
  8
freecads.com
100
AcDbCircle
 10
10800.03360771756
 20
29905.85548526535
 30
0.0
 40
7.157318285369903
100
AcDbArc
 50
134.999989603041
 51
156.6420505975069
  0
ARC
  5
BE7A
330
1F
100
AcDbEntity
  8
freecads.com
100
AcDbCircle
 10
10800.79799901433
 20
29905.52536538987
 30
0.0
 40
7.989948567523906
100
AcDbArc
 50
156.6420238016809
 51
176.5699991700093
  0
ARC
  5
BE7B
330
1F
100
AcDbEntity
  8
freecads.com
100
AcDbCircle
 10
10808.30499369525
 20
29905.07541450279
 30
0.0
 40
15.51041563679451
100
AcDbArc
 50
176.5699679592817
 51
189.9486700856932
  0
ARC
  5
BE7C
330
1F
100
AcDbEntity
  8
freecads.com
100
AcDbCircle
 10
10861.62747309367
 20
29914.42832313532
 30
0.0
 40
69.6469440541534
100
AcDbArc
 50
189.9486414315116
 51
194.3365035644696
  0
ARC
  5
BE7D
330
1F
100
AcDbEntity
  8
freecads.com
100
AcDbCircle
 10
10786.24454176675
 20
29895.16230170175
 30
0.0
 40
8.15900634373281
100
AcDbArc
 50
4.637292360656981
 51
14.33648596876937
  0
ARC
  5
BE7E
330
1F
100
AcDbEntity
  8
freecads.com
100
AcDbCircle
 10
10790.01862674161
 20
29895.46842962202
 30
0.0
 40
4.372526223488255
100
AcDbArc
 50
349.1666827266115
 51
4.637295418704285
  0
ARC
  5
BE7F
330
1F
100
AcDbEntity
  8
freecads.com
100
AcDbCircle
 10
10790.63709134
 20
29895.35007117238
 30
0.0
 40
3.74283806097321
100
AcDbArc
 50
332.2460743291118
 51
349.1667918037162
  0
ARC
  5
BE80
330
1F
100
AcDbEntity
  8
freecads.com
100
AcDbCircle
 10
10789.83848485593
 20
29895.77030892331
 30
0.0
 40
4.645263727560417
100
AcDbArc
 50
317.8553503443242
 51
332.2460668191916
  0
ARC
  5
BE81
330
1F
100
AcDbEntity
  8
freecads.com
100
AcDbCircle
 10
10796.40167057585
 20
29889.83071706212
 30
0.0
 40
4.206524694665128
100
AcDbArc
 50
137.8553339656988
 51
157.3918018851425
  0
ARC
  5
BE82
330
1F
100
AcDbEntity
  8
freecads.com
100
AcDbCircle
 10
10796.85208881705
 20
29889.64315394122
 30
0.0
 40
4.694435051503049
100
AcDbArc
 50
157.3918415025703
 51
175.3850750947781
  0
ARC
  5
BE83
330
1F
100
AcDbEntity
  8
freecads.com
100
AcDbCircle
 10
10803.55305341015
 20
29889.1022519408
 30
0.0
 40
11.417195009436
100
AcDbArc
 50
175.3850834563918
 51
185.7599858390234
  0
ARC
  5
BE84
330
1F
100
AcDbEntity
  8
freecads.com
100
AcDbCircle
 10
10880.34019309614
 20
29896.8480004284
 30
0.0
 40
88.59401433224784
100
AcDbArc
 50
185.7600960357124
 51
188.0520799866675
  0
ARC
  5
BE85
330
1F
100
AcDbEntity
  8
freecads.com
100
AcDbCircle
 10
10746.51985236357
 20
29877.91672066439
 30
0.0
 40
46.55877678685401
100
AcDbArc
 50
358.5800680749027
 51
8.052080745579008
  0
ARC
  5
BE86
330
1F
100
AcDbEntity
  8
freecads.com
100
AcDbCircle
 10
10730.96747832567
 20
29878.30225690363
 30
0.0
 40
62.11592872433348
100
AcDbArc
 50
350.9490005434821
 51
358.5800396713295
  0
ARC
  5
BE87
330
1F
100
AcDbEntity
  8
freecads.com
100
AcDbCircle
 10
10736.27398795
 20
29877.45699213012
 30
0.0
 40
56.74252040854653
100
AcDbArc
 50
343.0715963977386
 51
350.9489543491537
  0
ARC
  5
BE88
330
1F
100
AcDbEntity
  8
freecads.com
100
AcDbCircle
 10
10767.98064282807
 20
29867.80659944261
 30
0.0
 40
23.59976791905178
100
AcDbArc
 50
327.8998801599842
 51
343.0716027651004
  0
ARC
  5
BE89
330
1F
100
AcDbEntity
  8
freecads.com
100
AcDbCircle
 10
10809.68503311463
 20
29841.64537437488
 30
0.0
 40
25.63097315010454
100
AcDbArc
 50
147.8999013608234
 51
152.251336623169
  0
ARC
  5
BE8A
330
1F
100
AcDbEntity
  8
freecads.com
100
AcDbCircle
 10
10792.69132378287
 20
29850.5856793076
 30
0.0
 40
6.42901467857728
100
AcDbArc
 50
152.251242814248
 51
164.4153898287816
  0
ARC
  5
BE8B
330
1F
100
AcDbEntity
  8
freecads.com
100
AcDbCircle
 10
10788.88225774513
 20
29851.64808726789
 30
0.0
 40
2.474562155930852
100
AcDbArc
 50
164.4153991124305
 51
185.2985589807789
  0
ARC
  5
BE8C
330
1F
100
AcDbEntity
  8
freecads.com
100
AcDbCircle
 10
10787.12176104697
 20
29851.48481519884
 30
0.0
 40
0.7065105750187833
100
AcDbArc
 50
185.2985277659545
 51
238.2825145857339
  0
ARC
  5
BE8D
330
1F
100
AcDbEntity
  8
freecads.com
100
AcDbCircle
 10
10786.22887541336
 20
29850.04009761658
 30
0.0
 40
0.9918573613230693
100
AcDbArc
 50
16.70007326863651
 51
58.28248116005489
  0
ARC
  5
BE8E
330
1F
100
AcDbEntity
  8
freecads.com
100
AcDbCircle
 10
10781.60477886717
 20
29848.65279989558
 30
0.0
 40
5.819575645892553
100
AcDbArc
 50
5.460516636843975
 51
16.70003391957687
  0
ARC
  5
BE8F
330
1F
100
AcDbEntity
  8
freecads.com
100
AcDbCircle
 10
10777.39070339977
 20
29848.24995745148
 30
0.0
 40
10.0528620854892
100
AcDbArc
 50
356.6992421470027
 51
5.460538423982043
  0
ARC
  5
BE90
330
1F
100
AcDbEntity
  8
freecads.com
100
AcDbCircle
 10
10762.97091705586
 20
29849.08153752071
 30
0.0
 40
24.49660687741924
100
AcDbArc
 50
352.1953468569555
 51
356.6993611066346
  0
ARC
  5
BE91
330
1F
100
AcDbEntity
  8
freecads.com
100
AcDbCircle
 10
10807.56292337066
 20
29842.96950790622
 30
0.0
 40
20.51232482715988
100
AcDbArc
 50
172.1953603118089
 51
182.6203505147221
  0
ARC
  5
BE92
330
1F
100
AcDbEntity
  8
freecads.com
100
AcDbCircle
 10
10792.81908355395
 20
29842.29475406635
 30
0.0
 40
5.753052985866374
100
AcDbArc
 50
182.6204267249218
 51
209.470159102787
  0
ARC
  5
BE93
330
1F
100
AcDbEntity
  8
freecads.com
100
AcDbCircle
 10
10794.26809914015
 20
29843.11357517342
 30
0.0
 40
7.417418983605505
100
AcDbArc
 50
209.4701825785302
 51
232.1963692918035
  0
ARC
  5
BE94
330
1F
100
AcDbEntity
  8
freecads.com
100
AcDbCircle
 10
10816.03980226438
 20
29871.1778952819
 30
0.0
 40
42.93661266927725
100
AcDbArc
 50
232.1964362432982
 51
238.3957023035697
  0
ARC
  5
BE95
330
1F
100
AcDbEntity
  8
freecads.com
100
AcDbCircle
 10
10768.46966125572
 20
29793.86662199602
 30
0.0
 40
47.83756478593782
100
AcDbArc
 50
52.44041183523691
 51
58.39576948618026
  0
ARC
  5
BE96
330
1F
100
AcDbEntity
  8
freecads.com
100
AcDbCircle
 10
10793.73552467048
 20
29826.72293847718
 30
0.0
 40
6.389990830355686
100
AcDbArc
 50
26.16948124997762
 51
52.44034989826772
  0
ARC
  5
BE97
330
1F
100
AcDbEntity
  8
freecads.com
100
AcDbCircle
 10
10795.67605411426
 20
29827.6765194039
 30
0.0
 40
4.227822681029624
100
AcDbArc
 50
351.5952904616573
 51
26.16941287554157
  0
ARC
  5
BE98
330
1F
100
AcDbEntity
  8
freecads.com
100
AcDbCircle
 10
10784.34039151251
 20
29829.35139726648
 30
0.0
 40
15.6865513397911
100
AcDbArc
 50
338.5545786908356
 51
351.5952154591327
  0
ARC
  5
BE99
330
1F
100
AcDbEntity
  8
freecads.com
100
AcDbCircle
 10
10832.94671881759
 20
29810.25830801014
 30
0.0
 40
36.53529381565232
100
AcDbArc
 50
158.5545591614472
 51
162.186120058773
  0
ARC
  5
BE9A
330
1F
100
AcDbEntity
  8
freecads.com
100
AcDbCircle
 10
10803.71163236921
 20
29819.65248483144
 30
0.0
 40
5.827952058448867
100
AcDbArc
 50
162.1861626333891
 51
176.2885379385926
  0
ARC
  5
BE9B
330
1F
100
AcDbEntity
  8
freecads.com
100
AcDbCircle
 10
10800.59936889174
 20
29819.85436707222
 30
0.0
 40
2.709147737502549
100
AcDbArc
 50
176.2884528356755
 51
198.994215044248
  0
ARC
  5
BE9C
330
1F
100
AcDbEntity
  8
freecads.com
100
AcDbCircle
 10
10800.93644349994
 20
29819.97039634609
 30
0.0
 40
3.065633478986614
100
AcDbArc
 50
198.9942723988357
 51
219.6901350671441
  0
ARC
  5
BE9D
330
1F
100
AcDbEntity
  8
freecads.com
100
AcDbCircle
 10
10800.37659542748
 20
29819.50576417803
 30
0.0
 40
2.338094534442888
100
AcDbArc
 50
219.6901322148461
 51
263.5144708054461
  0
ARC
  5
BE9E
330
1F
100
AcDbEntity
  8
freecads.com
100
AcDbCircle
 10
10800.38454982965
 20
29819.57572437343
 30
0.0
 40
2.408505481401022
100
AcDbArc
 50
263.5144390618573
 51
306.3788374061215
  0
ARC
  5
BE9F
330
1F
100
AcDbEntity
  8
freecads.com
100
AcDbCircle
 10
10798.18173494806
 20
29822.56586558547
 30
0.0
 40
6.122443804864638
100
AcDbArc
 50
306.3788143372528
 51
330.4732820595808
  0
ARC
  5
BEA0
330
1F
100
AcDbEntity
  8
freecads.com
100
AcDbCircle
 10
10786.24940383296
 20
29829.32417538217
 30
0.0
 40
19.83576860771963
100
AcDbArc
 50
330.4733464285361
 51
340.510187506203
  0
ARC
  5
BEA1
330
1F
100
AcDbEntity
  8
freecads.com
100
AcDbCircle
 10
10843.92552105375
 20
29808.91160228445
 30
0.0
 40
41.34599042337248
100
AcDbArc
 50
157.8848730481894
 51
160.5102799999156
  0
ARC
  5
BEA2
330
1F
100
AcDbEntity
  8
freecads.com
100
AcDbCircle
 10
10809.23032151603
 20
29823.01054040275
 30
0.0
 40
3.895530786333868
100
AcDbArc
 50
143.0295320434606
 51
157.8849681161225
  0
ARC
  5
BEA3
330
1F
100
AcDbEntity
  8
freecads.com
100
AcDbCircle
 10
10806.29196118436
 20
29825.22237976694
 30
0.0
 40
0.2177332372999761
100
AcDbArc
 50
49.02220649657968
 51
143.0294583526763
  0
ARC
  5
BEA4
330
1F
100
AcDbEntity
  8
freecads.com
100
AcDbCircle
 10
10806.01728202581
 20
29824.90614899891
 30
0.0
 40
0.6366014012691445
100
AcDbArc
 50
5.543306714832555
 51
49.02227082321754
  0
ARC
  5
BEA5
330
1F
100
AcDbEntity
  8
freecads.com
100
AcDbCircle
 10
10787.36863066392
 20
29823.09628782892
 30
0.0
 40
19.37287090915119
100
AcDbArc
 50
357.2957389026166
 51
5.543227438611957
  0
ARC
  5
BEA6
330
1F
100
AcDbEntity
  8
freecads.com
100
AcDbCircle
 10
10798.96472380241
 20
29822.54856383574
 30
0.0
 40
7.76384951847431
100
AcDbArc
 50
340.9682366889463
 51
357.2957521583745
  0
ARC
  5
BEA7
330
1F
100
AcDbEntity
  8
freecads.com
100
AcDbCircle
 10
10798.99506776081
 20
29822.53809932491
 30
0.0
 40
7.731751827084186
100
AcDbArc
 50
324.5992037578854
 51
340.9682186719765
  0
ARC
  5
BEA8
330
1F
100
AcDbEntity
  8
freecads.com
100
AcDbCircle
 10
10789.72196919771
 20
29829.1283729211
 30
0.0
 40
19.1081336347355
100
AcDbArc
 50
316.2715289607707
 51
324.59912674226
  0
ARC
  5
BEA9
330
1F
100
AcDbEntity
  8
freecads.com
100
AcDbCircle
 10
10831.45033899216
 20
29789.21213221397
 30
0.0
 40
38.63754254879199
100
AcDbArc
 50
136.271470700728
 51
138.7227198563602
  0
ARC
  5
BEAA
330
1F
100
AcDbEntity
  8
freecads.com
100
AcDbCircle
 10
10821.06112540258
 20
29798.3319577173
 30
0.0
 40
24.81339786564138
100
AcDbArc
 50
138.7226766341523
 51
142.1383980792537
  0
ARC
  5
BEAB
330
1F
100
AcDbEntity
  8
freecads.com
100
AcDbCircle
 10
10822.77972550657
 20
29796.99589903634
 30
0.0
 40
26.9902394116196
100
AcDbArc
 50
142.1383749554693
 51
144.7197844263708
  0
ARC
  5
BEAC
330
1F
100
AcDbEntity
  8
freecads.com
100
AcDbCircle
 10
10801.33282163
 20
29812.17003664697
 30
0.0
 40
0.7181222887674551
100
AcDbArc
 50
144.7197068184551
 51
180.000013448394
  0
ARC
  5
BEAD
330
1F
100
AcDbEntity
  8
freecads.com
100
AcDbCircle
 10
10801.44609083088
 20
29812.17003642023
 30
0.0
 40
0.8313914896482421
100
AcDbArc
 50
179.9999959900153
 51
268.4039519928678
  0
ARC
  5
BEAE
330
1F
100
AcDbEntity
  8
freecads.com
100
AcDbCircle
 10
10802.06389277739
 20
29834.34260537995
 30
0.0
 40
23.01256579397378
100
AcDbArc
 50
268.4039605386101
 51
276.4880199826341
  0
ARC
  5
BEAF
330
1F
100
AcDbEntity
  8
freecads.com
100
AcDbCircle
 10
10801.99460485776
 20
29834.95182896761
 30
0.0
 40
23.625716832097
100
AcDbArc
 50
276.4880312912859
 51
284.8868101519256
  0
ARC
  5
BEB0
330
1F
100
AcDbEntity
  8
freecads.com
100
AcDbCircle
 10
10807.15455069605
 20
29815.54134572241
 30
0.0
 40
3.54109831776009
100
AcDbArc
 50
284.8868091713152
 51
318.9885780174686
  0
ARC
  5
BEB1
330
1F
100
AcDbEntity
  8
freecads.com
100
AcDbCircle
 10
10805.57397790365
 20
29816.91586784392
 30
0.0
 40
5.635739436082394
100
AcDbArc
 50
318.9885943583072
 51
355.4536045496466
  0
ARC
  5
BEB2
330
1F
100
AcDbEntity
  8
freecads.com
100
AcDbCircle
 10
10701.40146327098
 20
29825.19928880101
 30
0.0
 40
110.1370689378977
100
AcDbArc
 50
355.4536126948802
 51
359.6501740496802
  0
ARC
  5
BEB3
330
1F
100
AcDbEntity
  8
freecads.com
100
AcDbCircle
 10
10720.5180311072
 20
29825.08267007438
 30
0.0
 40
91.02014539482105
100
AcDbArc
 50
359.6501103973339
 51
4.838846200936131
  0
ARC
  5
BEB4
330
1F
100
AcDbEntity
  8
freecads.com
100
AcDbCircle
 10
10791.35993630405
 20
29831.07982673292
 30
0.0
 40
19.92484723872297
100
AcDbArc
 50
4.838777900123203
 51
20.8584345130316
  0
ARC
  5
BEB5
330
1F
100
AcDbEntity
  8
freecads.com
100
AcDbCircle
 10
10830.00270615231
 20
29845.80394603355
 30
0.0
 40
21.42806500122499
100
AcDbArc
 50
190.3922592970012
 51
200.8584168257566
  0
ARC
  5
BEB6
330
1F
100
AcDbEntity
  8
freecads.com
100
AcDbCircle
 10
10815.64460062875
 20
29843.17074871165
 30
0.0
 40
6.830499369866378
100
AcDbArc
 50
165.856374900332
 51
190.3922847268407
  0
ARC
  5
BEB7
330
1F
100
AcDbEntity
  8
freecads.com
100
AcDbCircle
 10
10812.51584269179
 20
29843.95917409625
 30
0.0
 40
3.60393140759516
100
AcDbArc
 50
129.5129623235521
 51
165.8564162535411
  0
ARC
  5
BEB8
330
1F
100
AcDbEntity
  8
freecads.com
100
AcDbCircle
 10
10812.83683050884
 20
29843.56996562346
 30
0.0
 40
4.108427605782273
100
AcDbArc
 50
96.56462598405738
 51
129.5129751972121
  0
ARC
  5
BEB9
330
1F
100
AcDbEntity
  8
freecads.com
100
AcDbCircle
 10
10811.89831070477
 20
29851.72538148337
 30
0.0
 40
4.100812753144895
100
AcDbArc
 50
276.5647388892632
 51
306.7689303900914
  0
ARC
  5
BEBA
330
1F
100
AcDbEntity
  8
freecads.com
100
AcDbCircle
 10
10812.72756029189
 20
29850.61564536363
 30
0.0
 40
2.715471952772714
100
AcDbArc
 50
306.7689460156322
 51
347.8786884927648
  0
ARC
  5
BEBB
330
1F
100
AcDbEntity
  8
freecads.com
100
AcDbCircle
 10
10810.52665401885
 20
29851.08834184
 30
0.0
 40
4.966567326457105
100
AcDbArc
 50
347.8786126728759
 51
16.05096543790757
  0
ARC
  5
BEBC
330
1F
100
AcDbEntity
  8
freecads.com
100
AcDbCircle
 10
10799.00544975673
 20
29847.77360597848
 30
0.0
 40
16.955129437119
100
AcDbArc
 50
16.0509327822235
 51
27.3444066763453
  0
ARC
  5
BEBD
330
1F
100
AcDbEntity
  8
freecads.com
100
AcDbCircle
 10
10829.02435915094
 20
29863.29700771475
 30
0.0
 40
16.84000220463395
100
AcDbArc
 50
199.6987508357867
 51
207.3444413963916
  0
ARC
  5
BEBE
330
1F
100
AcDbEntity
  8
freecads.com
100
AcDbCircle
 10
10817.38318522764
 20
29859.12915229265
 30
0.0
 40
4.475215545251975
100
AcDbArc
 50
179.2116079863297
 51
199.6987743887139
  0
ARC
  5
BEBF
330
1F
100
AcDbEntity
  8
freecads.com
100
AcDbCircle
 10
10820.81855916149
 20
29859.08188258024
 30
0.0
 40
7.910914672221489
100
AcDbArc
 50
165.328687657425
 51
179.2116379802614
  0
ARC
  5
BEC0
330
1F
100
AcDbEntity
  8
freecads.com
100
AcDbCircle
 10
10909.55348422881
 20
29835.85017971385
 30
0.0
 40
99.63658689530637
100
AcDbArc
 50
163.1549444551915
 51
165.3286811447428
  0
ARC
  5
BEC1
330
1F
100
AcDbEntity
  8
freecads.com
100
AcDbCircle
 10
10768.29644588063
 20
29878.61941647216
 30
0.0
 40
47.9532450572683
100
AcDbArc
 50
343.1549578753659
 51
347.5794757549379
  0
ARC
  5
BEC2
330
1F
100
AcDbEntity
  8
freecads.com
100
AcDbCircle
 10
10799.67652169711
 20
29871.70827457678
 30
0.0
 40
15.82112653785242
100
AcDbArc
 50
347.5794744015404
 51
357.692943541835
  0
ARC
  5
BEC3
330
1F
100
AcDbEntity
  8
freecads.com
100
AcDbCircle
 10
10794.18718053531
 20
29871.92942536851
 30
0.0
 40
21.31492067881136
100
AcDbArc
 50
357.6929464346274
 51
6.023061902176448
  0
ARC
  5
BEC4
330
1F
100
AcDbEntity
  8
freecads.com
100
AcDbCircle
 10
10687.39666455748
 20
29860.66180628422
 30
0.0
 40
128.6982226518886
100
AcDbArc
 50
6.023072108547417
 51
8.22705821010148
  0
ARC
  5
BEC5
330
1F
100
AcDbEntity
  8
freecads.com
100
AcDbCircle
 10
10656.28400039909
 20
29856.16337012991
 30
0.0
 40
160.1344087893008
100
AcDbArc
 50
8.22707008081452
 51
10.13749630251128
  0
ARC
  5
BEC6
330
1F
100
AcDbEntity
  8
freecads.com
100
AcDbCircle
 10
10776.2520110552
 20
29877.61392459479
 30
0.0
 40
38.26378120564302
100
AcDbArc
 50
10.13751794088223
 51
15.67075651793803
  0
ARC
  5
BEC7
330
1F
100
AcDbEntity
  8
freecads.com
100
AcDbCircle
 10
10791.0146336854
 20
29881.75533690537
 30
0.0
 40
22.93125620665153
100
AcDbArc
 50
15.67086438968745
 51
23.17186933174615
  0
ARC
  5
BEC8
330
1F
100
AcDbEntity
  8
freecads.com
100
AcDbCircle
 10
10790.60452997674
 20
29881.57977721542
 30
0.0
 40
23.3773573789991
100
AcDbArc
 50
23.17193085105447
 51
30.5653334265524
  0
ARC
  5
BEC9
330
1F
100
AcDbEntity
  8
freecads.com
100
AcDbCircle
 10
10815.95242859599
 20
29896.5497987669
 30
0.0
 40
6.061010606736832
100
AcDbArc
 50
200.4862512375292
 51
210.5654095837245
  0
ARC
  5
BECA
330
1F
100
AcDbEntity
  8
freecads.com
100
AcDbCircle
 10
10915.3429982734
 20
29933.68329016039
 30
0.0
 40
112.1618189159562
100
AcDbArc
 50
199.2817052971878
 51
200.4862806734015
  0
ARC
  5
BECB
330
1F
100
AcDbEntity
  8
freecads.com
100
AcDbCircle
 10
10915.807737968
 20
29933.84579700162
 30
0.0
 40
112.6541515799645
100
AcDbArc
 50
197.8527305332539
 51
199.2816687576907
  0
ARC
  5
BECC
330
1F
100
AcDbEntity
  8
freecads.com
100
AcDbCircle
 10
10949.32462489547
 20
29944.64093891826
 30
0.0
 40
147.8666038988398
100
AcDbArc
 50
196.68734836598
 51
197.8527344769416
  0
ARC
  5
BECD
330
1F
100
AcDbEntity
  8
freecads.com
100
AcDbCircle
 10
10755.20652902296
 20
29886.44931873389
 30
0.0
 40
54.78605412686984
100
AcDbArc
 50
16.68746775111672
 51
20.36508274260466
  0
ARC
  5
BECE
330
1F
100
AcDbEntity
  8
freecads.com
100
AcDbCircle
 10
10784.09990907988
 20
29897.1745884233
 30
0.0
 40
23.96627442258735
100
AcDbArc
 50
20.36517909893358
 51
27.18777786561902
  0
ARC
  5
BECF
330
1F
100
AcDbEntity
  8
freecads.com
100
AcDbCircle
 10
10791.5815418
 20
29901.01758957669
 30
0.0
 40
15.55535972658935
100
AcDbArc
 50
27.1878385384632
 51
35.69029626006788
  0
ARC
  5
BED0
330
1F
100
AcDbEntity
  8
freecads.com
100
AcDbCircle
 10
10798.848753181
 20
29906.23774738673
 30
0.0
 40
6.607599737759141
100
AcDbArc
 50
35.69027679067256
 51
51.81141925732462
  0
ARC
  5
BED1
330
1F
100
AcDbEntity
  8
freecads.com
100
AcDbCircle
 10
10793.15227575568
 20
29898.99585831429
 30
0.0
 40
15.821437830253
100
AcDbArc
 50
51.81139245061097
 51
61.82833273800133
  0
ARC
  5
BED2
330
1F
100
AcDbEntity
  8
freecads.com
100
AcDbCircle
 10
10799.05336542522
 20
29910.01442407367
 30
0.0
 40
3.322171824529168
100
AcDbArc
 50
61.82833102547949
 51
93.69913013276621
  0
ARC
  5
BED3
330
1F
100
AcDbEntity
  8
freecads.com
100
AcDbCircle
 10
10799.05659594933
 20
29909.96449464858
 30
0.0
 40
3.372205650791855
100
AcDbArc
 50
93.69917242284996
 51
125.2570187501633
  0
ARC
  5
BED4
330
1F
100
AcDbEntity
  8
freecads.com
100
AcDbCircle
 10
10806.61096490276
 20
29899.27811391395
 30
0.0
 40
16.45911603827288
100
AcDbArc
 50
125.2570717326763
 51
134.9999606086422
  0
ARC
  5
BED5
330
1F
100
AcDbEntity
  8
freecads.com
100
AcDbCircle
 10
10809.26621518288
 20
29873.09311973957
 30
0.0
 40
2.188223361134068
100
AcDbArc
 50
325.8098361033554
 51
338.1903977755605
  0
ARC
  5
BED6
330
1F
100
AcDbEntity
  8
freecads.com
100
AcDbCircle
 10
10810.97800776961
 20
29871.93021647251
 30
0.0
 40
0.1187843384754524
100
AcDbArc
 50
224.9998518784309
 51
325.809743565557
  0
ARC
  5
BED7
330
1F
100
AcDbEntity
  8
freecads.com
100
AcDbCircle
 10
10811.2433112211
 20
29872.19552086722
 30
0.0
 40
0.4939807446767798
100
AcDbArc
 50
186.6883556029597
 51
225.0000417406795
  0
ARC
  5
BED8
330
1F
100
AcDbEntity
  8
freecads.com
100
AcDbCircle
 10
10820.59477640168
 20
29873.29214984599
 30
0.0
 40
9.909526195719921
100
AcDbArc
 50
182.3587481227213
 51
186.6884187974994
  0
ARC
  5
BED9
330
1F
100
AcDbEntity
  8
freecads.com
100
AcDbCircle
 10
10816.80339578354
 20
29873.13596837488
 30
0.0
 40
6.114930085019143
100
AcDbArc
 50
175.8312224239777
 51
182.3586547177437
  0
ARC
  5
BEDA
330
1F
100
AcDbEntity
  8
freecads.com
100
AcDbCircle
 10
10812.30663606258
 20
29873.46372390538
 30
0.0
 40
1.606241619858596
100
AcDbArc
 50
158.1903144832945
 51
175.8311403328879
  0
ARC
  5
BEDB
330
1F
100
AcDbEntity
  8
freecads.com
100
AcDbCircle
 10
10811.11740861929
 20
29873.93961455302
 30
0.0
 40
0.3253302956875309
100
AcDbArc
 50
111.1533207511625
 51
158.1903795259918
  0
ARC
  5
BEDC
330
1F
100
AcDbEntity
  8
freecads.com
100
AcDbCircle
 10
10811.07396055666
 20
29874.05190412233
 30
0.0
 40
0.2049281299241642
100
AcDbArc
 50
45.00011298646387
 51
111.1535757084651
  0
ARC
  5
BEDD
330
1F
100
AcDbEntity
  8
freecads.com
100
AcDbCircle
 10
10810.67947351078
 20
29873.65741838515
 30
0.0
 40
0.762816135001936
100
AcDbArc
 50
16.17162320127922
 51
44.9999608471928
  0
ARC
  5
BEDE
330
1F
100
AcDbEntity
  8
freecads.com
100
AcDbCircle
 10
10809.44843942095
 20
29873.30042646665
 30
0.0
 40
2.044568123567749
100
AcDbArc
 50
2.358668642342899
 51
16.17174466379042
  0
ARC
  5
BEDF
330
1F
100
AcDbEntity
  8
freecads.com
100
AcDbCircle
 10
10808.90597262522
 20
29873.27808258079
 30
0.0
 40
2.587494889992566
100
AcDbArc
 50
349.9605066273064
 51
2.35866387897765
  0
ARC
  5
BEE0
330
1F
100
AcDbEntity
  8
freecads.com
100
AcDbCircle
 10
10808.72309269708
 20
29873.31046356814
 30
0.0
 40
2.773219407601871
100
AcDbArc
 50
338.1903068148806
 51
349.9604185480412
  0
ARC
  5
BEE1
330
1F
100
AcDbEntity
  8
freecads.com
100
AcDbCircle
 10
10788.11661411248
 20
29842.76920984339
 30
0.0
 40
13.32185991243722
100
AcDbArc
 50
10.47201774199748
 51
15.00214871912001
  0
ARC
  5
BEE2
330
1F
100
AcDbEntity
  8
freecads.com
100
AcDbCircle
 10
10775.43069721721
 20
29840.42441049725
 30
0.0
 40
26.22265723071808
100
AcDbArc
 50
7.742829602147716
 51
10.47204233703682
  0
ARC
  5
BEE3
330
1F
100
AcDbEntity
  8
freecads.com
100
AcDbCircle
 10
10775.543063983
 20
29840.43971831316
 30
0.0
 40
26.10925256408832
100
AcDbArc
 50
5.011031645088779
 51
7.742765036324367
  0
ARC
  5
BEE4
330
1F
100
AcDbEntity
  8
freecads.com
100
AcDbCircle
 10
10788.84724922307
 20
29841.60625947127
 30
0.0
 40
12.75402275792126
100
AcDbArc
 50
0.3423250970496863
 51
5.011056019321438
  0
ARC
  5
BEE5
330
1F
100
AcDbEntity
  8
freecads.com
100
AcDbCircle
 10
10806.56489738575
 20
29841.71212146629
 30
0.0
 40
4.963941661800407
100
AcDbArc
 50
180.3423608999025
 51
192.5636416811703
  0
ARC
  5
BEE6
330
1F
100
AcDbEntity
  8
freecads.com
100
AcDbCircle
 10
10813.60125316902
 20
29843.2802283056
 30
0.0
 40
12.17291258476491
100
AcDbArc
 50
192.563561214746
 51
198.8168745805889
  0
ARC
  5
BEE7
330
1F
100
AcDbEntity
  8
freecads.com
100
AcDbCircle
 10
10814.38256918213
 20
29843.54644643762
 30
0.0
 40
12.99833781203829
100
AcDbArc
 50
198.816789718041
 51
204.950556848466
  0
ARC
  5
BEE8
330
1F
100
AcDbEntity
  8
freecads.com
100
AcDbCircle
 10
10810.49013975239
 20
29841.73547237154
 30
0.0
 40
8.705246392856141
100
AcDbArc
 50
204.9506039517792
 51
213.233798573196
  0
ARC
  5
BEE9
330
1F
100
AcDbEntity
  8
freecads.com
100
AcDbCircle
 10
10785.32082336395
 20
29825.24391241629
 30
0.0
 40
21.385716323871
100
AcDbArc
 50
25.06300474313792
 51
33.2338153982
  0
ARC
  5
BEEA
330
1F
100
AcDbEntity
  8
freecads.com
100
AcDbCircle
 10
10804.27676119817
 20
29834.10860189204
 30
0.0
 40
0.459409944665591
100
AcDbArc
 50
262.6513237351951
 51
25.06297967433173
  0
ARC
  5
BEEB
330
1F
100
AcDbEntity
  8
freecads.com
100
AcDbCircle
 10
10804.60019392951
 20
29836.61649584998
 30
0.0
 40
2.988073788662672
100
AcDbArc
 50
227.2238071879792
 51
262.6513561321408
  0
ARC
  5
BEEC
330
1F
100
AcDbEntity
  8
freecads.com
100
AcDbCircle
 10
10846.71977318344
 20
29882.13955339447
 30
0.0
 40
65.0074878839818
100
AcDbArc
 50
223.4404103549666
 51
227.2238798927746
  0
ARC
  5
BEED
330
1F
100
AcDbEntity
  8
freecads.com
100
AcDbCircle
 10
10890.86364795801
 20
29923.94343301394
 30
0.0
 40
125.804247923893
100
AcDbArc
 50
221.5183218754372
 51
223.4404356191462
  0
ARC
  5
BEEE
330
1F
100
AcDbEntity
  8
freecads.com
100
AcDbCircle
 10
10800.68693980747
 20
29844.11039291299
 30
0.0
 40
5.366907432556428
100
AcDbArc
 50
202.5571053714454
 51
221.518276057029
  0
ARC
  5
BEEF
330
1F
100
AcDbEntity
  8
freecads.com
100
AcDbCircle
 10
10797.85620976851
 20
29842.93455860708
 30
0.0
 40
2.301680056248414
100
AcDbArc
 50
168.0895997687956
 51
202.557087421336
  0
ARC
  5
BEF0
330
1F
100
AcDbEntity
  8
freecads.com
100
AcDbCircle
 10
10806.24724219197
 20
29841.16471806879
 30
0.0
 40
10.87732934143839
100
AcDbArc
 50
157.1947502332591
 51
168.089693390737
  0
ARC
  5
BEF1
330
1F
100
AcDbEntity
  8
freecads.com
100
AcDbCircle
 10
10805.19115049599
 20
29841.60877284788
 30
0.0
 40
9.731679169196212
100
AcDbArc
 50
142.7371533028296
 51
157.1947547912985
  0
ARC
  5
BEF2
330
1F
100
AcDbEntity
  8
freecads.com
100
AcDbCircle
 10
10799.24163038166
 20
29846.13499953789
 30
0.0
 40
2.25615125203768
100
AcDbArc
 50
99.96282964361652
 51
142.7371688085864
  0
ARC
  5
BEF3
330
1F
100
AcDbEntity
  8
freecads.com
100
AcDbCircle
 10
10799.08327489399
 20
29847.0365024168
 30
0.0
 40
1.340845892529396
100
AcDbArc
 50
39.92356278853622
 51
99.96286469436526
  0
ARC
  5
BEF4
330
1F
100
AcDbEntity
  8
freecads.com
100
AcDbCircle
 10
10796.74810091374
 20
29845.08235376925
 30
0.0
 40
4.385798183577736
100
AcDbArc
 50
15.00218576809572
 51
39.92364147708525
  0
ENDSEC
  0
SECTION
  2
OBJECTS
  0
DICTIONARY
  5
C
330
0
100
AcDbDictionary
281
     1
  3
ACAD_CIP_PREVIOUS_PRODUCT_INFO
350
1A5
  3
ACAD_COLOR
350
73
  3
ACAD_DETAILVIEWSTYLE
350
1AB
  3
ACAD_GROUP
350
D
  3
ACAD_LAYOUT
350
1A
  3
ACAD_MATERIAL
350
72
  3
ACAD_MLEADERSTYLE
350
D7
  3
ACAD_MLINESTYLE
350
17
  3
ACAD_PLOTSETTINGS
350
19
  3
ACAD_PLOTSTYLENAME
350
E
  3
ACAD_SCALELIST
350
B6
  3
ACAD_SECTIONVIEWSTYLE
350
1A8
  3
ACAD_TABLESTYLE
350
86
  3
ACAD_VISUALSTYLE
350
99
  3
ACDB_RECOMPOSE_DATA
350
BF4C
  3
AcDbVariableDictionary
350
66
  3
AEC_PROPERTY_SET_DEFS
350
268B
  0
DICTIONARY
  5
18E
330
2
100
AcDbDictionary
280
     1
281
     1
  3
ACAD_LAYERSTATES
360
18F
  0
DICTIONARY
  5
E6
330
10
100
AcDbDictionary
280
     1
281
     1
  0
DICTIONARY
  5
15D
330
1F
100
AcDbDictionary
280
     1
281
     1
  3
ACAD_SORTENTS
360
28E
  0
XRECORD
  5
1A5
102
{ACAD_REACTORS
330
C
102
}
330
C
100
AcDbXrecord
280
     1
300
ACD
300
2022
300

  0
DICTIONARY
  5
73
102
{ACAD_REACTORS
330
C
102
}
330
C
100
AcDbDictionary
281
     1
  0
DICTIONARY
  5
1AB
102
{ACAD_REACTORS
330
C
102
}
330
C
100
AcDbDictionary
281
     1
  3
Imperial24
350
1AC
  3
Metric50
350
224
  0
DICTIONARY
  5
D
102
{ACAD_REACTORS
330
C
102
}
330
C
100
AcDbDictionary
281
     1
  0
DICTIONARY
  5
1A
102
{ACAD_REACTORS
330
C
102
}
330
C
100
AcDbDictionary
281
     1
  3
Layout1
350
59
  3
Layout2
350
5E
  3
Model
350
22
  0
DICTIONARY
  5
72
102
{ACAD_REACTORS
330
C
102
}
330
C
100
AcDbDictionary
281
     1
  3
ByBlock
350
97
  3
ByLayer
350
96
  3
Global
350
98
  0
DICTIONARY
  5
D7
102
{ACAD_REACTORS
330
C
102
}
330
C
100
AcDbDictionary
281
     1
  3
Standard
350
D8
  0
DICTIONARY
  5
17
102
{ACAD_REACTORS
330
C
102
}
330
C
100
AcDbDictionary
281
     1
  3
Standard
350
18
  0
DICTIONARY
  5
19
102
{ACAD_REACTORS
330
C
102
}
330
C
100
AcDbDictionary
281
     1
  0
ACDBDICTIONARYWDFLT
  5
E
102
{ACAD_REACTORS
330
C
102
}
330
C
100
AcDbDictionary
281
     1
  3
Normal
350
F
100
AcDbDictionaryWithDefault
340
F
  0
DICTIONARY
  5
B6
102
{ACAD_REACTORS
330
C
102
}
330
C
100
AcDbDictionary
281
     1
  3
*A1
350
47D1
  3
*A2
350
8BD6
  3
A0
350
B7
  3
A1
350
124
  3
A2
350
125
  3
A3
350
126
  3
A4
350
127
  3
A5
350
128
  3
A6
350
129
  3
A7
350
12A
  3
A8
350
12B
  3
A9
350
12C
  3
B0
350
12D
  3
B1
350
12E
  3
B2
350
12F
  3
B3
350
130
  3
B4
350
131
  3
B5
350
132
  3
B6
350
133
  3
B7
350
134
  3
B8
350
135
  3
B9
350
136
  3
C0
350
137
  3
C1
350
138
  3
C2
350
139
  3
C3
350
13A
  3
C4
350
13B
  3
C5
350
13C
  3
C6
350
13D
  3
C7
350
13E
  3
C8
350
13F
  3
C9
350
140
  3
D0
350
141
  3
D1
350
142
  3
D2
350
143
  0
DICTIONARY
  5
1A8
102
{ACAD_REACTORS
330
C
102
}
330
C
100
AcDbDictionary
281
     1
  3
Imperial24
350
1AA
  3
Metric50
350
223
  0
DICTIONARY
  5
86
102
{ACAD_REACTORS
330
C
102
}
330
C
100
AcDbDictionary
281
     1
  3
Standard
350
87
  0
DICTIONARY
  5
99
102
{ACAD_REACTORS
330
C
102
}
330
C
100
AcDbDictionary
281
     1
  3
2dWireframe
350
9F
  3
3dWireframe
350
2684
  3
Basic
350
9E
  3
Brighten
350
A5
  3
ColorChange
350
A9
  3
Conceptual
350
A2
  3
Dim
350
A4
  3
EdgeColorOff
350
175
  3
Facepattern
350
A8
  3
Flat
350
9A
  3
FlatWithEdges
350
9B
  3
Gouraud
350
9C
  3
GouraudWithEdges
350
9D
  3
Hidden
350
A1
  3
JitterOff
350
173
  3
Linepattern
350
A7
  3
OverhangOff
350
174
  3
Realistic
350
A3
  3
Shaded
350
182
  3
Shaded with edges
350
181
  3
Shades of Gray
350
17E
  3
Sketchy
350
17F
  3
Thicken
350
A6
  3
Wireframe
350
A0
  3
X-Ray
350
180
  0
XRECORD
  5
BF4C
102
{ACAD_REACTORS
330
C
102
}
330
C
100
AcDbXrecord
280
     1
 90
        1
330
87
  0
DICTIONARY
  5
66
102
{ACAD_REACTORS
330
C
102
}
330
C
100
AcDbDictionary
281
     1
  3
CANNOSCALE
350
F0
  3
CMLEADERSTYLE
350
EF
  3
CTABLESTYLE
350
89
  3
CVIEWDETAILSTYLE
350
1B7
  3
CVIEWSECTIONSTYLE
350
1B8
  3
DIMASSOC
350
67
  3
HIDETEXT
350
6B
  3
LAYEREVAL
350
14D
  3
LAYERNOTIFY
350
14E
  0
DICTIONARY
  5
268B
102
{ACAD_REACTORS
330
C
102
}
330
C
100
AcDbDictionary
281
     1
  0
DICTIONARY
  5
18F
102
{ACAD_REACTORS
330
18E
102
}
330
18E
100
AcDbDictionary
281
     1
  0
SORTENTSTABLE
  5
28E
102
{ACAD_REACTORS
330
15D
102
}
330
15D
100
AcDbSortentsTable
330
1F
  0
ACDBDETAILVIEWSTYLE
  5
1AC
102
{ACAD_REACTORS
330
1AB
102
}
330
1AB
100
AcDbModelDocViewStyle
 70
     0
  3
Imperial24
290
     0
300
Imperial24
 90
        0
100
AcDbDetailViewStyle
 70
     0
 71
     0
 90
        3
 71
     1
340
11
 62
   256
 40
0.24
340
0
 62
   256
 40
0.24
300

 40
0.36
280
     3
 71
     2
340
16
 90
       25
 62
   256
 71
     3
340
11
 62
   256
 40
0.24
 90
        1
 40
0.75
 90
        1
300
%<\AcVar ViewType \f "%tc1">% %<\AcVar ViewDetailId>%\PSCALE %<\AcVar ViewScale \f "%sn">%
 71
     4
340
16
 90
       25
 62
   256
340
16
 90
       25
 62
   256
280
     0
  0
ACDBDETAILVIEWSTYLE
  5
224
102
{ACAD_REACTORS
330
1AB
102
}
330
1AB
100
AcDbModelDocViewStyle
 70
     0
  3
Metric50
290
     0
300
Metric50
 90
        0
100
AcDbDetailViewStyle
 70
     0
 71
     0
 90
        3
 71
     1
340
11
 62
   256
 40
5.0
340
0
 62
   256
 40
5.0
300

 40
0.0
280
     1
 71
     2
340
16
 90
       25
 62
   256
 71
     3
340
11
 62
   256
 40
5.0
 90
        0
 40
15.0
 90
        1
300
%<\AcVar ViewDetailId>% (%<\AcVar ViewScale \f "%sn">%)
 71
     4
340
16
 90
       25
 62
   256
340
16
 90
       25
 62
   256
280
     0
  0
LAYOUT
  5
59
102
{ACAD_REACTORS
330
1A
102
}
330
1A
100
AcDbPlotSettings
  1

  2
None
  4

  6

 40
0.0
 41
0.0
 42
0.0
 43
0.0
 44
0.0
 45
0.0
 46
0.0
 47
0.0
 48
0.0
 49
0.0
140
0.0
141
0.0
142
1.0
143
1.0
 70
   688
 72
     0
 73
     0
 74
     5
  7

 75
    16
147
1.0
 76
     0
 77
     2
 78
   300
148
0.0
149
0.0
100
AcDbLayout
  1
Layout1
 70
     1
 71
     1
 10
0.0
 20
0.0
 11
12.0
 21
9.0
 12
0.0
 22
0.0
 32
0.0
 14
0.0
 24
0.0
 34
0.0
 15
0.0
 25
0.0
 35
0.0
146
0.0
 13
0.0
 23
0.0
 33
0.0
 16
1.0
 26
0.0
 36
0.0
 17
0.0
 27
1.0
 37
0.0
 76
     0
330
58
  0
LAYOUT
  5
5E
102
{ACAD_REACTORS
330
1A
102
}
330
1A
100
AcDbPlotSettings
  1

  2
None
  4

  6

 40
0.0
 41
0.0
 42
0.0
 43
0.0
 44
0.0
 45
0.0
 46
0.0
 47
0.0
 48
0.0
 49
0.0
140
0.0
141
0.0
142
1.0
143
1.0
 70
   688
 72
     0
 73
     0
 74
     5
  7

 75
    16
147
1.0
 76
     0
 77
     2
 78
   300
148
0.0
149
0.0
100
AcDbLayout
  1
Layout2
 70
     1
 71
     2
 10
0.0
 20
0.0
 11
12.0
 21
9.0
 12
0.0
 22
0.0
 32
0.0
 14
0.0
 24
0.0
 34
0.0
 15
0.0
 25
0.0
 35
0.0
146
0.0
 13
0.0
 23
0.0
 33
0.0
 16
1.0
 26
0.0
 36
0.0
 17
0.0
 27
1.0
 37
0.0
 76
     0
330
5D
  0
LAYOUT
  5
22
102
{ACAD_XDICTIONARY
360
194
102
}
102
{ACAD_REACTORS
330
1A
102
}
330
1A
100
AcDbPlotSettings
  1

  2
none_device
  4
ANSI_A_(8.50_x_11.00_Inches)
  6

 40
6.349999904632568
 41
19.04999923706055
 42
6.350006103515625
 43
19.04998779296875
 44
215.8999938964844
 45
279.3999938964844
 46
0.0
 47
0.0
 48
0.0
 49
0.0
140
0.0
141
0.0
142
1.0
143
2.584895464708373
 70
 11952
 72
     0
 73
     1
 74
     0
  7

 75
     0
147
0.3868628397755418
 76
     0
 77
     2
 78
   300
148
0.0
149
0.0
100
AcDbLayout
  1
Model
 70
     1
 71
     0
 10
0.0
 20
0.0
 11
12.0
 21
9.0
 12
0.0
 22
0.0
 32
0.0
 14
0.0
 24
0.0
 34
0.0
 15
0.0
 25
0.0
 35
0.0
146
0.0
 13
0.0
 23
0.0
 33
0.0
 16
1.0
 26
0.0
 36
0.0
 17
0.0
 27
1.0
 37
0.0
 76
     0
330
1F
331
94
  0
MATERIAL
  5
97
102
{ACAD_XDICTIONARY
360
188
102
}
102
{ACAD_REACTORS
330
72
102
}
330
72
100
AcDbMaterial
  1
ByBlock
 94
       63
  0
MATERIAL
  5
96
102
{ACAD_XDICTIONARY
360
186
102
}
102
{ACAD_REACTORS
330
72
102
}
330
72
100
AcDbMaterial
  1
ByLayer
 94
       63
  0
MATERIAL
  5
98
102
{ACAD_XDICTIONARY
360
110
102
}
102
{ACAD_REACTORS
330
72
102
}
330
72
100
AcDbMaterial
  1
Global
 43
0.0208000000566244
 43
0.0
 43
0.0
 43
0.0
 43
0.0
 43
0.0208000000566244
 43
0.0
 43
0.0
 43
0.0
 43
0.0
 43
1.0
 43
0.0
 43
0.0
 43
0.0
 43
0.0
 43
1.0
 49
0.0208000000566244
 49
0.0
 49
0.0
 49
0.0
 49
0.0
 49
0.0208000000566244
 49
0.0
 49
0.0
 49
0.0
 49
0.0
 49
1.0
 49
0.0
 49
0.0
 49
0.0
 49
0.0
 49
1.0
142
0.0208000000566244
142
0.0
142
0.0
142
0.0
142
0.0
142
0.0208000000566244
142
0.0
142
0.0
142
0.0
142
0.0
142
1.0
142
0.0
142
0.0
142
0.0
142
0.0
142
1.0
144
0.0208000000566244
144
0.0
144
0.0
144
0.0
144
0.0
144
0.0208000000566244
144
0.0
144
0.0
144
0.0
144
0.0
144
1.0
144
0.0
144
0.0
144
0.0
144
0.0
144
1.0
 94
       63
1001
ACAD
1070
    -1
1070
     3
1070
     0
1000

1071
        0
1070
     0
  0
MLEADERSTYLE
  5
D8
102
{ACAD_REACTORS
330
D7
102
}
330
D7
100
AcDbMLeaderStyle
179
     2
170
     2
171
     1
172
     0
 90
        2
 40
0.0
 41
0.0
173
     1
 91
-1056964608
340
14
 92
       -2
290
     1
 42
0.09
291
     1
 43
0.36
  3
Standard
 44
0.18
300

342
11
174
     1
178
     1
175
     1
176
     0
 93
-1056964608
 45
0.18
292
     0
297
     0
 46
0.18
 94
-1056964608
 47
1.0
 49
1.0
140
1.0
293
     1
141
0.0
294
     1
177
     0
142
1.0
295
     0
296
     0
143
0.125
271
     0
272
     9
273
     9
298
     0
  0
MLINESTYLE
  5
18
102
{ACAD_REACTORS
330
17
102
}
330
17
100
AcDbMlineStyle
  2
STANDARD
 70
     0
  3

 62
   256
 51
90.0
 52
90.0
 71
     2
 49
0.5
 62
   256
  6
BYLAYER
 49
-0.5
 62
   256
  6
BYLAYER
  0
ACDBPLACEHOLDER
  5
F
102
{ACAD_REACTORS
330
E
102
}
330
E
  0
SCALE
  5
47D1
102
{ACAD_REACTORS
330
B6
102
}
330
B6
100
AcDbScale
 70
     0
300
1:100_1_XREF_XREF_XREF_XREF
140
1.0
141
0.1
290
     0
  0
SCALE
  5
8BD6
102
{ACAD_REACTORS
330
B6
102
}
330
B6
100
AcDbScale
 70
     0
300
1:100_1_XREF_XREF_XREF_XREF_XREF_XREF_XREF_XREF_XREF
140
1.0
141
0.1
290
     0
1001
ACAD
1000
AcRTDxfName
1000
SCALE
1000
AcRTDxfName
1000
SCALE
1000
AcRTDxfName
1000
SCALE
1000
AcRTDxfName
1000
SCALE
  0
SCALE
  5
B7
102
{ACAD_REACTORS
330
B6
102
}
330
B6
100
AcDbScale
 70
     0
300
1:1
140
1.0
141
1.0
290
     1
  0
SCALE
  5
124
102
{ACAD_REACTORS
330
B6
102
}
330
B6
100
AcDbScale
 70
     0
300
1:2
140
1.0
141
2.0
290
     0
  0
SCALE
  5
125
102
{ACAD_REACTORS
330
B6
102
}
330
B6
100
AcDbScale
 70
     0
300
1:4
140
1.0
141
4.0
290
     0
  0
SCALE
  5
126
102
{ACAD_REACTORS
330
B6
102
}
330
B6
100
AcDbScale
 70
     0
300
1:5
140
1.0
141
5.0
290
     0
  0
SCALE
  5
127
102
{ACAD_REACTORS
330
B6
102
}
330
B6
100
AcDbScale
 70
     0
300
1:8
140
1.0
141
8.0
290
     0
  0
SCALE
  5
128
102
{ACAD_REACTORS
330
B6
102
}
330
B6
100
AcDbScale
 70
     0
300
1:10
140
1.0
141
10.0
290
     0
  0
SCALE
  5
129
102
{ACAD_REACTORS
330
B6
102
}
330
B6
100
AcDbScale
 70
     0
300
1:16
140
1.0
141
16.0
290
     0
  0
SCALE
  5
12A
102
{ACAD_REACTORS
330
B6
102
}
330
B6
100
AcDbScale
 70
     0
300
1:20
140
1.0
141
20.0
290
     0
  0
SCALE
  5
12B
102
{ACAD_REACTORS
330
B6
102
}
330
B6
100
AcDbScale
 70
     0
300
1:30
140
1.0
141
30.0
290
     0
  0
SCALE
  5
12C
102
{ACAD_REACTORS
330
B6
102
}
330
B6
100
AcDbScale
 70
     0
300
1:40
140
1.0
141
40.0
290
     0
  0
SCALE
  5
12D
102
{ACAD_REACTORS
330
B6
102
}
330
B6
100
AcDbScale
 70
     0
300
1:50
140
1.0
141
50.0
290
     0
  0
SCALE
  5
12E
102
{ACAD_REACTORS
330
B6
102
}
330
B6
100
AcDbScale
 70
     0
300
1:100
140
1.0
141
100.0
290
     0
  0
SCALE
  5
12F
102
{ACAD_REACTORS
330
B6
102
}
330
B6
100
AcDbScale
 70
     0
300
2:1
140
2.0
141
1.0
290
     0
  0
SCALE
  5
130
102
{ACAD_REACTORS
330
B6
102
}
330
B6
100
AcDbScale
 70
     0
300
4:1
140
4.0
141
1.0
290
     0
  0
SCALE
  5
131
102
{ACAD_REACTORS
330
B6
102
}
330
B6
100
AcDbScale
 70
     0
300
8:1
140
8.0
141
1.0
290
     0
  0
SCALE
  5
132
102
{ACAD_REACTORS
330
B6
102
}
330
B6
100
AcDbScale
 70
     0
300
10:1
140
10.0
141
1.0
290
     0
  0
SCALE
  5
133
102
{ACAD_REACTORS
330
B6
102
}
330
B6
100
AcDbScale
 70
     0
300
100:1
140
100.0
141
1.0
290
     0
  0
SCALE
  5
134
102
{ACAD_REACTORS
330
B6
102
}
330
B6
100
AcDbScale
 70
     0
300
1/128" = 1'-0"
140
0.0078125
141
12.0
290
     0
  0
SCALE
  5
135
102
{ACAD_REACTORS
330
B6
102
}
330
B6
100
AcDbScale
 70
     0
300
1/64" = 1'-0"
140
0.015625
141
12.0
290
     0
  0
SCALE
  5
136
102
{ACAD_REACTORS
330
B6
102
}
330
B6
100
AcDbScale
 70
     0
300
1/32" = 1'-0"
140
0.03125
141
12.0
290
     0
  0
SCALE
  5
137
102
{ACAD_REACTORS
330
B6
102
}
330
B6
100
AcDbScale
 70
     0
300
1/16" = 1'-0"
140
0.0625
141
12.0
290
     0
  0
SCALE
  5
138
102
{ACAD_REACTORS
330
B6
102
}
330
B6
100
AcDbScale
 70
     0
300
3/32" = 1'-0"
140
0.09375
141
12.0
290
     0
  0
SCALE
  5
139
102
{ACAD_REACTORS
330
B6
102
}
330
B6
100
AcDbScale
 70
     0
300
1/8" = 1'-0"
140
0.125
141
12.0
290
     0
  0
SCALE
  5
13A
102
{ACAD_REACTORS
330
B6
102
}
330
B6
100
AcDbScale
 70
     0
300
3/16" = 1'-0"
140
0.1875
141
12.0
290
     0
  0
SCALE
  5
13B
102
{ACAD_REACTORS
330
B6
102
}
330
B6
100
AcDbScale
 70
     0
300
1/4" = 1'-0"
140
0.25
141
12.0
290
     0
  0
SCALE
  5
13C
102
{ACAD_REACTORS
330
B6
102
}
330
B6
100
AcDbScale
 70
     0
300
3/8" = 1'-0"
140
0.375
141
12.0
290
     0
  0
SCALE
  5
13D
102
{ACAD_REACTORS
330
B6
102
}
330
B6
100
AcDbScale
 70
     0
300
1/2" = 1'-0"
140
0.5
141
12.0
290
     0
  0
SCALE
  5
13E
102
{ACAD_REACTORS
330
B6
102
}
330
B6
100
AcDbScale
 70
     0
300
3/4" = 1'-0"
140
0.75
141
12.0
290
     0
  0
SCALE
  5
13F
102
{ACAD_REACTORS
330
B6
102
}
330
B6
100
AcDbScale
 70
     0
300
1" = 1'-0"
140
1.0
141
12.0
290
     0
  0
SCALE
  5
140
102
{ACAD_REACTORS
330
B6
102
}
330
B6
100
AcDbScale
 70
     0
300
1-1/2" = 1'-0"
140
1.5
141
12.0
290
     0
  0
SCALE
  5
141
102
{ACAD_REACTORS
330
B6
102
}
330
B6
100
AcDbScale
 70
     0
300
3" = 1'-0"
140
3.0
141
12.0
290
     0
  0
SCALE
  5
142
102
{ACAD_REACTORS
330
B6
102
}
330
B6
100
AcDbScale
 70
     0
300
6" = 1'-0"
140
6.0
141
12.0
290
     0
  0
SCALE
  5
143
102
{ACAD_REACTORS
330
B6
102
}
330
B6
100
AcDbScale
 70
     0
300
1'-0" = 1'-0"
140
12.0
141
12.0
290
     0
  0
ACDBSECTIONVIEWSTYLE
  5
1AA
102
{ACAD_REACTORS
330
1A8
102
}
330
1A8
100
AcDbModelDocViewStyle
 70
     0
  3
Imperial24
290
     0
300
Imperial24
 90
        0
100
AcDbSectionViewStyle
 70
     0
 71
     0
 90
       78
 71
     1
340
11
 62
   256
 40
0.24
340
0
340
0
 62
   256
 40
0.24
300
I, O, Q, S, X, Z
 40
0.48
 90
        3
 40
0.18
 90
        1
 71
     2
340
16
 90
       25
 62
   256
340
16
 90
       50
 62
   256
 40
0.24
 40
0.0
 40
0.24
 71
     3
340
11
 62
   256
 40
0.24
 90
        1
 40
0.75
 90
        1
300
%<\AcVar ViewType \f "%tc1">% %<\AcVar ViewSectionStartId>%-%<\AcVar ViewSectionEndId>%\PSCALE %<\AcVar ViewScale \f "%sn">%
 71
     4
 62
   256
 62
   257
300
ANSI31
 40
1.0
 90
        0
290
     0
290
     0
 90
        6
 40
0.0
 40
1.570796326794896
 40
0.2617993877991494
 40
1.308996938995747
 40
-0.2617993877991494
 40
1.832595714594046
  0
ACDBSECTIONVIEWSTYLE
  5
223
102
{ACAD_REACTORS
330
1A8
102
}
330
1A8
100
AcDbModelDocViewStyle
 70
     0
  3
Metric50
290
     0
300
Metric50
 90
        0
100
AcDbSectionViewStyle
 70
     0
 71
     0
 90
      102
 71
     1
340
11
 62
   256
 40
5.0
340
0
340
0
 62
   256
 40
5.0
300
I, O, Q, S, X, Z
 40
10.0
 90
        0
 40
2.5
 90
        0
 71
     2
340
16
 90
       25
 62
   256
340
16
 90
       50
 62
   256
 40
5.0
 40
2.5
 40
5.0
 71
     3
340
11
 62
   256
 40
5.0
 90
        0
 40
15.0
 90
        1
300
%<\AcVar ViewSectionStartId>%-%<\AcVar ViewSectionEndId>% (%<\AcVar ViewScale \f "%sn">%)
 71
     4
 62
   256
 62
   257
300
ANSI31
 40
1.0
 90
        0
290
     0
290
     0
 90
        6
 40
0.0
 40
1.570796326794896
 40
0.2617993877991494
 40
1.308996938995747
 40
-0.2617993877991494
 40
1.832595714594046
  0
TABLESTYLE
  5
87
102
{ACAD_XDICTIONARY
360
104
102
}
102
{ACAD_REACTORS
330
86
102
}
330
86
100
AcDbTableStyle
280
     0
  3
Standard
 70
     0
 71
     0
 40
0.06
 41
0.06
280
     0
281
     0
  7
Standard
140
0.18
170
     2
 62
     0
 63
     7
283
     0
 90
      512
 91
        0
  1

274
    -2
284
     1
 64
     0
275
    -2
285
     1
 65
     0
276
    -2
286
     1
 66
     0
277
    -2
287
     1
 67
     0
278
    -2
288
     1
 68
     0
279
    -2
289
     1
 69
     0
  7
Standard
140
0.25
170
     5
 62
     0
 63
     7
283
     0
 90
      512
 91
        0
  1

274
    -2
284
     1
 64
     0
275
    -2
285
     1
 65
     0
276
    -2
286
     1
 66
     0
277
    -2
287
     1
 67
     0
278
    -2
288
     1
 68
     0
279
    -2
289
     1
 69
     0
  7
Standard
140
0.18
170
     5
 62
     0
 63
     7
283
     0
 90
      512
 91
        0
  1

274
    -2
284
     1
 64
     0
275
    -2
285
     1
 65
     0
276
    -2
286
     1
 66
     0
277
    -2
287
     1
 67
     0
278
    -2
288
     1
 68
     0
279
    -2
289
     1
 69
     0
  0
VISUALSTYLE
  5
9F
102
{ACAD_REACTORS
330
99
102
}
330
99
100
AcDbVisualStyle
  2
2dWireframe
 70
     4
177
     3
291
     0
 70
    58
 90
        0
176
     1
 90
        2
176
     1
 90
        1
176
     1
 90
        0
176
     1
 40
0.6
176
     1
 40
30.0
176
     1
 62
     7
420
 16777215
176
     1
 90
        1
176
     1
 90
        4
176
     1
 62
     7
176
     1
 62
   257
176
     1
 90
        1
176
     1
 90
        1
176
     1
 40
1.0
176
     1
 90
        0
176
     1
 62
   257
176
     1
 40
1.0
176
     1
 90
        1
176
     1
 90
        6
176
     1
 90
        2
176
     1
 62
     7
176
     1
 90
        5
176
     1
 90
        0
176
     1
 90
        0
176
     1
290
     0
176
     1
 90
        1
176
     1
 40
0.0
176
     1
 90
        0
176
     1
290
     1
176
     1
290
     1
176
     1
290
     0
176
     1
290
     0
176
     1
290
     0
176
     1
290
     0
176
     1
290
     0
176
     1
290
     0
176
     1
290
     0
176
     1
 90
       50
176
     1
 40
0.0
176
     1
 40
1.0
176
     1
 90
        0
176
     1
 62
    18
420
        0
176
     1
 90
       50
176
     1
 90
        3
176
     1
 62
     5
420
      255
176
     1
290
     0
176
     1
 90
       50
176
     1
 90
       50
176
     1
 90
       50
176
     1
290
     0
176
     1
 90
       50
176
     1
 62
   256
176
     0
 40
1.0
176
     0
 90
        2
176
     1
  1
strokes_ogs.tif
176
     1
290
     0
176
     1
 40
1.0
176
     1
 40
1.0
176
     1
  0
VISUALSTYLE
  5
2684
102
{ACAD_REACTORS
330
99
102
}
330
99
100
AcDbVisualStyle
  2
3dWireframe
 70
     5
177
     3
291
     0
 70
    58
 90
        0
176
     1
 90
        2
176
     1
 90
        0
176
     1
 90
        0
176
     1
 40
0.6
176
     1
 40
30.0
176
     1
 62
     7
176
     1
 90
        1
176
     1
 90
        4
176
     1
 62
     7
176
     1
 62
   257
176
     1
 90
        1
176
     1
 90
        1
176
     1
 40
1.0
176
     1
 90
        0
176
     1
 62
   257
176
     1
 40
1.0
176
     1
 90
        1
176
     1
 90
        6
176
     1
 90
        2
176
     1
 62
     7
176
     1
 90
        5
176
     1
 90
        0
176
     1
 90
        0
176
     1
290
     0
176
     1
 90
        1
176
     1
 40
0.0
176
     1
 90
        0
176
     1
290
     0
176
     1
290
     1
176
     1
290
     1
176
     1
290
     0
176
     1
290
     0
176
     1
290
     0
176
     1
290
     0
176
     1
290
     0
176
     1
290
     0
176
     1
 90
       50
176
     1
 40
0.0
176
     1
 40
1.0
176
     1
 90
        0
176
     1
 62
    18
420
        0
176
     1
 90
       50
176
     1
 90
        3
176
     1
 62
     5
420
      255
176
     1
290
     0
176
     1
 90
       50
176
     1
 90
       50
176
     1
 90
       50
176
     1
290
     0
176
     1
 90
       50
176
     1
 62
   256
176
     0
 40
1.0
176
     0
 90
        2
176
     1
  1
strokes_ogs.tif
176
     1
290
     0
176
     1
 40
1.0
176
     1
 40
1.0
176
     1
1001
ACAD
1000
AcRTDxfName
1000
VISUALSTYLE
  0
VISUALSTYLE
  5
9E
102
{ACAD_REACTORS
330
99
102
}
330
99
100
AcDbVisualStyle
  2
Basic
 70
     7
177
     3
291
     1
 70
    58
 90
        1
176
     1
 90
        0
176
     1
 90
        1
176
     1
 90
        0
176
     1
 40
0.6
176
     1
 40
30.0
176
     1
 62
     7
420
 16777215
176
     1
 90
        0
176
     1
 90
        4
176
     1
 62
     7
176
     1
 62
   257
176
     1
 90
        1
176
     1
 90
        1
176
     1
 40
1.0
176
     1
 90
        8
176
     1
 62
     7
176
     1
 40
1.0
176
     1
 90
        1
176
     1
 90
        6
176
     1
 90
        2
176
     1
 62
     7
176
     1
 90
        5
176
     1
 90
        0
176
     1
 90
        0
176
     1
290
     0
176
     1
 90
        1
176
     1
 40
0.0
176
     1
 90
        0
176
     1
290
     0
176
     1
290
     1
176
     1
290
     1
176
     1
290
     0
176
     1
290
     0
176
     1
290
     0
176
     1
290
     0
176
     1
290
     0
176
     1
290
     0
176
     1
 90
       50
176
     1
 40
0.0
176
     1
 40
1.0
176
     1
 90
        0
176
     1
 62
    18
420
        0
176
     1
 90
       50
176
     1
 90
        3
176
     1
 62
     5
420
      255
176
     1
290
     0
176
     1
 90
       50
176
     1
 90
       50
176
     1
 90
       50
176
     1
290
     0
176
     1
 90
       50
176
     1
 62
   256
176
     0
 40
1.0
176
     0
 90
        2
176
     1
  1
strokes_ogs.tif
176
     1
290
     0
176
     1
 40
1.0
176
     1
 40
1.0
176
     1
  0
VISUALSTYLE
  5
A5
102
{ACAD_REACTORS
330
99
102
}
330
99
100
AcDbVisualStyle
  2
Brighten
 70
    12
177
     3
291
     1
 70
    58
 90
        2
176
     1
 90
        2
176
     1
 90
        1
176
     1
 90
        0
176
     1
 40
0.6
176
     1
 40
30.0
176
     1
 62
     7
420
 16777215
176
     1
 90
        1
176
     1
 90
        4
176
     1
 62
     7
176
     1
 62
   257
176
     1
 90
        1
176
     1
 90
        1
176
     1
 40
1.0
176
     1
 90
        8
176
     1
 62
     7
176
     1
 40
1.0
176
     1
 90
        1
176
     1
 90
        6
176
     1
 90
        2
176
     1
 62
     7
176
     1
 90
        5
176
     1
 90
        0
176
     1
 90
        0
176
     1
290
     0
176
     1
 90
        1
176
     1
 40
50.0
176
     1
 90
        0
176
     1
290
     0
176
     1
290
     1
176
     1
290
     1
176
     1
290
     0
176
     1
290
     0
176
     1
290
     0
176
     1
290
     0
176
     1
290
     0
176
     1
290
     0
176
     1
 90
       50
176
     1
 40
0.0
176
     1
 40
1.0
176
     1
 90
        0
176
     1
 62
    18
420
        0
176
     1
 90
       50
176
     1
 90
        3
176
     1
 62
     5
420
      255
176
     1
290
     0
176
     1
 90
       50
176
     1
 90
       50
176
     1
 90
       50
176
     1
290
     0
176
     1
 90
       50
176
     1
 62
   256
176
     0
 40
1.0
176
     0
 90
        2
176
     1
  1
strokes_ogs.tif
176
     1
290
     0
176
     1
 40
1.0
176
     1
 40
1.0
176
     1
  0
VISUALSTYLE
  5
A9
102
{ACAD_REACTORS
330
99
102
}
330
99
100
AcDbVisualStyle
  2
ColorChange
 70
    16
177
     3
291
     1
 70
    58
 90
        2
176
     1
 90
        2
176
     1
 90
        3
176
     1
 90
        0
176
     1
 40
0.6
176
     1
 40
30.0
176
     1
 62
     8
420
  8421504
176
     1
 90
        1
176
     1
 90
        4
176
     1
 62
     7
176
     1
 62
   257
176
     1
 90
        1
176
     1
 90
        1
176
     1
 40
1.0
176
     1
 90
        8
176
     1
 62
     8
420
  8421504
176
     1
 40
1.0
176
     1
 90
        1
176
     1
 90
        6
176
     1
 90
        2
176
     1
 62
     7
176
     1
 90
        5
176
     1
 90
        0
176
     1
 90
        0
176
     1
290
     0
176
     1
 90
        1
176
     1
 40
0.0
176
     1
 90
        0
176
     1
290
     0
176
     1
290
     1
176
     1
290
     1
176
     1
290
     0
176
     1
290
     0
176
     1
290
     0
176
     1
290
     0
176
     1
290
     0
176
     1
290
     0
176
     1
 90
       50
176
     1
 40
0.0
176
     1
 40
1.0
176
     1
 90
        0
176
     1
 62
    18
420
        0
176
     1
 90
       50
176
     1
 90
        3
176
     1
 62
     5
420
      255
176
     1
290
     0
176
     1
 90
       50
176
     1
 90
       50
176
     1
 90
       50
176
     1
290
     0
176
     1
 90
       50
176
     1
 62
   256
176
     0
 40
1.0
176
     0
 90
        2
176
     1
  1
strokes_ogs.tif
176
     1
290
     0
176
     1
 40
1.0
176
     1
 40
1.0
176
     1
  0
VISUALSTYLE
  5
A2
102
{ACAD_REACTORS
330
99
102
}
330
99
100
AcDbVisualStyle
  2
Conceptual
 70
     9
177
     3
291
     0
 70
    58
 90
        3
176
     1
 90
        2
176
     1
 90
        1
176
     1
 90
        0
176
     1
 40
0.6
176
     1
 40
30.0
176
     1
 62
     7
420
 16777215
176
     1
 90
        2
176
     1
 90
        2
176
     1
 62
     7
176
     1
 62
   257
176
     1
 90
        1
176
     1
 90
        1
176
     1
 40
40.0
176
     1
 90
        8
176
     1
 62
     7
176
     1
 40
1.0
176
     1
 90
        1
176
     1
 90
        6
176
     1
 90
        2
176
     1
 62
     7
176
     1
 90
        3
176
     1
 90
        0
176
     1
 90
        0
176
     1
290
     0
176
     1
 90
        1
176
     1
 40
0.0
176
     1
 90
        0
176
     1
290
     0
176
     1
290
     1
176
     1
290
     1
176
     1
290
     0
176
     1
290
     0
176
     1
290
     0
176
     1
290
     0
176
     1
290
     0
176
     1
290
     0
176
     1
 90
       50
176
     1
 40
0.0
176
     1
 40
1.0
176
     1
 90
        0
176
     1
 62
    18
420
        0
176
     1
 90
       50
176
     1
 90
        3
176
     1
 62
     5
420
      255
176
     1
290
     0
176
     1
 90
       50
176
     1
 90
       50
176
     1
 90
       50
176
     1
290
     0
176
     1
 90
       50
176
     1
 62
   256
176
     0
 40
1.0
176
     0
 90
        2
176
     1
  1
strokes_ogs.tif
176
     1
290
     0
176
     1
 40
1.0
176
     1
 40
1.0
176
     1
  0
VISUALSTYLE
  5
A4
102
{ACAD_REACTORS
330
99
102
}
330
99
100
AcDbVisualStyle
  2
Dim
 70
    11
177
     3
291
     1
 70
    58
 90
        2
176
     1
 90
        2
176
     1
 90
        1
176
     1
 90
        0
176
     1
 40
0.6
176
     1
 40
30.0
176
     1
 62
     7
420
 16777215
176
     1
 90
        1
176
     1
 90
        4
176
     1
 62
     7
176
     1
 62
   257
176
     1
 90
        1
176
     1
 90
        1
176
     1
 40
1.0
176
     1
 90
        8
176
     1
 62
     7
176
     1
 40
1.0
176
     1
 90
        1
176
     1
 90
        6
176
     1
 90
        2
176
     1
 62
     7
176
     1
 90
        5
176
     1
 90
        0
176
     1
 90
        0
176
     1
290
     0
176
     1
 90
        1
176
     1
 40
-50.0
176
     1
 90
        0
176
     1
290
     0
176
     1
290
     1
176
     1
290
     1
176
     1
290
     0
176
     1
290
     0
176
     1
290
     0
176
     1
290
     0
176
     1
290
     0
176
     1
290
     0
176
     1
 90
       50
176
     1
 40
0.0
176
     1
 40
1.0
176
     1
 90
        0
176
     1
 62
    18
420
        0
176
     1
 90
       50
176
     1
 90
        3
176
     1
 62
     5
420
      255
176
     1
290
     0
176
     1
 90
       50
176
     1
 90
       50
176
     1
 90
       50
176
     1
290
     0
176
     1
 90
       50
176
     1
 62
   256
176
     0
 40
1.0
176
     0
 90
        2
176
     1
  1
strokes_ogs.tif
176
     1
290
     0
176
     1
 40
1.0
176
     1
 40
1.0
176
     1
  0
VISUALSTYLE
  5
175
102
{ACAD_REACTORS
330
99
102
}
330
99
100
AcDbVisualStyle
  2
EdgeColorOff
 70
    22
177
     3
291
     1
 70
    58
 90
        2
176
     0
 90
        2
176
     0
 90
        0
176
     0
 90
        0
176
     0
 40
0.6
176
     0
 40
30.0
176
     0
 62
     7
420
 16777215
176
     0
 90
        1
176
     0
 90
        4
176
     0
 62
     7
176
     0
 62
   257
176
     0
 90
        1
176
     0
 90
        1
176
     0
 40
1.0
176
     0
 90
        8
176
     2
 62
     7
176
     0
 40
1.0
176
     0
 90
        1
176
     0
 90
        6
176
     0
 90
        2
176
     0
 62
     7
176
     0
 90
        5
176
     0
 90
        0
176
     0
 90
        0
176
     0
290
     0
176
     0
 90
        1
176
     0
 40
0.0
176
     0
 90
        0
176
     0
290
     0
176
     1
290
     1
176
     1
290
     1
176
     1
290
     0
176
     1
290
     0
176
     1
290
     0
176
     1
290
     0
176
     1
290
     0
176
     1
290
     0
176
     1
 90
       50
176
     1
 40
0.0
176
     1
 40
1.0
176
     1
 90
        0
176
     1
 62
    18
420
        0
176
     1
 90
       50
176
     1
 90
        3
176
     1
 62
     5
420
      255
176
     1
290
     0
176
     1
 90
       50
176
     1
 90
       50
176
     1
 90
       50
176
     1
290
     0
176
     1
 90
       50
176
     1
 62
   256
176
     0
 40
1.0
176
     0
 90
        2
176
     1
  1
strokes_ogs.tif
176
     1
290
     0
176
     1
 40
1.0
176
     1
 40
1.0
176
     1
  0
VISUALSTYLE
  5
A8
102
{ACAD_REACTORS
330
99
102
}
330
99
100
AcDbVisualStyle
  2
Facepattern
 70
    15
177
     3
291
     1
 70
    58
 90
        2
176
     1
 90
        2
176
     1
 90
        1
176
     1
 90
        0
176
     1
 40
0.6
176
     1
 40
30.0
176
     1
 62
     7
420
 16777215
176
     1
 90
        1
176
     1
 90
        4
176
     1
 62
     7
176
     1
 62
   257
176
     1
 90
        1
176
     1
 90
        1
176
     1
 40
1.0
176
     1
 90
        8
176
     1
 62
     7
176
     1
 40
1.0
176
     1
 90
        1
176
     1
 90
        6
176
     1
 90
        2
176
     1
 62
     7
176
     1
 90
        5
176
     1
 90
        0
176
     1
 90
        0
176
     1
290
     0
176
     1
 90
        1
176
     1
 40
0.0
176
     1
 90
        0
176
     1
290
     0
176
     1
290
     1
176
     1
290
     1
176
     1
290
     0
176
     1
290
     0
176
     1
290
     0
176
     1
290
     0
176
     1
290
     0
176
     1
290
     0
176
     1
 90
       50
176
     1
 40
0.0
176
     1
 40
1.0
176
     1
 90
        0
176
     1
 62
    18
420
        0
176
     1
 90
       50
176
     1
 90
        3
176
     1
 62
     5
420
      255
176
     1
290
     0
176
     1
 90
       50
176
     1
 90
       50
176
     1
 90
       50
176
     1
290
     0
176
     1
 90
       50
176
     1
 62
   256
176
     0
 40
1.0
176
     0
 90
        2
176
     1
  1
strokes_ogs.tif
176
     1
290
     0
176
     1
 40
1.0
176
     1
 40
1.0
176
     1
  0
VISUALSTYLE
  5
9A
102
{ACAD_REACTORS
330
99
102
}
330
99
100
AcDbVisualStyle
  2
Flat
 70
     0
177
     3
291
     1
 70
    58
 90
        2
176
     1
 90
        1
176
     1
 90
        1
176
     1
 90
        2
176
     1
 40
0.6
176
     1
 40
30.0
176
     1
 62
     7
420
 16777215
176
     1
 90
        0
176
     1
 90
        0
176
     1
 62
     7
176
     1
 62
   257
176
     1
 90
        1
176
     1
 90
        1
176
     1
 40
1.0
176
     1
 90
        8
176
     1
 62
     7
176
     1
 40
1.0
176
     1
 90
        1
176
     1
 90
        6
176
     1
 90
        2
176
     1
 62
     7
176
     1
 90
        5
176
     1
 90
        0
176
     1
 90
        0
176
     1
290
     0
176
     1
 90
       13
176
     1
 40
0.0
176
     1
 90
        0
176
     1
290
     0
176
     1
290
     1
176
     1
290
     1
176
     1
290
     0
176
     1
290
     0
176
     1
290
     0
176
     1
290
     0
176
     1
290
     0
176
     1
290
     0
176
     1
 90
       50
176
     1
 40
0.0
176
     1
 40
1.0
176
     1
 90
        0
176
     1
 62
    18
420
        0
176
     1
 90
       50
176
     1
 90
        3
176
     1
 62
     5
420
      255
176
     1
290
     0
176
     1
 90
       50
176
     1
 90
       50
176
     1
 90
       50
176
     1
290
     0
176
     1
 90
       50
176
     1
 62
   256
176
     0
 40
1.0
176
     0
 90
        2
176
     1
  1
strokes_ogs.tif
176
     1
290
     0
176
     1
 40
1.0
176
     1
 40
1.0
176
     1
  0
VISUALSTYLE
  5
9B
102
{ACAD_REACTORS
330
99
102
}
330
99
100
AcDbVisualStyle
  2
FlatWithEdges
 70
     1
177
     3
291
     1
 70
    58
 90
        2
176
     1
 90
        1
176
     1
 90
        1
176
     1
 90
        2
176
     1
 40
0.6
176
     1
 40
30.0
176
     1
 62
     7
420
 16777215
176
     1
 90
        1
176
     1
 90
        0
176
     1
 62
     7
176
     1
 62
   257
176
     1
 90
        1
176
     1
 90
        1
176
     1
 40
1.0
176
     1
 90
        0
176
     1
 62
   257
176
     1
 40
1.0
176
     1
 90
        1
176
     1
 90
        6
176
     1
 90
        2
176
     1
 62
     7
176
     1
 90
        5
176
     1
 90
        0
176
     1
 90
        0
176
     1
290
     0
176
     1
 90
       13
176
     1
 40
0.0
176
     1
 90
        0
176
     1
290
     0
176
     1
290
     1
176
     1
290
     1
176
     1
290
     0
176
     1
290
     0
176
     1
290
     0
176
     1
290
     0
176
     1
290
     0
176
     1
290
     0
176
     1
 90
       50
176
     1
 40
0.0
176
     1
 40
1.0
176
     1
 90
        0
176
     1
 62
    18
420
        0
176
     1
 90
       50
176
     1
 90
        3
176
     1
 62
     5
420
      255
176
     1
290
     0
176
     1
 90
       50
176
     1
 90
       50
176
     1
 90
       50
176
     1
290
     0
176
     1
 90
       50
176
     1
 62
   256
176
     0
 40
1.0
176
     0
 90
        2
176
     1
  1
strokes_ogs.tif
176
     1
290
     0
176
     1
 40
1.0
176
     1
 40
1.0
176
     1
  0
VISUALSTYLE
  5
9C
102
{ACAD_REACTORS
330
99
102
}
330
99
100
AcDbVisualStyle
  2
Gouraud
 70
     2
177
     3
291
     1
 70
    58
 90
        2
176
     1
 90
        2
176
     1
 90
        1
176
     1
 90
        2
176
     1
 40
0.6
176
     1
 40
30.0
176
     1
 62
     7
420
 16777215
176
     1
 90
        0
176
     1
 90
        0
176
     1
 62
     7
176
     1
 62
   257
176
     1
 90
        1
176
     1
 90
        1
176
     1
 40
1.0
176
     1
 90
        0
176
     1
 62
     7
176
     1
 40
1.0
176
     1
 90
        1
176
     1
 90
        6
176
     1
 90
        2
176
     1
 62
     7
176
     1
 90
        5
176
     1
 90
        0
176
     1
 90
        0
176
     1
290
     0
176
     1
 90
       13
176
     1
 40
0.0
176
     1
 90
        0
176
     1
290
     0
176
     1
290
     1
176
     1
290
     1
176
     1
290
     0
176
     1
290
     0
176
     1
290
     0
176
     1
290
     0
176
     1
290
     0
176
     1
290
     0
176
     1
 90
       50
176
     1
 40
0.0
176
     1
 40
1.0
176
     1
 90
        0
176
     1
 62
    18
420
        0
176
     1
 90
       50
176
     1
 90
        3
176
     1
 62
     5
420
      255
176
     1
290
     0
176
     1
 90
       50
176
     1
 90
       50
176
     1
 90
       50
176
     1
290
     0
176
     1
 90
       50
176
     1
 62
   256
176
     0
 40
1.0
176
     0
 90
        2
176
     1
  1
strokes_ogs.tif
176
     1
290
     0
176
     1
 40
1.0
176
     1
 40
1.0
176
     1
  0
VISUALSTYLE
  5
9D
102
{ACAD_REACTORS
330
99
102
}
330
99
100
AcDbVisualStyle
  2
GouraudWithEdges
 70
     3
177
     3
291
     1
 70
    58
 90
        2
176
     1
 90
        2
176
     1
 90
        1
176
     1
 90
        2
176
     1
 40
0.6
176
     1
 40
30.0
176
     1
 62
     7
420
 16777215
176
     1
 90
        1
176
     1
 90
        0
176
     1
 62
     7
176
     1
 62
   257
176
     1
 90
        1
176
     1
 90
        1
176
     1
 40
1.0
176
     1
 90
        0
176
     1
 62
   257
176
     1
 40
1.0
176
     1
 90
        1
176
     1
 90
        6
176
     1
 90
        2
176
     1
 62
     7
176
     1
 90
        5
176
     1
 90
        0
176
     1
 90
        0
176
     1
290
     0
176
     1
 90
       13
176
     1
 40
0.0
176
     1
 90
        0
176
     1
290
     0
176
     1
290
     1
176
     1
290
     1
176
     1
290
     0
176
     1
290
     0
176
     1
290
     0
176
     1
290
     0
176
     1
290
     0
176
     1
290
     0
176
     1
 90
       50
176
     1
 40
0.0
176
     1
 40
1.0
176
     1
 90
        0
176
     1
 62
    18
420
        0
176
     1
 90
       50
176
     1
 90
        3
176
     1
 62
     5
420
      255
176
     1
290
     0
176
     1
 90
       50
176
     1
 90
       50
176
     1
 90
       50
176
     1
290
     0
176
     1
 90
       50
176
     1
 62
   256
176
     0
 40
1.0
176
     0
 90
        2
176
     1
  1
strokes_ogs.tif
176
     1
290
     0
176
     1
 40
1.0
176
     1
 40
1.0
176
     1
  0
VISUALSTYLE
  5
A1
102
{ACAD_REACTORS
330
99
102
}
330
99
100
AcDbVisualStyle
  2
Hidden
 70
     6
177
     3
291
     0
 70
    58
 90
        1
176
     1
 90
        2
176
     1
 90
        2
176
     1
 90
        0
176
     1
 40
0.6
176
     1
 40
30.0
176
     1
 62
     7
420
 16777215
176
     1
 90
        2
176
     1
 90
        2
176
     1
 62
     7
176
     1
 62
   257
176
     1
 90
        2
176
     1
 90
        1
176
     1
 40
40.0
176
     1
 90
        0
176
     1
 62
   257
176
     1
 40
1.0
176
     1
 90
        1
176
     1
 90
        6
176
     1
 90
        2
176
     1
 62
     7
176
     1
 90
        3
176
     1
 90
        0
176
     1
 90
        0
176
     1
290
     0
176
     1
 90
        1
176
     1
 40
0.0
176
     1
 90
        0
176
     1
290
     0
176
     1
290
     1
176
     1
290
     1
176
     1
290
     0
176
     1
290
     0
176
     1
290
     0
176
     1
290
     0
176
     1
290
     0
176
     1
290
     0
176
     1
 90
       50
176
     1
 40
0.0
176
     1
 40
1.0
176
     1
 90
        0
176
     1
 62
    18
420
        0
176
     1
 90
       50
176
     1
 90
        3
176
     1
 62
     5
420
      255
176
     1
290
     0
176
     1
 90
       50
176
     1
 90
       50
176
     1
 90
       50
176
     1
290
     0
176
     1
 90
       50
176
     1
 62
   256
176
     0
 40
1.0
176
     0
 90
        2
176
     1
  1
strokes_ogs.tif
176
     1
290
     0
176
     1
 40
1.0
176
     1
 40
1.0
176
     1
  0
VISUALSTYLE
  5
173
102
{ACAD_REACTORS
330
99
102
}
330
99
100
AcDbVisualStyle
  2
JitterOff
 70
    20
177
     3
291
     1
 70
    58
 90
        2
176
     0
 90
        2
176
     0
 90
        0
176
     0
 90
        0
176
     0
 40
0.6
176
     0
 40
30.0
176
     0
 62
     7
420
 16777215
176
     0
 90
        1
176
     0
 90
        4
176
     0
 62
     7
176
     0
 62
   257
176
     0
 90
        1
176
     0
 90
        1
176
     0
 40
1.0
176
     0
 90
       10
176
     2
 62
     7
176
     0
 40
1.0
176
     0
 90
        1
176
     0
 90
        6
176
     0
 90
        2
176
     0
 62
     7
176
     0
 90
        5
176
     0
 90
        0
176
     0
 90
        0
176
     0
290
     0
176
     0
 90
        1
176
     0
 40
0.0
176
     0
 90
        0
176
     0
290
     0
176
     1
290
     1
176
     1
290
     1
176
     1
290
     0
176
     1
290
     0
176
     1
290
     0
176
     1
290
     0
176
     1
290
     0
176
     1
290
     0
176
     1
 90
       50
176
     1
 40
0.0
176
     1
 40
1.0
176
     1
 90
        0
176
     1
 62
    18
420
        0
176
     1
 90
       50
176
     1
 90
        3
176
     1
 62
     5
420
      255
176
     1
290
     0
176
     1
 90
       50
176
     1
 90
       50
176
     1
 90
       50
176
     1
290
     0
176
     1
 90
       50
176
     1
 62
   256
176
     0
 40
1.0
176
     0
 90
        2
176
     1
  1
strokes_ogs.tif
176
     1
290
     0
176
     1
 40
1.0
176
     1
 40
1.0
176
     1
  0
VISUALSTYLE
  5
A7
102
{ACAD_REACTORS
330
99
102
}
330
99
100
AcDbVisualStyle
  2
Linepattern
 70
    14
177
     3
291
     1
 70
    58
 90
        2
176
     1
 90
        2
176
     1
 90
        1
176
     1
 90
        0
176
     1
 40
0.6
176
     1
 40
30.0
176
     1
 62
     7
420
 16777215
176
     1
 90
        1
176
     1
 90
        4
176
     1
 62
     7
176
     1
 62
   257
176
     1
 90
        7
176
     1
 90
        7
176
     1
 40
1.0
176
     1
 90
        8
176
     1
 62
     7
176
     1
 40
1.0
176
     1
 90
        1
176
     1
 90
        6
176
     1
 90
        2
176
     1
 62
     7
176
     1
 90
        5
176
     1
 90
        0
176
     1
 90
        0
176
     1
290
     0
176
     1
 90
        1
176
     1
 40
0.0
176
     1
 90
        0
176
     1
290
     0
176
     1
290
     1
176
     1
290
     1
176
     1
290
     0
176
     1
290
     0
176
     1
290
     0
176
     1
290
     0
176
     1
290
     0
176
     1
290
     0
176
     1
 90
       50
176
     1
 40
0.0
176
     1
 40
1.0
176
     1
 90
        0
176
     1
 62
    18
420
        0
176
     1
 90
       50
176
     1
 90
        3
176
     1
 62
     5
420
      255
176
     1
290
     0
176
     1
 90
       50
176
     1
 90
       50
176
     1
 90
       50
176
     1
290
     0
176
     1
 90
       50
176
     1
 62
   256
176
     0
 40
1.0
176
     0
 90
        2
176
     1
  1
strokes_ogs.tif
176
     1
290
     0
176
     1
 40
1.0
176
     1
 40
1.0
176
     1
  0
VISUALSTYLE
  5
174
102
{ACAD_REACTORS
330
99
102
}
330
99
100
AcDbVisualStyle
  2
OverhangOff
 70
    21
177
     3
291
     1
 70
    58
 90
        2
176
     0
 90
        2
176
     0
 90
        0
176
     0
 90
        0
176
     0
 40
0.6
176
     0
 40
30.0
176
     0
 62
     7
420
 16777215
176
     0
 90
        1
176
     0
 90
        4
176
     0
 62
     7
176
     0
 62
   257
176
     0
 90
        1
176
     0
 90
        1
176
     0
 40
1.0
176
     0
 90
        9
176
     2
 62
     7
176
     0
 40
1.0
176
     0
 90
        1
176
     0
 90
        6
176
     0
 90
        2
176
     0
 62
     7
176
     0
 90
        5
176
     0
 90
        0
176
     0
 90
        0
176
     0
290
     0
176
     0
 90
        1
176
     0
 40
0.0
176
     0
 90
        0
176
     0
290
     0
176
     1
290
     1
176
     1
290
     1
176
     1
290
     0
176
     1
290
     0
176
     1
290
     0
176
     1
290
     0
176
     1
290
     0
176
     1
290
     0
176
     1
 90
       50
176
     1
 40
0.0
176
     1
 40
1.0
176
     1
 90
        0
176
     1
 62
    18
420
        0
176
     1
 90
       50
176
     1
 90
        3
176
     1
 62
     5
420
      255
176
     1
290
     0
176
     1
 90
       50
176
     1
 90
       50
176
     1
 90
       50
176
     1
290
     0
176
     1
 90
       50
176
     1
 62
   256
176
     0
 40
1.0
176
     0
 90
        2
176
     1
  1
strokes_ogs.tif
176
     1
290
     0
176
     1
 40
1.0
176
     1
 40
1.0
176
     1
  0
VISUALSTYLE
  5
A3
102
{ACAD_REACTORS
330
99
102
}
330
99
100
AcDbVisualStyle
  2
Realistic
 70
     8
177
     3
291
     0
 70
    58
 90
        2
176
     1
 90
        2
176
     1
 90
        0
176
     1
 90
        2
176
     1
 40
0.6
176
     1
 40
30.0
176
     1
 62
     7
420
 16777215
176
     1
 90
        0
176
     1
 90
        0
176
     1
 62
     7
176
     1
 62
   257
176
     1
 90
        1
176
     1
 90
        1
176
     1
 40
1.0
176
     1
 90
        8
176
     1
 62
   257
176
     1
 40
1.0
176
     1
 90
        1
176
     1
 90
        6
176
     1
 90
        2
176
     1
 62
     7
176
     1
 90
        3
176
     1
 90
        0
176
     1
 90
        0
176
     1
290
     0
176
     1
 90
       13
176
     1
 40
0.0
176
     1
 90
        0
176
     1
290
     0
176
     1
290
     1
176
     1
290
     1
176
     1
290
     0
176
     1
290
     0
176
     1
290
     0
176
     1
290
     0
176
     1
290
     0
176
     1
290
     0
176
     1
 90
       50
176
     1
 40
0.0
176
     1
 40
1.0
176
     1
 90
        0
176
     1
 62
    18
420
        0
176
     1
 90
       50
176
     1
 90
        3
176
     1
 62
     5
420
      255
176
     1
290
     0
176
     1
 90
       50
176
     1
 90
       50
176
     1
 90
       50
176
     1
290
     0
176
     1
 90
       50
176
     1
 62
   256
176
     0
 40
1.0
176
     0
 90
        2
176
     1
  1
strokes_ogs.tif
176
     1
290
     0
176
     1
 40
1.0
176
     1
 40
1.0
176
     1
  0
VISUALSTYLE
  5
182
102
{ACAD_REACTORS
330
99
102
}
330
99
100
AcDbVisualStyle
  2
Shaded
 70
    27
177
     3
291
     0
 70
    58
 90
        2
176
     1
 90
        2
176
     1
 90
        1
176
     1
 90
        2
176
     1
 40
0.6
176
     1
 40
30.0
176
     1
 62
     7
420
 16777215
176
     1
 90
        0
176
     1
 90
        4
176
     1
 62
     7
176
     1
 62
   257
176
     1
 90
        1
176
     1
 90
        1
176
     1
 40
1.0
176
     1
 90
        8
176
     1
 62
   257
176
     1
 40
1.0
176
     1
 90
        1
176
     1
 90
        6
176
     1
 90
        2
176
     1
 62
     8
420
  7895160
176
     1
 90
        3
176
     1
 90
        0
176
     1
 90
        0
176
     1
290
     0
176
     1
 90
        5
176
     1
 40
0.0
176
     1
 90
        0
176
     1
290
     0
176
     1
290
     1
176
     1
290
     1
176
     1
290
     0
176
     1
290
     0
176
     1
290
     0
176
     1
290
     0
176
     1
290
     0
176
     1
290
     0
176
     1
 90
       50
176
     1
 40
0.0
176
     1
 40
1.0
176
     1
 90
        0
176
     1
 62
    18
420
        0
176
     1
 90
       50
176
     1
 90
        3
176
     1
 62
     5
420
      255
176
     1
290
     0
176
     1
 90
       50
176
     1
 90
       50
176
     1
 90
       50
176
     1
290
     0
176
     1
 90
       50
176
     1
 62
   256
176
     0
 40
1.0
176
     0
 90
        2
176
     1
  1
strokes_ogs.tif
176
     1
290
     0
176
     1
 40
1.0
176
     1
 40
1.0
176
     1
  0
VISUALSTYLE
  5
181
102
{ACAD_REACTORS
330
99
102
}
330
99
100
AcDbVisualStyle
  2
Shaded with edges
 70
    26
177
     3
291
     0
 70
    58
 90
        2
176
     1
 90
        2
176
     1
 90
        1
176
     1
 90
        2
176
     1
 40
0.6
176
     1
 40
30.0
176
     1
 62
     7
420
 16777215
176
     1
 90
        1
176
     1
 90
        2
176
     1
 62
     7
176
     1
 62
   257
176
     1
 90
        2
176
     1
 90
        1
176
     1
 40
1.0
176
     1
 90
        8
176
     1
 62
   257
176
     1
 40
1.0
176
     1
 90
        1
176
     1
 90
        6
176
     1
 90
        2
176
     1
 62
     7
176
     1
 90
        3
176
     1
 90
        0
176
     1
 90
        0
176
     1
290
     0
176
     1
 90
        5
176
     1
 40
0.0
176
     1
 90
        0
176
     1
290
     0
176
     1
290
     1
176
     1
290
     1
176
     1
290
     0
176
     1
290
     0
176
     1
290
     0
176
     1
290
     0
176
     1
290
     0
176
     1
290
     0
176
     1
 90
       50
176
     1
 40
0.0
176
     1
 40
1.0
176
     1
 90
        0
176
     1
 62
    18
420
        0
176
     1
 90
       50
176
     1
 90
        3
176
     1
 62
     5
420
      255
176
     1
290
     0
176
     1
 90
       50
176
     1
 90
       50
176
     1
 90
       50
176
     1
290
     0
176
     1
 90
       50
176
     1
 62
   256
176
     0
 40
1.0
176
     0
 90
        2
176
     1
  1
strokes_ogs.tif
176
     1
290
     0
176
     1
 40
1.0
176
     1
 40
1.0
176
     1
  0
VISUALSTYLE
  5
17E
102
{ACAD_REACTORS
330
99
102
}
330
99
100
AcDbVisualStyle
  2
Shades of Gray
 70
    23
177
     3
291
     0
 70
    58
 90
        2
176
     1
 90
        2
176
     1
 90
        3
176
     1
 90
        0
176
     1
 40
0.6
176
     1
 40
30.0
176
     1
 62
     7
420
 16777215
176
     1
 90
        2
176
     1
 90
        2
176
     1
 62
     7
176
     1
 62
     7
176
     1
 90
        1
176
     1
 90
        1
176
     1
 40
40.0
176
     1
 90
        8
176
     1
 62
     7
176
     1
 40
1.0
176
     1
 90
        1
176
     1
 90
        6
176
     1
 90
        2
176
     1
 62
     7
176
     1
 90
        3
176
     1
 90
        0
176
     1
 90
        0
176
     1
290
     0
176
     1
 90
        1
176
     1
 40
0.0
176
     1
 90
        0
176
     1
290
     0
176
     1
290
     1
176
     1
290
     1
176
     1
290
     0
176
     1
290
     0
176
     1
290
     0
176
     1
290
     0
176
     1
290
     0
176
     1
290
     0
176
     1
 90
       50
176
     1
 40
0.0
176
     1
 40
1.0
176
     1
 90
        0
176
     1
 62
    18
420
        0
176
     1
 90
       50
176
     1
 90
        3
176
     1
 62
     5
420
      255
176
     1
290
     0
176
     1
 90
       50
176
     1
 90
       50
176
     1
 90
       50
176
     1
290
     0
176
     1
 90
       50
176
     1
 62
   256
176
     0
 40
1.0
176
     0
 90
        2
176
     1
  1
strokes_ogs.tif
176
     1
290
     0
176
     1
 40
1.0
176
     1
 40
1.0
176
     1
  0
VISUALSTYLE
  5
17F
102
{ACAD_REACTORS
330
99
102
}
330
99
100
AcDbVisualStyle
  2
Sketchy
 70
    24
177
     3
291
     0
 70
    58
 90
        1
176
     1
 90
        2
176
     1
 90
        2
176
     1
 90
        0
176
     1
 40
0.6
176
     1
 40
30.0
176
     1
 62
     7
420
 16777215
176
     1
 90
        2
176
     1
 90
        2
176
     1
 62
     7
176
     1
 62
     7
176
     1
 90
        1
176
     1
 90
        1
176
     1
 40
40.0
176
     1
 90
       11
176
     1
 62
     7
176
     1
 40
1.0
176
     1
 90
        1
176
     1
 90
        6
176
     1
 90
        2
176
     1
 62
     7
176
     1
 90
        6
176
     1
 90
        0
176
     1
 90
        0
176
     1
290
     0
176
     1
 90
        1
176
     1
 40
0.0
176
     1
 90
        0
176
     1
290
     0
176
     1
290
     1
176
     1
290
     1
176
     1
290
     0
176
     1
290
     0
176
     1
290
     0
176
     1
290
     0
176
     1
290
     0
176
     1
290
     0
176
     1
 90
       50
176
     1
 40
0.0
176
     1
 40
1.0
176
     1
 90
        0
176
     1
 62
    18
420
        0
176
     1
 90
       50
176
     1
 90
        3
176
     1
 62
     5
420
      255
176
     1
290
     0
176
     1
 90
       50
176
     1
 90
       50
176
     1
 90
       50
176
     1
290
     0
176
     1
 90
       50
176
     1
 62
   256
176
     0
 40
1.0
176
     0
 90
        2
176
     1
  1
strokes_ogs.tif
176
     1
290
     0
176
     1
 40
1.0
176
     1
 40
1.0
176
     1
  0
VISUALSTYLE
  5
A6
102
{ACAD_REACTORS
330
99
102
}
330
99
100
AcDbVisualStyle
  2
Thicken
 70
    13
177
     3
291
     1
 70
    58
 90
        2
176
     1
 90
        2
176
     1
 90
        1
176
     1
 90
        0
176
     1
 40
0.6
176
     1
 40
30.0
176
     1
 62
     7
420
 16777215
176
     1
 90
        1
176
     1
 90
        4
176
     1
 62
     7
176
     1
 62
   257
176
     1
 90
        1
176
     1
 90
        1
176
     1
 40
1.0
176
     1
 90
       12
176
     1
 62
     7
176
     1
 40
1.0
176
     1
 90
        1
176
     1
 90
        6
176
     1
 90
        2
176
     1
 62
     7
176
     1
 90
        5
176
     1
 90
        0
176
     1
 90
        0
176
     1
290
     0
176
     1
 90
        1
176
     1
 40
0.0
176
     1
 90
        0
176
     1
290
     0
176
     1
290
     1
176
     1
290
     1
176
     1
290
     0
176
     1
290
     0
176
     1
290
     0
176
     1
290
     0
176
     1
290
     0
176
     1
290
     0
176
     1
 90
       50
176
     1
 40
0.0
176
     1
 40
1.0
176
     1
 90
        0
176
     1
 62
    18
420
        0
176
     1
 90
       50
176
     1
 90
        3
176
     1
 62
     5
420
      255
176
     1
290
     0
176
     1
 90
       50
176
     1
 90
       50
176
     1
 90
       50
176
     1
290
     0
176
     1
 90
       50
176
     1
 62
   256
176
     0
 40
1.0
176
     0
 90
        2
176
     1
  1
strokes_ogs.tif
176
     1
290
     0
176
     1
 40
1.0
176
     1
 40
1.0
176
     1
  0
VISUALSTYLE
  5
A0
102
{ACAD_REACTORS
330
99
102
}
330
99
100
AcDbVisualStyle
  2
Wireframe
 70
     5
177
     3
291
     0
 70
    58
 90
        0
176
     1
 90
        2
176
     1
 90
        0
176
     1
 90
        0
176
     1
 40
0.6
176
     1
 40
30.0
176
     1
 62
     7
420
 16777215
176
     1
 90
        1
176
     1
 90
        4
176
     1
 62
     7
176
     1
 62
   257
176
     1
 90
        1
176
     1
 90
        1
176
     1
 40
1.0
176
     1
 90
        0
176
     1
 62
   257
176
     1
 40
1.0
176
     1
 90
        1
176
     1
 90
        6
176
     1
 90
        2
176
     1
 62
     7
176
     1
 90
        3
176
     1
 90
        0
176
     1
 90
        0
176
     1
290
     0
176
     1
 90
        1
176
     1
 40
0.0
176
     1
 90
        0
176
     1
290
     0
176
     1
290
     1
176
     1
290
     1
176
     1
290
     0
176
     1
290
     0
176
     1
290
     0
176
     1
290
     0
176
     1
290
     0
176
     1
290
     0
176
     1
 90
       50
176
     1
 40
0.0
176
     1
 40
1.0
176
     1
 90
        0
176
     1
 62
    18
420
        0
176
     1
 90
       50
176
     1
 90
        3
176
     1
 62
     5
420
      255
176
     1
290
     0
176
     1
 90
       50
176
     1
 90
       50
176
     1
 90
       50
176
     1
290
     0
176
     1
 90
       50
176
     1
 62
   256
176
     0
 40
1.0
176
     0
 90
        2
176
     1
  1
strokes_ogs.tif
176
     1
290
     0
176
     1
 40
1.0
176
     1
 40
1.0
176
     1
  0
VISUALSTYLE
  5
180
102
{ACAD_REACTORS
330
99
102
}
330
99
100
AcDbVisualStyle
  2
X-Ray
 70
    25
177
     3
291
     0
 70
    58
 90
        2
176
     1
 90
        2
176
     1
 90
        1
176
     1
 90
        1
176
     1
 40
0.5
176
     1
 40
30.0
176
     1
 62
     7
420
 16777215
176
     1
 90
        1
176
     1
 90
        0
176
     1
 62
     7
176
     1
 62
   257
176
     1
 90
        1
176
     1
 90
        1
176
     1
 40
1.0
176
     1
 90
        8
176
     1
 62
     7
176
     1
 40
1.0
176
     1
 90
        1
176
     1
 90
        6
176
     1
 90
        2
176
     1
 62
     7
176
     1
 90
        3
176
     1
 90
        0
176
     1
 90
        0
176
     1
290
     0
176
     1
 90
       13
176
     1
 40
0.0
176
     1
 90
        0
176
     1
290
     0
176
     1
290
     1
176
     1
290
     1
176
     1
290
     0
176
     1
290
     0
176
     1
290
     0
176
     1
290
     0
176
     1
290
     0
176
     1
290
     0
176
     1
 90
       50
176
     1
 40
0.0
176
     1
 40
1.0
176
     1
 90
        0
176
     1
 62
    18
420
        0
176
     1
 90
       50
176
     1
 90
        3
176
     1
 62
     5
420
      255
176
     1
290
     0
176
     1
 90
       50
176
     1
 90
       50
176
     1
 90
       50
176
     1
290
     0
176
     1
 90
       50
176
     1
 62
   256
176
     0
 40
1.0
176
     0
 90
        2
176
     1
  1
strokes_ogs.tif
176
     1
290
     0
176
     1
 40
1.0
176
     1
 40
1.0
176
     1
  0
DICTIONARYVAR
  5
F0
102
{ACAD_REACTORS
330
66
102
}
330
66
100
DictionaryVariables
280
     0
  1
1:1
  0
DICTIONARYVAR
  5
EF
102
{ACAD_REACTORS
330
66
102
}
330
66
100
DictionaryVariables
280
     0
  1
STANDARD
  0
DICTIONARYVAR
  5
89
102
{ACAD_REACTORS
330
66
102
}
330
66
100
DictionaryVariables
280
     0
  1
STANDARD
  0
DICTIONARYVAR
  5
1B7
102
{ACAD_REACTORS
330
66
102
}
330
66
100
DictionaryVariables
280
     0
  1
Imperial24
  0
DICTIONARYVAR
  5
1B8
102
{ACAD_REACTORS
330
66
102
}
330
66
100
DictionaryVariables
280
     0
  1
Imperial24
  0
DICTIONARYVAR
  5
67
102
{ACAD_REACTORS
330
66
102
}
330
66
100
DictionaryVariables
280
     0
  1
2
  0
DICTIONARYVAR
  5
6B
102
{ACAD_REACTORS
330
66
102
}
330
66
100
DictionaryVariables
280
     0
  1
1
  0
DICTIONARYVAR
  5
14D
102
{ACAD_REACTORS
330
66
102
}
330
66
100
DictionaryVariables
280
     0
  1
0
  0
DICTIONARYVAR
  5
14E
102
{ACAD_REACTORS
330
66
102
}
330
66
100
DictionaryVariables
280
     0
  1
0
  0
DICTIONARY
  5
194
330
22
100
AcDbDictionary
280
     1
281
     1
  0
DICTIONARY
  5
188
330
97
100
AcDbDictionary
280
     1
281
     1
  3
FBXASSET
360
189
  0
DICTIONARY
  5
186
330
96
100
AcDbDictionary
280
     1
281
     1
  3
FBXASSET
360
187
  0
DICTIONARY
  5
110
330
98
100
AcDbDictionary
280
     1
281
     1
  3
BUMPTILE
360
112
  3
DIFFUSETILE
360
111
  3
FBXASSET
360
18A
  3
OPACITYTILE
360
113
  3
REFLECTIONTILE
360
114
  0
DICTIONARY
  5
104
330
87
100
AcDbDictionary
280
     1
281
     1
  3
ACAD_ROUNDTRIP_2008_TABLESTYLE_CELLSTYLEMAP
360
BF4B
  0
XRECORD
  5
189
102
{ACAD_REACTORS
330
188
102
}
330
188
100
AcDbXrecord
280
     1
 70
     1
 90
429727718
  1
508B35C9-AEE7-456F-BE74-D52651303AC6
310
504B03040A0000080000B670623B3DEE336E79000000790000001B0000006175746F6465736B2D64657369676E2D7061636B6167652E786D6C3C3F786D6C2076657273696F6E3D22312E302220656E636F64696E673D227574662D3822203F3E3C666F726D6174733E3C666F726D61743E687474703A2F2F736368656D612E
310
6175746F6465736B2E636F6D2F64657369676E2D7061636B6167652F323030393C2F666F726D61743E3C2F666F726D6174733E504B0304140006080800B670623BD486FD9CA0000000F4000000130000005B436F6E74656E745F54797065735D2E786D6C7D8EC10E82300C865F65E91D8A1E8C310C0EEA1BF002731658846E
310
D98AC1B77784ABF1D8FE5FBFBF75BBCE937A534CCEB38643598122B6FEE978D0B0485F9C41B54DDD7D022595594E1A469170414C76A4D9A4D207E29CF43ECE46F218070CC6BECC4078ACAA135ACF422C856C0E68EA1BF5669944DDD7BCDE7B1F8E415D77AECB980613C2E4AC91FC167A2B244592486606FC29C8FD7F045B9A
310
EF7053A7E60B504B0304140006080800B670623B28ED286BEB0000007C01000008000000636F72652E786D6C8D90416EC3201045AF82665B6183218D6D61A254764FD00B204C5C94182C03558F5F9C3852BBEB6A467FFE9B197D71FA9E6FE8CBACC17AD7012D0820E3B41FAD9B3A48F1826B40272956EFE32F1B20A766D3C1
310
268314D3EAD3B24BDABB685CCCAAF3A3D94515828980F42D371D04FD696655A814B3235C8B45E9AB9A4C419F5D8653B2237A1CB163DE672FD6AC209BF3C08E0D1B30EB19C3FC9D72FCC6EB231EFA33EDE96BDD341517E5064B11EDFCBCAF57A3A2194156843498524CAA0FCA5B7268F9E185D42D21A2DCEC7FA0B48CFF8492
310
759155FBBB0F2C80A4F991FB408A72CB22977B50B96EB9C91F504B0304140006080800B670623B55019EA25F0000007C00000007000000636E782E786D6C4DCB3B0E80201045D1AD90E915ED2CF8AC45050C11660C8261F98AB1B07AC9C97D42D718D865D3E909258CFD00CCE24AC6E326A164D74DC0B4128928FF32603847
310
2BA13128B1252AC747C6BAB984FC68F0B87FE8960A5C09FE86CFB69FBA01504B0304140006080800B670623B7BC41AC871010000D40300000C0000006662782F636F72652E786D6CC553ED6E8320147D15C2DF4501B56B6D90A64BBB27D80B50A5CE54C120983EFEAE1F4DD7A56BBA5FF3879273EEE59E7310BE393735EA95
310
ED2AA333CC428A91D2B9292A5D66D8BB63B0C26823B835C67D2BC348CB46657880B1E0A535BE9DA1DC68A7B403549B42CDA0EC3AE530CA6B5864B8CB3F552343E91D5474A7B095F949962A6421D0502778E72C0840D390E18DC5F170E664C205F7BE2A66B62A605A75AC94C522DDEEE3651AEF837817C741F2CE92E02D592D
310
83FD6ECB76EC7595A651C2C9D02CB8AB9A8BBADC2AE954814544691A3016D0E883256BBA58278B17BA5A53CAC9507ED3E4DBE2C9265F691747B3DCA9ADC382819091F8E1162272A8933DE82182932144F88C09DF060D8140C84E1EEA8B8F1340BDCA9DB1093085F157AA97B557309586747CD0EF0B4EA64E983A6E0EAEEFCE
310
889E9EF17847386AA94B30211D2C0FDE0D3AF9A4610EAD5536E8DD1969631B593F67E381C33F5157F17725E5A636F6BF1491F980C8FC7B90E13E8A2F504B0304140006080800B670623B70102A487D0000009D0000000B0000006662782F636E782E786D6C4DCCD10A83201886E15B91FFDC95A5C30335ACCDFB886521330D
310
A76397BF1A1DECE883878F57749FD5A3B74D2F17830472A901D9F088930B8B849267CC01754AA418F3DF0D5018572BE160506249B16C274D761E8BCFBB7A179E27F65CB39A0F14D396184C9921B81F34C3ACA1B4B99ABB6E6F062A25AA5F69DF23ACBE504B0304140006080800B670623B3610CA3329010000120200003100
310
00006662782F42384135303843342D343331462D343546312D424341352D3532343432364645413344462F636F72652E786D6C8D515B6EC32010BC0AE22B55850D0E446E848992B43E412FE000495162B07854397EA176A4F62F3F2C9A9D991D58BEBB8F37F0AD7D30CE76905418026DA553C65E3A98E219B510EC04F7CEC5
310
3F3408EC30EA0E16180A7EF12E4D0B249D8DDAC68C5AA7F4020E21E80881BCE54B0783FCD2E3500D296646B856D320AFC34557A4CAEDCC133C449F0380794839A138B47B86DB2345744D7A44594FD0E1B867883594369BFE63BF7EEF793D0B054FC9A8456E548E63CE46FB674D8A58F068C6477CE9F510B582A2C1F80D1182
310
70F349E816B32D65AFB8DD62CCEB42FF274A937A52948C8DEB66893BCB021484D7734370E5D2E9F608A3EF93F3119479ABA0E50B14B8C298119A43CCC4FCFCECB8A18B6388CEE7EF5D5D4F994BD86CBBA182D76543B9FCAE2FD7B24DF103504B0304140006080800B670623B1B8617914E0100003303000030000000666278
310
2F42384135303843342D343331462D343546312D424341352D3532343432364645413344462F636E782E786D6CD593C16EC32010447F0571AD6CE3D489D20813A9877E410FBD62D82434182CC055F3F75D1292E692438FBD206B7698593D61BEFD1E2DF982108D773D6D6B460938E5B571FB9ECE6957AD29D90A1EBC4F7736
310
4A9C1CA1A759A682EF839FA72269D8C9D92654AD71C72206887E0E0A22CAF926B15E498B01E0AA19451807D01A34B919F16B070157417138917400F2F6FA41FCF0092A45DEE414C19BDC21783E4BD39D891265658C3D8DEA00A3ACE59CBC8678ACB54CB26EEB6BD7839D7E9348BE70AD9C8321B9BCA7F9A4A26C542347DEE0
310
50F09802D22BA6749A800A394DD62899107273365E3C82CFC6A55557BC06C10774B7ABE7AEC3B0F34CF06446280E154026D0542C187BA9DAB6628BF7B6DBB0E5A65B3EB1F58631DE64BBE083F7B65CC218087E22CABB042E51D1F2268F1FE12B3EA24D40D63E9CFE00120194D60B9D5BC67FE6D39CDF37E20AF817881F504B
310
0304140006080800B670623BBFEF2E3B690500003C100000340000006662782F42384135303843342D343331462D343546312D424341352D3532343432364645413344462F6F626A656374732E786D6CAD575D739B3814FD2B0CFB0C98D84E931D4227B6938EA793B6534F3BFB90198F0099B001899144EAECAFDF231018B0
310
D37A3FFC609090EEE7B94757C1FB7D915B2F54C88CB31BDB7727B64559CC938CA53776A576CE956DBD0F03C1B9EA2DB32D460A7A63EB693B0C52C1ABD24C257447AA5C8D66EF177F5832A68CDA569C13296F6C193FD182B8A4523CA1F2D94D88226EBADBBBBEDB2C1C8A4D05299F46424B222853B014F30C52ACC6287F389C
310
D85E1878FA7B18E87FB36AFAF62AAFF667A83F635211161F291B8999FAB3D5DDC5FCDA99CF6653677679E13B8BFBC5CAF1DF4D27CBCBE5F2FAF6EE1A8AA51290642C117467871F101B91C581D77CEA2C36869F3229E68CD1B8F61F1ED6361B89092D294B90C78C4A68EB793D190E7D1D9BDEE7A91E1B95FDE9F3BCEAEFE809
310
6A6D6F9F7D4B79F4275C90E7A04248AA51D5C4C738DAE06F72885AC4796EBE65D22A88A22223B995679120E2D50EB1542F098381188D4EA111AE3DB043FF20AF6F2B4AE3D7D83D65E5AECA730D4D3BAC91BD05FEA992B565D95F549CD6069B90AB2A63EACA38A45E4B6A87D781574F86817E4C2FCCC72690D62E2729520E37
310
9BAF234797BAF6D62B3BFC781FED37BA1E4F2B2F052FA9501A3E80569BB8F6A9A364D4FA67654E6F803383981F82F21591FF84F23D9882BC896C3FDBCF8C162508933B2E0AE4C69DD43F6BD2BE38DDDBF10BF86CB4FA784D37F3AF16075E67EC9030DECA1FC0A55373F5DFF3378C591FA9BDF485C10B0A8C8BA909E5262639
310
A8E72163488806A595734C81CB77D1DE0ED7604A303B76913CEC0272F412782FF88EFF4636D8AA56DF7B322474C4B767303F625997056C7B032C473C592B36CEBD15F3F9FF5233B7ABCDC74D257624A60F8658567497B14CE1EC3C80B76FD02011038F9EE9EB0F2E12387A9C844D3F09855125116D1D731DF8B43D2CF4E0A0
310
79A020C6BE946BCE0B7EA1E1219331CD73C228AF5A2DDD31A4B1DA918CE91350854D40A71723140BFA92E94E62B0626016CEFA5864A50E5977E8753CEDBEE1CBB7F52780D20E17AF0BA0F5F9B02A3AD07DCC732EB6D1EBB661421BE0C39E21BABF0FE16D22EA6929407C8DE596724C88B749B6DB5512BC7B228ADFD7CB7EA6
310
3A22397E690BA8D5D8D4E40CEC8CDA23C2C0B7D5898640101CEC9C6D331CE328CB93CAFBBAC70A642DF70DF95155945B52F08AA973C23469FD69ADEF84F7BB18F983A8F8C90E37F5D35980B2139A1C523540813E824EF83448CF7C72B598CE97D7CEEDDDDD3B6736BFBC771677EF66CE6A7E7139F7A793E9EDF2B2B3A8B624
310
0CDA13AA5F8388264EC4A0129909F3B7F5A16CEDF08128E97D680ACA4B9BE7B7B58BB638F0B00700EF36AE8B32A705658A68F83EE897FC2B41573190D1CCAF0B92D233A47CFEB019D9809933F67DD1A5467F8CF69AD9A5AE859342D45355448C64F968A371DC2D596ADC6E43D93D1B466F877A64E2893E54F23C4B40388995
310
525E5005DA3983ED45412510D3EFCA13737B3863F74BD30F2A12E5B4B5E489A025CE25500DB855B11ACE5BBFA185D35DD48D8DC3CE7DC69F2944DB42AA6F6CF09BCA622ADD08C7A36E7C6AE18000BAB08E040135C2D21C9D75B3A91B77BB746C403F38018DFE6EC939DD92F16B40BC05294B9CDA035AAD6D330AE27FE4786B
310
8E45145EA34A75BE1C263A676A35A8ACC6297337400BF16C54EF515F3F77CB77EB3583889C754FFA29081AA98E2222ADEF05DA3E63D2EDEA8B8756C05A7FB6CABC4A91CBF325398202CC952E70A008A830324BA200D5E5EF8F5F04C75DB4B0EE3340E071C98B823333B83577596BF3849B69F2085AA0FAFA212F26BEFF5877
310
FDE622B28D88A42E49E43326DA82D31E8CB006401E1DA726059ECEC168F97A6599036306A135688F9AD2E61A6EA178F4CD51974A9F2CCB9F36FE5EBD14601068D9C3BF01504B0304140006080000B670623B000000000000000000000000350000006662782F42384135303843342D343331462D343546312D424341352D35
310
32343432364645413344462F76657274696365732E62696E504B0304140006080800B670623BF270F1330600000004000000360000006662782F42384135303843342D343331462D343546312D424341352D3532343432364645413344462F747269616E676C65732E62696E636660600000504B0304140006080000B67062
310
3B000000000000000000000000370000006662782F42384135303843342D343331462D343546312D424341352D3532343432364645413344462F617474726962757465732E62696E504B0304140006080800B670623B08DA0BD19000000041010000360000006662782F42384135303843342D343331462D343546312D4243
310
41352D3532343432364645413344462F6469726563746F72792E786D6C858F410AC3201045AF22B36F53E9A60B35CBEEBAE80D244E44489C6234F4F835464A48035D0DF398FF9F8AF63D0E6CC63039F212F8F9020C7D47C6792B21C5FE7403D62A1188E2E60C98D7234A5830286103A55745067B9D86B8A3CF9C7F90C11DE6
310
07FB144396D7B6A82D282E9A152AD114D5EF2CB866EEE831B8EEA07A7BB5A8D7D61A2BAAEB7FD5F70921FF497D00504B0304140006080800B670623B3B4606F3FE000000A00100003B0000006662782F42384135303843342D343331462D343546312D424341352D3532343432364645413344462F7265736F75726365732F
310
636F72652E786D6C8D504B6E833010BD0A9A6D65B08134808CA354A427E8052C332156828DFCA97AFC9A40A576D7CDCCE87D344F8F9FBEE647F689CE6B6B7A6039850C8DB2A336530F315C4903D94970676DF82583CCC8197B5861107C72362E3BA4AC096842428D1D7107A5F71820538F74F4E0D50D6799CB1892C2DFF345
310
AABB9C306779A2934E701F5C0A906D4FD609C2A1B7D129F4BCD858C163D4E3AED163FAA9AF1A1D88F67CA98E6D35906AA82A52BFB39ABCD5CD915C86331BD86BD3B665CD8BD52C78D0F34F46E550061C419494B6843142CB0F5677F4D0D58717DA7494F26295FF31C565FCA7296A13AA728FBBD93C0896823C09C18BB5AFB4
310
9E65A6BD762BBE01504B010214000A0000080000B670623B3DEE336E79000000790000001B00000000000000000000000000000000006175746F6465736B2D64657369676E2D7061636B6167652E786D6C504B01021400140006080800B670623BD486FD9CA0000000F40000001300000000000000000000000000B2000000
310
5B436F6E74656E745F54797065735D2E786D6C504B01021400140006080800B670623B28ED286BEB0000007C010000080000000000000000000000000083010000636F72652E786D6C504B01021400140006080800B670623B55019EA25F0000007C000000070000000000000000000000000094020000636E782E786D6C50
310
4B01021400140006080800B670623B7BC41AC871010000D40300000C00000000000000000000000000180300006662782F636F72652E786D6C504B01021400140006080800B670623B70102A487D0000009D0000000B00000000000000000000000000B30400006662782F636E782E786D6C504B01021400140006080800B6
310
70623B3610CA3329010000120200003100000000000000000000000000590500006662782F42384135303843342D343331462D343546312D424341352D3532343432364645413344462F636F72652E786D6C504B01021400140006080800B670623B1B8617914E010000330300003000000000000000000000000000D10600
310
006662782F42384135303843342D343331462D343546312D424341352D3532343432364645413344462F636E782E786D6C504B01021400140006080800B670623BBFEF2E3B690500003C10000034000000000000000000000000006D0800006662782F42384135303843342D343331462D343546312D424341352D35323434
310
32364645413344462F6F626A656374732E786D6C504B01021400140006080000B670623B0000000000000000000000003500000000000000000000000000280E00006662782F42384135303843342D343331462D343546312D424341352D3532343432364645413344462F76657274696365732E62696E504B010214001400
310
06080800B670623BF270F133060000000400000036000000000000000000000000007B0E00006662782F42384135303843342D343331462D343546312D424341352D3532343432364645413344462F747269616E676C65732E62696E504B01021400140006080000B670623B00000000000000000000000037000000000000
310
00000000000000D50E00006662782F42384135303843342D343331462D343546312D424341352D3532343432364645413344462F617474726962757465732E62696E504B01021400140006080800B670623B08DA0BD1900000004101000036000000000000000000000000002A0F00006662782F42384135303843342D3433
310
31462D343546312D424341352D3532343432364645413344462F6469726563746F72792E786D6C504B01021400140006080800B670623B3B4606F3FE000000A00100003B000000000000000000000000000E1000006662782F42384135303843342D343331462D343546312D424341352D3532343432364645413344462F72
310
65736F75726365732F636F72652E786D6C504B0506000000000E000E0080040000651100000000
  0
XRECORD
  5
187
102
{ACAD_REACTORS
330
186
102
}
330
186
100
AcDbXrecord
280
     1
 70
     1
 90
429727718
  1
887D55A9-D0DD-414E-B741-A7DCD4DA2B4C
310
504B03040A0000080000B670623B3DEE336E79000000790000001B0000006175746F6465736B2D64657369676E2D7061636B6167652E786D6C3C3F786D6C2076657273696F6E3D22312E302220656E636F64696E673D227574662D3822203F3E3C666F726D6174733E3C666F726D61743E687474703A2F2F736368656D612E
310
6175746F6465736B2E636F6D2F64657369676E2D7061636B6167652F323030393C2F666F726D61743E3C2F666F726D6174733E504B0304140006080800B670623BD486FD9CA0000000F4000000130000005B436F6E74656E745F54797065735D2E786D6C7D8EC10E82300C865F65E91D8A1E8C310C0EEA1BF002731658846E
310
D98AC1B77784ABF1D8FE5FBFBF75BBCE937A534CCEB38643598122B6FEE978D0B0485F9C41B54DDD7D022595594E1A469170414C76A4D9A4D207E29CF43ECE46F218070CC6BECC4078ACAA135ACF422C856C0E68EA1BF5669944DDD7BCDE7B1F8E415D77AECB980613C2E4AC91FC167A2B244592486606FC29C8FD7F045B9A
310
EF7053A7E60B504B0304140006080800B670623BBC1638F5EC0000007C01000008000000636F72652E786D6C8D90416EC3201045AF82665B61836BE2D8C24471DB9CA01740401C94182C03558F5F9C3852BBEB6A467FFE9B197D7EF89E6EE8CB2CC17AD7032D0820E394D7D68D3DA478C67B4007C117EFE32F1B202727D3C3
310
2A83E0E3E2D3BC49CABB685CCCAAF3DA6CA20CC14440EA969B1E82BA98491632C5EC08D76296EA2A4753D06797E194AC468F2356E77DF66CCD02825543D50CACC62D39ED70FDC68EB8FD68F6F8787A6784342D1DDA1D2F5758F068A7E77DB518198D065111D2624A31A93E69DD11D6D5EC85EC3B4278B9DAFF4069D6FF8492
310
75F1B5DADE7D600104CD8FDC0782976B16B9DC83CA75CD4DFC00504B0304140006080800B670623B55019EA25F0000007C00000007000000636E782E786D6C4DCB3B0E80201045D1AD90E915ED2CF8AC45050C11660C8261F98AB1B07AC9C97D42D718D865D3E909258CFD00CCE24AC6E326A164D74DC0B4128928FF326038
310
472BA13128B1252AC747C6BAB984FC68F0B87FE8960A5C09FE86CFB69FBA01504B0304140006080800B670623B3586FFB671010000D40300000C0000006662782F636F72652E786D6CC553ED6E8320147D15C2DF4541A76D6D90A6DDD627D80B50A4CE54C120983EFEAE1F4DD7A55BBA5FF3879273EEE59E7310B6393735EA
310
95ED2AA3731C851423A5A5292A5DE6D8BB63B0C268C39935C67D29C3488B46E578803167A535BE9D2169B453DA01AA4DA16650749D7218C91A1639EEE4876A4428BC838AEE14B6429E44A9C228041AEA38EB9C0501681A32BC313F1ECE8C4C3867DE57C5CC56054CAB8E95B298A7F12E5EEED224C8E87E11242FE936C8DE96
310
AB60BB7F4D295D66D12E5B30323473E6AAE6A24E5A259C2A308F29CD82280A68FC1E256B9AAE93F489AED694323294DF34F9B678B0C957DA3DC7B3DCA9ADC33C022123F1CD2D44E450277AD04338234388F01913BE0D1A0281909D38D4171F27807A259DB1093085F157AA17B557309586747CD0CF0B46A64E983A6E0EAEEF
310
CE881F9EF1FB8E70D44297604238581EBC1B74B249C31C5AAB6CD0BB33D2C636A27ECCC62F0EFF445DC5DF95244D6DEC7F2922F30191F9F720C37DE49F504B0304140006080800B670623B4220A0FF7D0000009D0000000B0000006662782F636E782E786D6C4DCCD10A83201886E15B91FFDCE542CB0335D0EC3E6259C84A
310
C3E9D8E5AF46073BFAE0E1E315DD675BD1DBA5978F41C2FD4600B9F088930F8B849267CC01754AA418F3DF0D50183727E164506249B1EC174D6E1ECB9A0F5D7D785E68DB8151CD286E5A5363CA6B8A39E90D36D40E96B086F55A43A544F52B1D7B86D517504B0304140006080800B670623B2FA3FEDE290100001202000031
310
0000006662782F45374635344235342D363743322D343832342D383044432D4334454645303536354442422F636F72652E786D6C8D515B6EC32010BC0AE22B55850D2E386E848994D7097A0117488A1283C5A3CAF10BB523B57FF961D1ECCCECC0F2ED7DBC816FED8371B687A4C210682B9D32F6D2C314CFA883602BB8772E
310
FEA141608751F7B0C050F08B77695A20E96CD43666D43AA5177008414708E42D5F7A18E4971E876A483133C2B59A06791D2EBA22556E679EE021FA1C00CC43CA09C5717D6274C7286AD7FB06D1AEA1A8C3873DDAD3E3E98859CB0EBB1DAF67A1E02919B5C88DCA71CCD968FFAC49110B1ECDF8882FBD1EA256503418BF2342
310
106E3E08DD60B6A1EC15771B8C795DE8FF4469524F8A92B1F1AD59E2CEB20005E1F5DC105CB9F4797B84D1F7C9F908CABC55D0F2050A5C61CC1AD2F27A26E6E767C7962E8E213A9FBF7775FDCC5CC266DB960A5E970DE5F2BBBE5CCB36C50F504B0304140006080800B670623B1B8617914E01000033030000300000006662
310
782F45374635344235342D363743322D343832342D383044432D4334454645303536354442422F636E782E786D6CD593C16EC32010447F0571AD6CE3D489D20813A9877E410FBD62D82434182CC055F3F75D1292E692438FBD206B7698593D61BEFD1E2DF982108D773D6D6B460938E5B571FB9ECE6957AD29D90A1EBC4F77
310
364A9C1CA1A759A682EF839FA72269D8C9D92654AD71C72206887E0E0A22CAF926B15E498B01E0AA19451807D01A34B919F16B070157417138917400F2F6FA41FCF0092A45DEE414C19BDC21783E4BD39D891265658C3D8DEA00A3ACE59CBC8678ACB54CB26EEB6BD7839D7E9348BE70AD9C8321B9BCA7F9A4A26C542347DE
310
E050F09802D22BA6749A800A394DD62899107273365E3C82CFC6A55557BC06C10774B7ABE7AEC3B0F34CF06446280E154026D0542C187BA9DAB6628BF7B6DBB0E5A65B3EB1F58631DE64BBE083F7B65CC218087E22CABB042E51D1F2268F1FE12B3EA24D40D63E9CFE00120194D60B9D5BC67FE6D39CDF37E20AF817881F50
310
4B0304140006080800B670623B29652116630500003C100000340000006662782F45374635344235342D363743322D343832342D383044432D4334454645303536354442422F6F626A656374732E786D6CAD575D739B3814FD2B0CFB0C989834C90EA1639B24E3E9A6EDD4D3CE3E64C623834CD8006224913AFDF57B040203
310
B65BEF871F0C12D2FD3CF7E8CA7FBFCB33E3957291B2E2D674ED8969D02262715A24B76625B7D6B569BC0F7CCE98EC2D338D82E4F4D654D366E0279C55A59E8AE99654991CCDDECFFF3444440B6A1A514684B83545F44C7362934AB2988A173B2692D8C97667BB76B3702836E1A47C1E092D09A78584A5982F20C5688C7287
310
C389E904BEA3BE07BEFAD7ABA6A75739B53F43FD69212429A20365233153D70BEF2E2E6FAC4BCF9B5ADEBB0BD79ADFCF43CBBD9A4E16EF168B9BD9DD0D140BC921495BC2E9D60C1E101B9E46BED37CEA2CD6861F3329624541A3DA7F7858DBAC25C6B4A4458C3CA654405BCFEBC970E8AAD8F43E4FD558ABEC4F9FE7557F47
310
4F506B7BFBEC5BCA367FC105710E2AB8A00A554D7CB4A30DFE26FBA86D18CBF4B75418399194A72433B274C3097F33032C554B027F2046A1932B842B0FCCC0DDCBEBDB8AD2F835768F59B9ADB24C41D30C6A64AF817F2A456D59FA83F2E3DA60137255A585BCD60EC9B7929AC18DEFD49381AF1ED30BFDB109A4B1CD488294
310
C3CDE6EBC8D185AABD6568061FEE37BB95AAC7E3CA4BCE4ACAA5820FA0D526AE7DAA2869B5EE5999531BE0CC20E6FBA07C41E43FA27CF7A6206F3CDD793B4F6B919C1462CB788EDCD893FA674CDA17AB7B3B7C019F8D561FAEE966FED562DFE98C1D12C6A9FC015C2A35D7FF3D7FC398F591DA4B5FE0BFA2C0189FEA50AE22
310
92817A1ED3020951A03432862970F976B33383259812CC8E5D240BBA801CBCF8CE2BBEE3BF910DB6AAD5F79E05123AE2DB33981FB1ACCB02B69D00CB014FD68AB573A7627EF9BFD4CC2C5C7D58557C4B22FAA88925A4DBB44825CECE3D78FB060D1231F0E885BE7D673C86A3874958F593906B5502D1563157814FDAC3420D
310
F69A070A22EC4B98E23CFF171A1E5311D12C23056555ABA53B8614563B92D17D02AAB009E8F46284624E5F53D5490C560CCCC2591FF1B45421EB0EBD8EA7ED13BE7C5D7E0428CD60FEF60779EB13E6664FF711CB185F6FDED60D139A001FF60CD1FD6D086F1D51474901E26B2CB794A343BC8ED3EDB612E0DD2351FCB65CF4
310
33D511C9E14B5B40ADC6A6263DB0336A8F700DDF56271A024E70B0B3629DE21847591E55DED73D56206AB927E46FAABC5C939C55853C274C93D69FD6FA4E78BF8B11DF898C9ECD60553FAD39283BA6F18984AA23E8884F83F45C5F5F859797B31B2B9C84A1E5B9DE9D35BFF25C6B76152E422F9C5DCC3D847F5801ED09D5AF
310
41441327A25FF15487F9EB725FB666F048A4701E9A827292E6F97569A32DF61DEC01C0BB8DCBBCCC684E0B49147C1FD54BF685A0AB18C868E6973949E819523E3DAC463660E68C7D9F55A9D1EFA3BD7A76A16AE1A810F95CE59B82A4D968A376DC2E8B44BBDD86B27B368CDE0ED548C7137DA860591A83706223A12CA712B4
310
7306DBF39C0A20A6DF95C7FAF670C6EED7A61F946493D1D6926782963813403548A78AE470DEF80D2D9CEAA26E4D1C76F60BFE74219A06527D6B82DF641A51616F703CAAC6A7160E08A00BEB4810A0274592A1B36E3675E36E978A0DE80727A0D6DF2D39A75BD27E0D8837276589537B40ABB56D5A41F48F1C6FCD3188C4EB
310
A6929D2FFB89CE995A4D00AE813BDD032DC48B56BD437DFDDC2DD7AED70C2272D63DE9A72068A45A92F0A4BE17A8A06B9366E16707AD80B1FC649459952097E74BB23805982B55E0401150A165964402AA8BDF9F3E7386BB686EDCA780C0D382E5392BF460A6EFB2C6EA1937D3F809B440D5F5435C4C5CF7A9EEFAF54564BD
310
2182DA24162F98680B4E7930C21A0079709CEAEB99A372305ABE0C0D7D6078105A83F6A0296DAEE1068A47DD1C55A9F4C9B2FC69E3EFD44B81028E963DF81B504B0304140006080000B670623B000000000000000000000000350000006662782F45374635344235342D363743322D343832342D383044432D433445464530
310
3536354442422F76657274696365732E62696E504B0304140006080800B670623BF270F1330600000004000000360000006662782F45374635344235342D363743322D343832342D383044432D4334454645303536354442422F747269616E676C65732E62696E636660600000504B0304140006080000B670623B00000000
310
0000000000000000370000006662782F45374635344235342D363743322D343832342D383044432D4334454645303536354442422F617474726962757465732E62696E504B0304140006080800B670623B08DA0BD19000000041010000360000006662782F45374635344235342D363743322D343832342D383044432D4334
310
454645303536354442422F6469726563746F72792E786D6C858F410AC3201045AF22B36F53E9A60B35CBEEBAE80D244E44489C6234F4F835464A48035D0DF398FF9F8AF63D0E6CC63039F212F8F9020C7D47C6792B21C5FE7403D62A1188E2E60C98D7234A5830286103A55745067B9D86B8A3CF9C7F90C11DE607FB144396
310
D7B6A82D282E9A152AD114D5EF2CB866EEE831B8EEA07A7BB5A8D7D61A2BAAEB7FD5F70921FF497D00504B0304140006080800B670623B6378F24DFF000000A00100003B0000006662782F45374635344235342D363743322D343832342D383044432D4334454645303536354442422F7265736F75726365732F636F72652E
310
786D6C8D504B6E833010BD0A9A6D65B0094E42641C85B639412F6099496225D8C89FAAC7AF09546A77DDCC8CDE47F3F4C4F16B7C149FE88371B603565228D06A37187BED20C50BD9437194C23B177FC9A0B06AC40E6618A4B87A97A615D2CE46B431A3D60DB8822A048C50E8473E3A08FA86A32A558A5911EEE5A4F45D5DB1
310
6465A6B34E8A107D0E502C4FE609D26370C96B0CA25A58295232C3AA3143FE692E063D485EF7F5AEE71BD2D2F39634AFFC44DAF7DD9E9CCE6F9CD25DCBFA762BAAD92C4534E34F46ED51451C40D694B6843142EB0FD61C283F34FC85EE0F948A6A96FF31A569F8A729191B37F51A77B105902C0779125254735F793DCBCC7B
310
EE567E03504B010214000A0000080000B670623B3DEE336E79000000790000001B00000000000000000000000000000000006175746F6465736B2D64657369676E2D7061636B6167652E786D6C504B01021400140006080800B670623BD486FD9CA0000000F40000001300000000000000000000000000B20000005B436F6E
310
74656E745F54797065735D2E786D6C504B01021400140006080800B670623BBC1638F5EC0000007C010000080000000000000000000000000083010000636F72652E786D6C504B01021400140006080800B670623B55019EA25F0000007C000000070000000000000000000000000095020000636E782E786D6C504B010214
310
00140006080800B670623B3586FFB671010000D40300000C00000000000000000000000000190300006662782F636F72652E786D6C504B01021400140006080800B670623B4220A0FF7D0000009D0000000B00000000000000000000000000B40400006662782F636E782E786D6C504B01021400140006080800B670623B2F
310
A3FEDE290100001202000031000000000000000000000000005A0500006662782F45374635344235342D363743322D343832342D383044432D4334454645303536354442422F636F72652E786D6C504B01021400140006080800B670623B1B8617914E010000330300003000000000000000000000000000D2060000666278
310
2F45374635344235342D363743322D343832342D383044432D4334454645303536354442422F636E782E786D6C504B01021400140006080800B670623B29652116630500003C10000034000000000000000000000000006E0800006662782F45374635344235342D363743322D343832342D383044432D4334454645303536
310
354442422F6F626A656374732E786D6C504B01021400140006080000B670623B0000000000000000000000003500000000000000000000000000230E00006662782F45374635344235342D363743322D343832342D383044432D4334454645303536354442422F76657274696365732E62696E504B01021400140006080800
310
B670623BF270F13306000000040000003600000000000000000000000000760E00006662782F45374635344235342D363743322D343832342D383044432D4334454645303536354442422F747269616E676C65732E62696E504B01021400140006080000B670623B0000000000000000000000003700000000000000000000
310
000000D00E00006662782F45374635344235342D363743322D343832342D383044432D4334454645303536354442422F617474726962757465732E62696E504B01021400140006080800B670623B08DA0BD190000000410100003600000000000000000000000000250F00006662782F45374635344235342D363743322D34
310
3832342D383044432D4334454645303536354442422F6469726563746F72792E786D6C504B01021400140006080800B670623B6378F24DFF000000A00100003B00000000000000000000000000091000006662782F45374635344235342D363743322D343832342D383044432D4334454645303536354442422F7265736F75
310
726365732F636F72652E786D6C504B0506000000000E000E0080040000611100000000
  0
XRECORD
  5
112
102
{ACAD_REACTORS
330
110
102
}
330
110
100
AcDbXrecord
280
     1
270
     1
271
     1
  0
XRECORD
  5
111
102
{ACAD_REACTORS
330
110
102
}
330
110
100
AcDbXrecord
280
     1
270
     1
271
     1
  0
XRECORD
  5
18A
102
{ACAD_REACTORS
330
110
102
}
330
110
100
AcDbXrecord
280
     1
 70
     0
 90
1778669749
  1
9BF507EE-FAF7-4A99-A33D-4EE51894BC40
310
504B03040A0000080000B670623B3DEE336E79000000790000001B0000006175746F6465736B2D64657369676E2D7061636B6167652E786D6C3C3F786D6C2076657273696F6E3D22312E302220656E636F64696E673D227574662D3822203F3E3C666F726D6174733E3C666F726D61743E687474703A2F2F736368656D612E
310
6175746F6465736B2E636F6D2F64657369676E2D7061636B6167652F323030393C2F666F726D61743E3C2F666F726D6174733E504B0304140006080800B670623BD486FD9CA0000000F4000000130000005B436F6E74656E745F54797065735D2E786D6C7D8EC10E82300C865F65E91D8A1E8C310C0EEA1BF002731658846E
310
D98AC1B77784ABF1D8FE5FBFBF75BBCE937A534CCEB38643598122B6FEE978D0B0485F9C41B54DDD7D022595594E1A469170414C76A4D9A4D207E29CF43ECE46F218070CC6BECC4078ACAA135ACF422C856C0E68EA1BF5669944DDD7BCDE7B1F8E415D77AECB980613C2E4AC91FC167A2B244592486606FC29C8FD7F045B9A
310
EF7053A7E60B504B0304140006080800B670623BCA089DFFEC0000007C01000008000000636F72652E786D6C8D90416E83301045AF62CDB632D8402020E32882F604BD80653BC44AB011B6AB1EBF262152BBEB6A467FFE9B197D76FA9EEFE84BAFDE38DB03CD08206DA553C64E3DC470C1474027CE56E7C22F1B202B66DDC3
310
260367D3EAE2B24BD2D9A06D48AA754AEFA2F05E0740F29E9A1EBCBCEA59642286E4F0B76C11F226269DD15797E0188D42CF2346A57DE662F40ABCAEC77628C6120F654571D50C04B7F5B9C1E3997CD4F550BE3745C3F20DE62C98F9755FAE5A04AD801784B498524C8A4F5A75E4D055873772EC0861F966FF03C545FD138A
310
C686B2D8DF7D621E384D8F3C069CE55B16A93C824A75CB8DFF00504B0304140006080800B670623B55019EA25F0000007C00000007000000636E782E786D6C4DCB3B0E80201045D1AD90E915ED2CF8AC45050C11660C8261F98AB1B07AC9C97D42D718D865D3E909258CFD00CCE24AC6E326A164D74DC0B4128928FF326038
310
472BA13128B1252AC747C6BAB984FC68F0B87FE8960A5C09FE86CFB69FBA01504B0304140006080800B670623B68FC0B7272010000D40300000C0000006662782F636F72652E786D6CC5535B6E833010BC8AE5DF0A6C1E8124328E22D29EA01770C0A128602363A31CBFCB234A53A555FA553EC09AD9F5CE8C31DB5DDA060D
310
D2F4B556190E7C8A9154852E6B5565D8D993B7C668C799D1DA7E29C3488956667884316795D1AE5BA0422B2B950554E9522EA0E87B69312A1A5864B82F3E642B7CE12C54F467BF13C55954D20F7CA0A18EB3DE1A1080E621E31BF3D3F1C2C88C73E65C5D2E6C5DC2B4FA544B8379921C36797888BC3C8A032F4E73EA6D927D
310
EA1DF6F42D49F2E8350D5346C666CE6CDD5ED515460A2B4BCC434A375E1078347C0FE22D5D6DE3D50B5D6F2965642CBF6B725DF96493AB958DC245EEDCD6631E809089F8E61622B2A81703E8219C913144F84C09DF070D8140C8561C9BAB8F3340832CAC363130A576376A108D933095FA747AD0CF0B46E64E983A6D0EAE1F
310
CE089F9EF1FB8E70D44255604258581E9D1D75B259C3125A278D37D80B52DAB4A279CEC62F0EFF44DDC43F9454E8469BFF5244960322CBEF41C6FBC83F01504B0304140006080800B670623B0F71DDB67E0000009D0000000B0000006662782F636E782E786D6C4DCCD10A83201886E15B91FFDCA54DB73F502386BB8F5816
310
32D3703976F9ABD1C18E3E78F87855FB990379BBFCF2296AE02706C4C5471A7C9C349475A408A4352AA7B4FEDD80C47E761A7606A3A69CCA72D0E0C6BE8475D3E0E3F3409428EA6B27A84079A782899AA2EC1A7AE3ECCC2FD858CB2D544655BFD2B67BD87C01504B0304140006080800B670623BE134B4FB28010000120200
310
00310000006662782F38353834323741342D343835462D343034322D383541392D4331303331363839454531452F636F72652E786D6C8D515B6EC32010BC0AE22B55850D0EA424C24451959EA0172086A42831583CAA1CBF503B52FB971F16CDCECC0EACD8DFC71BF836215AEF7A481A0C817183D7D65D7A98D3197108F652
310
04EFD31F1A044E8DA6871586525C82CFD3020DDE25E352419DD76601558C264130DCCAA58771F832A36A544E8511AFCDA486ABBA988634A55D7852C4144A00300FA927949C71DABD1D28A29C7D208A6987383B6CD13BC16BB2E1DBE3911C453B0BA5C8D9EA456E758963CFD684674DAA588A64C747FC2118958C86B2C3788B
310
0841B8FB247487D98EB257CC77188BB6D2FF89F2A49F1465EBD2BA5BE2CEB2082511EDDC9042FB7CBA3DC298FBE4430275DE2A9AE1054ADC60CC08E3A29D89E5F9C5714317C7987C28DFBBBA9E0A97B0D97643A568EB864AF95D5FA9759BF207504B0304140006080800B670623B1B8617914E010000330300003000000066
310
62782F38353834323741342D343835462D343034322D383541392D4331303331363839454531452F636E782E786D6CD593C16EC32010447F0571AD6CE3D489D20813A9877E410FBD62D82434182CC055F3F75D1292E692438FBD206B7698593D61BEFD1E2DF982108D773D6D6B460938E5B571FB9ECE6957AD29D90A1EBC4F
310
77364A9C1CA1A759A682EF839FA72269D8C9D92654AD71C72206887E0E0A22CAF926B15E498B01E0AA19451807D01A34B919F16B070157417138917400F2F6FA41FCF0092A45DEE414C19BDC21783E4BD39D891265658C3D8DEA00A3ACE59CBC8678ACB54CB26EEB6BD7839D7E9348BE70AD9C8321B9BCA7F9A4A26C542347
310
DEE050F09802D22BA6749A800A394DD62899107273365E3C82CFC6A55557BC06C10774B7ABE7AEC3B0F34CF06446280E154026D0542C187BA9DAB6628BF7B6DBB0E5A65B3EB1F58631DE64BBE083F7B65CC218087E22CABB042E51D1F2268F1FE12B3EA24D40D63E9CFE00120194D60B9D5BC67FE6D39CDF37E20AF817881F
310
504B0304140006080800B670623B5933D422630500003B100000340000006662782F38353834323741342D343835462D343034322D383541392D4331303331363839454531452F6F626A656374732E786D6CAD575B6FA33814FE2B887D0642934E9B156594264D158D3A534DD4D13E548A0C38942D60649B4EBABF7E3F8321
310
40924EF6928780CDF1B97EE762EFF32E4B8D37CA45C2F21BD3B547A641F39045491EDF98A5DC5AD7A6F1D9F73863B243661A39C9E88DA9B64DDF8B392B0BBD15D12D295339D85DDEFE618890E6D434C2940871638AF08566C426A5641115AF764424B1E3EDCE76ED9AB0CF36E6A47819302D08A7B984A6D8CFC1C5A89572FB
310
CB91E9F89EA3BEFB9EFAD754E3D3544E654F5F7E920B49F2F040D880CDD89D2CEE2E2EA7D6E56432B6269F2E5CEB7679BBB0DCABF168FE693E9FCEEEA6102C240727AD09A75BD3BF876F78127A4EFDA9D5582B7E4CA590E5390D2BFB6161A5B3E618D182E611E2985001691DAB47FDA5AB7CD3F93C566B2DB2BB7D9E55DD13
310
1D468DEECDB3AB290BFE8409E21C54704115AA6AFF68436BFC8DF65E0B184BF5B74418199194272435D224E084BF9B3E481589EFF5D828747285706581E9BB7B7E5D5D911ABFC6EE312DB7659A2A689A7E85EC0DF04FA5A8344BFEA2FCB834E8845895492EAFB541F2BDA0A63FF59C6AD3F7D4637CA13FD68E34B629891172
310
98597F1D183A57B9B75A98FE9765B05BAB7C3C2EBCE0ACA05C2AF8005A4DE09AA7F29216EB9E15397500C6F47CBE77CA7778FE2BD277AF0AE2C693DD6437D1522427B9D8329E2136F6A8FA19A3E6C56ADF0E5F50CF06D48734EDCEBF22F69C56D97EC138153F804B85E6FABFC7AFEFB32E523BE1F3BD372418E363EDCA7548
310
52949E8724474014288D94610BB57C1BEC4C7F854A89CA8E5324F55B871CBC78CE1BBEE3BFE68D6A5589EF3C730474506FCFA8FCF0659516D0ED04580EEA6425581B77CAE797FF4BCECC16EB2FEB926F49481F746159D06D922712BD730FDEAE42BD40F42C7AA5EF3F198F60E86110D6DD20645A9480B795CF95E3E3A659A8
310
C55E724F408873315335CFFB8584874484344D494E59D94869DB90C26A5B64F49C802CAC1D3ABE18A098D3B7444D123D8A9E5AE8F5214F0AE5B2B6E9B575DA3E61CBD3EA2B4009FA940524DD1305FB6A1FB294F14DF0BEA90BA109ECE1481FDC3FFAE8D60E75141700BE82725371B4873751B2DD960265F788137FACE6DD40
310
B575E4F0A5C99F46629D92131467A41EE11ABD8D4CCC039CA0AFB37C93A08B232B8F0AEFCA1E0A1015DF13FC83322B362463652ECF71D3A8B1A7D1BE65DE1D62C44F22C317D35F574FEB16153BA2D13E543D10A80E74C4A65E78A6B7CBCBD1D5DD9DB59C2DAFACC96C3AB566E3F1C29ADCDD5DBAD7D3C9ED7C822ED74F80A6
310
41755310DE4443F44A9E68373FADF6596BFA0F440AE7BECE2727AE9F4F2B1B53B1E7E00CF0DD1E5C65454A339A4BA2D0FBA05ED2EF0443458F47BDBFCA484CCFE0F2ED7E3DD0013B679C7B5499467F0ECEEADDB9CA85A34CE44B99053949D2C1416DB85DE4B136BB7165FBAC0B7AB3542BED4F8CA182A549847A1319316519
310
95A83A67147B9E5101C47487F2485F1ECE38FD568F839204296D3479219888530154036E6528FBFBC66F98E0D4107563A2D7D9AFF8D389681A08F58D89F22693900A3B407754734FC51C10C010D6D640809EE4718AC1BA3ED4AEDB53CA37283F68805A7E4B72CEB0A4EDEAD5DD8C14059A76AFAA56BA6901E13F32BC51C720
310
12AF41295B5BF61BAD3195181FB506E6B40F4C10AF5AF40EF9F5B159AE5DD1F43C72D635E94310D45C2D49785C5D0B94D3B54AB3C5A38349C0587D338AB48C11CBF339599C02CCA54A70A008A8D03C0B2201D5F9EFCF8F9CE12A9A19CB0410789EB32C63B95ECCF455D658BFE0621A3DA32C5075FB101723D77DAE867E7D0F
310
D90444509B44E2151B4DC2290B065803200FBAA9BE9D392A0603F2D5C2D00D6302A615680F66D2FA166E2079D4C551A54AB758161FCEFD4E450A14704CECFEDF504B0304140006080000B670623B000000000000000000000000350000006662782F38353834323741342D343835462D343034322D383541392D4331303331
310
363839454531452F76657274696365732E62696E504B0304140006080800B670623BF270F1330600000004000000360000006662782F38353834323741342D343835462D343034322D383541392D4331303331363839454531452F747269616E676C65732E62696E636660600000504B0304140006080000B670623B000000
310
000000000000000000370000006662782F38353834323741342D343835462D343034322D383541392D4331303331363839454531452F617474726962757465732E62696E504B0304140006080800B670623B08DA0BD19000000041010000360000006662782F38353834323741342D343835462D343034322D383541392D43
310
31303331363839454531452F6469726563746F72792E786D6C858F410AC3201045AF22B36F53E9A60B35CBEEBAE80D244E44489C6234F4F835464A48035D0DF398FF9F8AF63D0E6CC63039F212F8F9020C7D47C6792B21C5FE7403D62A1188E2E60C98D7234A5830286103A55745067B9D86B8A3CF9C7F90C11DE607FB1443
310
96D7B6A82D282E9A152AD114D5EF2CB866EEE831B8EEA07A7BB5A8D7D61A2BAAEB7FD5F70921FF497D00504B0304140006080800B670623BD9A3B367FE000000A00100003B0000006662782F38353834323741342D343835462D343034322D383541392D4331303331363839454531452F7265736F75726365732F636F7265
310
2E786D6C8D504B6E833010BD0A9A6D65B01D0201194711694FD00B586642AD043BF2A7EAF16B122AB5BB6E6646EFA3797AE2F8B5DC8A4FF4C1383B002B291468B59B8C9D0748F1420E501CA5F0CEC55F3228AC5A708015062966EFD27D83B4B3116DCCA875136EA00A012314FA968F0182FEC045952AC5AC08D7F2AEF455CD
310
58B232D3592745883E07289E4FD609D26370C96B0CA27AB252A464A64D63A6FCD35C0C7A904D73EE467EE664DCD58CD4ED4849D79C5A723ED1B7A61977AF2D6F45B59AA58866F9C9A83DAA8813484E6947182394BFB3BAA7FBBEDEBFD0434FA9A856F91F53BA4FFF342563E38E6F719FB60092E5200F428A6AED2BAF479979
310
AFDDCA6F504B010214000A0000080000B670623B3DEE336E79000000790000001B00000000000000000000000000000000006175746F6465736B2D64657369676E2D7061636B6167652E786D6C504B01021400140006080800B670623BD486FD9CA0000000F40000001300000000000000000000000000B20000005B436F6E
310
74656E745F54797065735D2E786D6C504B01021400140006080800B670623BCA089DFFEC0000007C010000080000000000000000000000000083010000636F72652E786D6C504B01021400140006080800B670623B55019EA25F0000007C000000070000000000000000000000000095020000636E782E786D6C504B010214
310
00140006080800B670623B68FC0B7272010000D40300000C00000000000000000000000000190300006662782F636F72652E786D6C504B01021400140006080800B670623B0F71DDB67E0000009D0000000B00000000000000000000000000B50400006662782F636E782E786D6C504B01021400140006080800B670623BE1
310
34B4FB280100001202000031000000000000000000000000005C0500006662782F38353834323741342D343835462D343034322D383541392D4331303331363839454531452F636F72652E786D6C504B01021400140006080800B670623B1B8617914E010000330300003000000000000000000000000000D3060000666278
310
2F38353834323741342D343835462D343034322D383541392D4331303331363839454531452F636E782E786D6C504B01021400140006080800B670623B5933D422630500003B10000034000000000000000000000000006F0800006662782F38353834323741342D343835462D343034322D383541392D4331303331363839
310
454531452F6F626A656374732E786D6C504B01021400140006080000B670623B0000000000000000000000003500000000000000000000000000240E00006662782F38353834323741342D343835462D343034322D383541392D4331303331363839454531452F76657274696365732E62696E504B01021400140006080800
310
B670623BF270F13306000000040000003600000000000000000000000000770E00006662782F38353834323741342D343835462D343034322D383541392D4331303331363839454531452F747269616E676C65732E62696E504B01021400140006080000B670623B0000000000000000000000003700000000000000000000
310
000000D10E00006662782F38353834323741342D343835462D343034322D383541392D4331303331363839454531452F617474726962757465732E62696E504B01021400140006080800B670623B08DA0BD190000000410100003600000000000000000000000000260F00006662782F38353834323741342D343835462D34
310
3034322D383541392D4331303331363839454531452F6469726563746F72792E786D6C504B01021400140006080800B670623BD9A3B367FE000000A00100003B000000000000000000000000000A1000006662782F38353834323741342D343835462D343034322D383541392D4331303331363839454531452F7265736F75
310
726365732F636F72652E786D6C504B0506000000000E000E0080040000611100000000
  0
XRECORD
  5
113
102
{ACAD_REACTORS
330
110
102
}
330
110
100
AcDbXrecord
280
     1
270
     1
271
     1
  0
XRECORD
  5
114
102
{ACAD_REACTORS
330
110
102
}
330
110
100
AcDbXrecord
280
     1
270
     1
271
     1
  0
CELLSTYLEMAP
  5
BF4B
102
{ACAD_REACTORS
330
104
102
}
330
104
100
AcDbCellStyleMap
 90
        3
300
CELLSTYLE
  1
TABLEFORMAT_BEGIN
 90
        5
170
     1
 91
        0
 92
    32768
 62
   257
 93
        1
300
CONTENTFORMAT
  1
CONTENTFORMAT_BEGIN
 90
        0
 91
        0
 92
      512
 93
        0
300

 40
0.0
140
1.0
 94
        5
 62
     0
340
11
144
0.25
309
CONTENTFORMAT_END
171
     1
301
MARGIN
  1
CELLMARGIN_BEGIN
 40
0.06
 40
0.06
 40
0.06
 40
0.06
 40
0.18
 40
0.18
309
CELLMARGIN_END
 94
        6
 95
        1
302
GRIDFORMAT
  1
GRIDFORMAT_BEGIN
 90
        0
 91
        1
 62
     0
 92
       -2
340
0
 93
        0
 40
0.045
309
GRIDFORMAT_END
 95
        2
302
GRIDFORMAT
  1
GRIDFORMAT_BEGIN
 90
        0
 91
        1
 62
     0
 92
       -2
340
0
 93
        0
 40
0.045
309
GRIDFORMAT_END
 95
        4
302
GRIDFORMAT
  1
GRIDFORMAT_BEGIN
 90
        0
 91
        1
 62
     0
 92
       -2
340
0
 93
        0
 40
0.045
309
GRIDFORMAT_END
 95
        8
302
GRIDFORMAT
  1
GRIDFORMAT_BEGIN
 90
        0
 91
        1
 62
     0
 92
       -2
340
0
 93
        0
 40
0.045
309
GRIDFORMAT_END
 95
       16
302
GRIDFORMAT
  1
GRIDFORMAT_BEGIN
 90
        0
 91
        1
 62
     0
 92
       -2
340
0
 93
        0
 40
0.045
309
GRIDFORMAT_END
 95
       32
302
GRIDFORMAT
  1
GRIDFORMAT_BEGIN
 90
        0
 91
        1
 62
     0
 92
       -2
340
0
 93
        0
 40
0.045
309
GRIDFORMAT_END
309
TABLEFORMAT_END
  1
CELLSTYLE_BEGIN
 90
        1
 91
        1
300
_TITLE
309
CELLSTYLE_END
300
CELLSTYLE
  1
TABLEFORMAT_BEGIN
 90
        5
170
     1
 91
        0
 92
        0
 62
   257
 93
        1
300
CONTENTFORMAT
  1
CONTENTFORMAT_BEGIN
 90
        0
 91
        0
 92
      512
 93
        0
300

 40
0.0
140
1.0
 94
        5
 62
     0
340
11
144
0.18
309
CONTENTFORMAT_END
171
     1
301
MARGIN
  1
CELLMARGIN_BEGIN
 40
0.06
 40
0.06
 40
0.06
 40
0.06
 40
0.18
 40
0.18
309
CELLMARGIN_END
 94
        6
 95
        1
302
GRIDFORMAT
  1
GRIDFORMAT_BEGIN
 90
        0
 91
        1
 62
     0
 92
       -2
340
0
 93
        0
 40
0.045
309
GRIDFORMAT_END
 95
        2
302
GRIDFORMAT
  1
GRIDFORMAT_BEGIN
 90
        0
 91
        1
 62
     0
 92
       -2
340
0
 93
        0
 40
0.045
309
GRIDFORMAT_END
 95
        4
302
GRIDFORMAT
  1
GRIDFORMAT_BEGIN
 90
        0
 91
        1
 62
     0
 92
       -2
340
0
 93
        0
 40
0.045
309
GRIDFORMAT_END
 95
        8
302
GRIDFORMAT
  1
GRIDFORMAT_BEGIN
 90
        0
 91
        1
 62
     0
 92
       -2
340
0
 93
        0
 40
0.045
309
GRIDFORMAT_END
 95
       16
302
GRIDFORMAT
  1
GRIDFORMAT_BEGIN
 90
        0
 91
        1
 62
     0
 92
       -2
340
0
 93
        0
 40
0.045
309
GRIDFORMAT_END
 95
       32
302
GRIDFORMAT
  1
GRIDFORMAT_BEGIN
 90
        0
 91
        1
 62
     0
 92
       -2
340
0
 93
        0
 40
0.045
309
GRIDFORMAT_END
309
TABLEFORMAT_END
  1
CELLSTYLE_BEGIN
 90
        2
 91
        1
300
_HEADER
309
CELLSTYLE_END
300
CELLSTYLE
  1
TABLEFORMAT_BEGIN
 90
        5
170
     1
 91
        0
 92
        0
 62
   257
 93
        1
300
CONTENTFORMAT
  1
CONTENTFORMAT_BEGIN
 90
        0
 91
        0
 92
      512
 93
        0
300

 40
0.0
140
1.0
 94
        2
 62
     0
340
11
144
0.18
309
CONTENTFORMAT_END
171
     1
301
MARGIN
  1
CELLMARGIN_BEGIN
 40
0.06
 40
0.06
 40
0.06
 40
0.06
 40
0.18
 40
0.18
309
CELLMARGIN_END
 94
        6
 95
        1
302
GRIDFORMAT
  1
GRIDFORMAT_BEGIN
 90
        0
 91
        1
 62
     0
 92
       -2
340
0
 93
        0
 40
0.045
309
GRIDFORMAT_END
 95
        2
302
GRIDFORMAT
  1
GRIDFORMAT_BEGIN
 90
        0
 91
        1
 62
     0
 92
       -2
340
0
 93
        0
 40
0.045
309
GRIDFORMAT_END
 95
        4
302
GRIDFORMAT
  1
GRIDFORMAT_BEGIN
 90
        0
 91
        1
 62
     0
 92
       -2
340
0
 93
        0
 40
0.045
309
GRIDFORMAT_END
 95
        8
302
GRIDFORMAT
  1
GRIDFORMAT_BEGIN
 90
        0
 91
        1
 62
     0
 92
       -2
340
0
 93
        0
 40
0.045
309
GRIDFORMAT_END
 95
       16
302
GRIDFORMAT
  1
GRIDFORMAT_BEGIN
 90
        0
 91
        1
 62
     0
 92
       -2
340
0
 93
        0
 40
0.045
309
GRIDFORMAT_END
 95
       32
302
GRIDFORMAT
  1
GRIDFORMAT_BEGIN
 90
        0
 91
        1
 62
     0
 92
       -2
340
0
 93
        0
 40
0.045
309
GRIDFORMAT_END
309
TABLEFORMAT_END
  1
CELLSTYLE_BEGIN
 90
        3
 91
        2
300
_DATA
309
CELLSTYLE_END
  0
ENDSEC
  0
SECTION
  2
ACDSDATA
 70
     2
 71
     8
  0
ACDSSCHEMA
 90
        0
  1
AcDb_Thumbnail_Schema
  2
AcDbDs::ID
280
    10
 91
        8
  2
Thumbnail_Data
280
    15
 91
        0
101
ACDSRECORD
 95
        0
 90
        1
  2
AcDbDs::TreatedAsObjectData
280
     1
291
     1
101
ACDSRECORD
 95
        0
 90
        2
  2
AcDbDs::Legacy
280
     1
291
     1
101
ACDSRECORD
  1
AcDbDs::ID
 90
        3
  2
AcDs:Indexable
280
     1
291
     1
101
ACDSRECORD
  1
AcDbDs::ID
 90
        4
  2
AcDbDs::HandleAttribute
280
     7
282
     1
  0
ACDSSCHEMA
 90
        1
  1
AcDbDs::TreatedAsObjectDataSchema
  2
AcDbDs::TreatedAsObjectData
280
     1
 91
        0
  0
ACDSSCHEMA
 90
        2
  1
AcDbDs::LegacySchema
  2
AcDbDs::Legacy
280
     1
 91
        0
  0
ACDSSCHEMA
 90
        3
  1
AcDbDs::IndexedPropertySchema
  2
AcDs:Indexable
280
     1
 91
        0
  0
ACDSSCHEMA
 90
        4
  1
AcDbDs::HandleAttributeSchema
  2
AcDbDs::HandleAttribute
280
     7
 91
        1
284
     1
  0
ACDSRECORD
 90
        0
  2
AcDbDs::ID
280
    10
320
22
  2
Thumbnail_Data
280
    15
 94
     1911
310
89504E470D0A1A0A0000000D49484452000001000000006D080300000079B14F6400000300504C5445212830FFFFFF2128300000000000000000000000000000000000000000000000000000330000660000990000CC0000FF0033000033330033660033990033CC0033FF0066000066330066660066990066CC0066FF0099
310
000099330099660099990099CC0099FF00CC0000CC3300CC6600CC9900CCCC00CCFF00FF0000FF3300FF6600FF9900FFCC00FFFF3300003300333300663300993300CC3300FF3333003333333333663333993333CC3333FF3366003366333366663366993366CC3366FF3399003399333399663399993399CC3399FF33CC00
310
33CC3333CC6633CC9933CCCC33CCFF33FF0033FF3333FF6633FF9933FFCC33FFFF6600006600336600666600996600CC6600FF6633006633336633666633996633CC6633FF6666006666336666666666996666CC6666FF6699006699336699666699996699CC6699FF66CC0066CC3366CC6666CC9966CCCC66CCFF66FF0066
310
FF3366FF6666FF9966FFCC66FFFF9900009900339900669900999900CC9900FF9933009933339933669933999933CC9933FF9966009966339966669966999966CC9966FF9999009999339999669999999999CC9999FF99CC0099CC3399CC6699CC9999CCCC99CCFF99FF0099FF3399FF6699FF9999FFCC99FFFFCC0000CC00
310
33CC0066CC0099CC00CCCC00FFCC3300CC3333CC3366CC3399CC33CCCC33FFCC6600CC6633CC6666CC6699CC66CCCC66FFCC9900CC9933CC9966CC9999CC99CCCC99FFCCCC00CCCC33CCCC66CCCC99CCCCCCCCCCFFCCFF00CCFF33CCFF66CCFF99CCFFCCCCFFFFFF0000FF0033FF0066FF0099FF00CCFF00FFFF3300FF3333
310
FF3366FF3399FF33CCFF33FFFF6600FF6633FF6666FF6699FF66CCFF66FFFF9900FF9933FF9966FF9999FF99CCFF99FFFFCC00FFCC33FFCC66FFCC99FFCCCCFFCCFFFFFF00FFFF33FFFF66FFFF99FFFFCCFFFFFF0000000D0D0D1A1A1A2828283535354343435050505D5D5D6B6B6B787878868686939393A1A1A1AEAEAEBB
310
BBBBC9C9C9D6D6D6E4E4E4F1F1F1FFFFFF0000000000000000000000000000000000000000000000000000000000002E4550F1000004324944415478DAED9DDD6EE430088579FFF7FDEEB7DD26131B03CE44958ACDE4A69D682AAD8F0F70F8B157E4F3FCF1C3FFA7F0F27F7E945DFFF04B5500A4A81560FE5ACF051436820F
310
002E004562A30BC0F7F22B406003704AA3AA0050481E986B2DE519892362050A10EA620A0040080075BC8060EE3A457C40F301294401A80E80F1893A5E506F2FE36B0AED7F8B400D3184F7A68A0D7800504409E000A04A01DB22602D0CB334406D007675036643A81800C519E0BEE48EB19404602F77682EE6EB253EE33703
310
C0798BFB5DB6B206DE00E028926F0580B7101B004F26AF6E003C00609398882F0599C0B50F036C2564CAC31E00D6B173C4B774C4F777B6135C4D167DC774CFD7E3B57FC195C28B750C21CEF97E829A691AC6AC40BF6ED659BEB83ECD090376AC576FF30310D7F488E2A099272B9799DD0B402C792FF377D3813836260780F8
310
2397F5BBFE6166022CB4FE61F34E61CF1B6A587B0656A1BF0940B0FDAF3830A105CB6C7FA75FDADD8F35A209EB020C0864DC59EB3860683DC19D2C49A9A6A44E80089583FBA7A83B6198883E8F162CB3FF2F0F76A8DFDE1EBCEADF9A0048E0D53A0A5F68DC6300AB3040C2B046BFFB4431131D3816008018809EFE91ADAFCA
310
00E2B4D8F1E88E6AC4C89009D5726A00F4E09FAFE9AC9AC7192F95075D67FDADF241D73B7802802C0600CD13E7CAE6E030A309646C1185FF226E160B30D687B0840EE0D9573D06A8203878BD9501E0C607B40149FA92C82F00E09E18B000D8C4021C73306665913D01B87152C606805D18C04306B0870BB0CF8A190C408A03
310
909D016F28B33BA2C860400113188430F481307518F85506D08D4C47B5C3D528A0F3581C007A509B049AC4C9D0139AC49940430141BD59311780D91F0D3BDF8C071E84C97BA89C07DFC04E7050658FB699E6B5535204C2B8DD25730268009A70901F800803A70932AB88A29DDE4985B4AD519C39D7A3A2310D65CAC219C960
310
9506F2EBC1B32D348FE5BDE86B369B4E1CC0520C7037CE39368EE5389AA192BC142008D098933F03003800D0244524EE8E13CD86FA091DF6A6EB01E1EB05E42500B78500CEF5217D30E89AA8A967456116A23C13680244EBE20C009C3B26F2188010B1D3F501585E50AD95EC00BC7A5FBC6D0218CE3E00206718E0E501E066
310
36640A1E4C41786143D638C8A583989244861B120C00B02880A4CD062EA53AB381635AACF7E846ED035B24A506404E8ADE1817B01CFFE00F470690140055D366A255E83D40374026BE0F90A64290170089CE0238E153A6007496917C44CA98E898854F23362A20DA3219B90178CDC09EF390DE4C533B373C7CC55D7FD28BB8
310
D149910E7C985522DD11356E9643862153490E80DC6864B88726B59858E5EA75DDF198B5B2FCB4591BF942C744C315727FC465D56B12880F8BB1C0B8FBEF421020B0EFED58F12EC3E6CB9F4F73B2FB8DD9F3BB2077BF33BDD495C0330A1405E0F3FFA6501C80CC29DB9F25479F27EFF30F08302342CAD14770000000004945
310
4E44AE426082
  0
ENDSEC
  0
EOF
