  0
SECTION
  2
HEADER
  9
$ACADVER
  1
AC1032
  9
$ACADMAINTVER
 90
      197
  9
$DWGCODEPAGE
  3
ANSI_1252
  9
$LASTSAVEDBY
  1
gregb
  9
$REQUIREDVERSIONS
160
                 0
  9
$INSBASE
 10
0.0
 20
0.0
 30
0.0
  9
$EXTMIN
 10
10757.29488836204
 20
29832.68321093358
 30
0.0
  9
$EXTMAX
 10
10757.76653486491
 20
29834.4127244374
 30
0.0
  9
$LIMMIN
 10
0.0
 20
0.0
  9
$LIMMAX
 10
12.0
 20
9.0
  9
$ORTHOMODE
 70
     1
  9
$REGENMODE
 70
     1
  9
$FILLMODE
 70
     1
  9
$QTEXTMODE
 70
     0
  9
$MIRRTEXT
 70
     0
  9
$LTSCALE
 40
1.0
  9
$ATTMODE
 70
     1
  9
$TEXTSIZE
 40
0.2
  9
$TRACEWID
 40
0.05
  9
$TEXTSTYLE
  7
Standard
  9
$CLAYER
  8
freecads.com
  9
$CELTYPE
  6
ByLayer
  9
$CECOLOR
 62
   256
  9
$CELTSCALE
 40
1.0
  9
$DISPSILH
 70
     1
  9
$DIMSCALE
 40
1.0
  9
$DIMASZ
 40
0.18
  9
$DIMEXO
 40
0.0625
  9
$DIMDLI
 40
0.38
  9
$DIMRND
 40
0.0
  9
$DIMDLE
 40
0.0
  9
$DIMEXE
 40
0.18
  9
$DIMTP
 40
0.0
  9
$DIMTM
 40
0.0
  9
$DIMTXT
 40
0.18
  9
$DIMCEN
 40
0.09
  9
$DIMTSZ
 40
0.0
  9
$DIMTOL
 70
     0
  9
$DIMLIM
 70
     0
  9
$DIMTIH
 70
     1
  9
$DIMTOH
 70
     1
  9
$DIMSE1
 70
     0
  9
$DIMSE2
 70
     0
  9
$DIMTAD
 70
     0
  9
$DIMZIN
 70
     0
  9
$DIMBLK
  1

  9
$DIMASO
 70
     1
  9
$DIMSHO
 70
     1
  9
$DIMPOST
  1

  9
$DIMAPOST
  1

  9
$DIMALT
 70
     0
  9
$DIMALTD
 70
     2
  9
$DIMALTF
 40
25.4
  9
$DIMLFAC
 40
1.0
  9
$DIMTOFL
 70
     0
  9
$DIMTVP
 40
0.0
  9
$DIMTIX
 70
     0
  9
$DIMSOXD
 70
     0
  9
$DIMSAH
 70
     0
  9
$DIMBLK1
  1

  9
$DIMBLK2
  1

  9
$DIMSTYLE
  2
Standard
  9
$DIMCLRD
 70
     0
  9
$DIMCLRE
 70
     0
  9
$DIMCLRT
 70
     0
  9
$DIMTFAC
 40
1.0
  9
$DIMGAP
 40
0.09
  9
$DIMJUST
 70
     0
  9
$DIMSD1
 70
     0
  9
$DIMSD2
 70
     0
  9
$DIMTOLJ
 70
     1
  9
$DIMTZIN
 70
     0
  9
$DIMALTZ
 70
     0
  9
$DIMALTTZ
 70
     0
  9
$DIMUPT
 70
     0
  9
$DIMDEC
 70
     4
  9
$DIMTDEC
 70
     4
  9
$DIMALTU
 70
     2
  9
$DIMALTTD
 70
     2
  9
$DIMTXSTY
  7
Standard
  9
$DIMAUNIT
 70
     0
  9
$DIMADEC
 70
     0
  9
$DIMALTRND
 40
0.0
  9
$DIMAZIN
 70
     0
  9
$DIMDSEP
 70
    46
  9
$DIMATFIT
 70
     3
  9
$DIMFRAC
 70
     0
  9
$DIMLDRBLK
  1

  9
$DIMLUNIT
 70
     2
  9
$DIMLWD
 70
    -2
  9
$DIMLWE
 70
    -2
  9
$DIMTMOVE
 70
     0
  9
$DIMFXL
 40
1.0
  9
$DIMFXLON
 70
     0
  9
$DIMJOGANG
 40
0.7853981633974483
  9
$DIMTFILL
 70
     0
  9
$DIMTFILLCLR
 70
     0
  9
$DIMARCSYM
 70
     0
  9
$DIMLTYPE
  6

  9
$DIMLTEX1
  6

  9
$DIMLTEX2
  6

  9
$DIMTXTDIRECTION
 70
     0
  9
$LUNITS
 70
     2
  9
$LUPREC
 70
     4
  9
$SKETCHINC
 40
0.1
  9
$FILLETRAD
 40
0.0
  9
$AUNITS
 70
     0
  9
$AUPREC
 70
     0
  9
$MENU
  1
.
  9
$ELEVATION
 40
0.0
  9
$PELEVATION
 40
0.0
  9
$THICKNESS
 40
0.0
  9
$LIMCHECK
 70
     0
  9
$CHAMFERA
 40
0.0
  9
$CHAMFERB
 40
0.0
  9
$CHAMFERC
 40
0.0
  9
$CHAMFERD
 40
0.0
  9
$SKPOLY
 70
     0
  9
$TDCREATE
 40
2458157.371250000
  9
$TDUCREATE
 40
2458157.287916667
  9
$TDUPDATE
 40
2461016.543229167
  9
$TDUUPDATE
 40
2461016.459895834
  9
$TDINDWG
 40
0.1126388889
  9
$TDUSRTIMER
 40
0.1126388889
  9
$USRTIMER
 70
     1
  9
$ANGBASE
 50
0.0
  9
$ANGDIR
 70
     0
  9
$PDMODE
 70
     0
  9
$PDSIZE
 40
0.0
  9
$PLINEWID
 40
0.0
  9
$SPLFRAME
 70
     0
  9
$SPLINETYPE
 70
     6
  9
$SPLINESEGS
 70
     8
  9
$HANDSEED
  5
B466
  9
$SURFTAB1
 70
     6
  9
$SURFTAB2
 70
     6
  9
$SURFTYPE
 70
     6
  9
$SURFU
 70
     6
  9
$SURFV
 70
     6
  9
$UCSBASE
  2

  9
$UCSNAME
  2

  9
$UCSORG
 10
0.0
 20
0.0
 30
0.0
  9
$UCSXDIR
 10
1.0
 20
0.0
 30
0.0
  9
$UCSYDIR
 10
0.0
 20
1.0
 30
0.0
  9
$UCSORTHOREF
  2

  9
$UCSORTHOVIEW
 70
     0
  9
$UCSORGTOP
 10
0.0
 20
0.0
 30
0.0
  9
$UCSORGBOTTOM
 10
0.0
 20
0.0
 30
0.0
  9
$UCSORGLEFT
 10
0.0
 20
0.0
 30
0.0
  9
$UCSORGRIGHT
 10
0.0
 20
0.0
 30
0.0
  9
$UCSORGFRONT
 10
0.0
 20
0.0
 30
0.0
  9
$UCSORGBACK
 10
0.0
 20
0.0
 30
0.0
  9
$PUCSBASE
  2

  9
$PUCSNAME
  2

  9
$PUCSORG
 10
0.0
 20
0.0
 30
0.0
  9
$PUCSXDIR
 10
1.0
 20
0.0
 30
0.0
  9
$PUCSYDIR
 10
0.0
 20
1.0
 30
0.0
  9
$PUCSORTHOREF
  2

  9
$PUCSORTHOVIEW
 70
     0
  9
$PUCSORGTOP
 10
0.0
 20
0.0
 30
0.0
  9
$PUCSORGBOTTOM
 10
0.0
 20
0.0
 30
0.0
  9
$PUCSORGLEFT
 10
0.0
 20
0.0
 30
0.0
  9
$PUCSORGRIGHT
 10
0.0
 20
0.0
 30
0.0
  9
$PUCSORGFRONT
 10
0.0
 20
0.0
 30
0.0
  9
$PUCSORGBACK
 10
0.0
 20
0.0
 30
0.0
  9
$USERI1
 70
     0
  9
$USERI2
 70
     0
  9
$USERI3
 70
     0
  9
$USERI4
 70
     0
  9
$USERI5
 70
     0
  9
$USERR1
 40
0.0
  9
$USERR2
 40
0.0
  9
$USERR3
 40
0.0
  9
$USERR4
 40
0.0
  9
$USERR5
 40
0.0
  9
$WORLDVIEW
 70
     1
  9
$SHADEDGE
 70
     3
  9
$SHADEDIF
 70
    70
  9
$TILEMODE
 70
     1
  9
$MAXACTVP
 70
    64
  9
$PINSBASE
 10
0.0
 20
0.0
 30
0.0
  9
$PLIMCHECK
 70
     0
  9
$PEXTMIN
 10
0.0
 20
0.0
 30
0.0
  9
$PEXTMAX
 10
0.0
 20
0.0
 30
0.0
  9
$PLIMMIN
 10
0.0
 20
0.0
  9
$PLIMMAX
 10
12.0
 20
9.0
  9
$UNITMODE
 70
     0
  9
$VISRETAIN
 70
     1
  9
$PLINEGEN
 70
     0
  9
$PSLTSCALE
 70
     1
  9
$TREEDEPTH
 70
  3020
  9
$CMLSTYLE
  2
Standard
  9
$CMLJUST
 70
     0
  9
$CMLSCALE
 40
1.0
  9
$PROXYGRAPHICS
 70
     1
  9
$MEASUREMENT
 70
     0
  9
$CELWEIGHT
370
    -1
  9
$ENDCAPS
280
     0
  9
$JOINSTYLE
280
     0
  9
$LWDISPLAY
290
     0
  9
$INSUNITS
 70
     1
  9
$HYPERLINKBASE
  1

  9
$STYLESHEET
  1
monochrome.ctb
  9
$XEDIT
290
     1
  9
$CEPSNTYPE
380
     0
  9
$PSTYLEMODE
290
     1
  9
$FINGERPRINTGUID
  2
{358EB121-6EE0-9143-8A3E-6E8E8869FDA6}
  9
$VERSIONGUID
  2
{CD95E75D-3D46-A24E-92C2-28CB7ACB7119}
  9
$EXTNAMES
290
     1
  9
$PSVPSCALE
 40
0.0
  9
$OLESTARTUP
290
     0
  9
$SORTENTS
280
   127
  9
$INDEXCTL
280
     0
  9
$HIDETEXT
280
     1
  9
$XCLIPFRAME
280
     2
  9
$HALOGAP
280
     0
  9
$OBSCOLOR
 70
   257
  9
$OBSLTYPE
280
     0
  9
$INTERSECTIONDISPLAY
280
     0
  9
$INTERSECTIONCOLOR
 70
   257
  9
$DIMASSOC
280
     2
  9
$PROJECTNAME
  1

  9
$CAMERADISPLAY
290
     0
  9
$LENSLENGTH
 40
50.0
  9
$CAMERAHEIGHT
 40
0.0
  9
$STEPSPERSEC
 40
2.0
  9
$STEPSIZE
 40
6.0
  9
$3DDWFPREC
 40
2.0
  9
$PSOLWIDTH
 40
0.25
  9
$PSOLHEIGHT
 40
4.0
  9
$LOFTANG1
 40
1.570796326794896
  9
$LOFTANG2
 40
1.570796326794896
  9
$LOFTMAG1
 40
0.0
  9
$LOFTMAG2
 40
0.0
  9
$LOFTPARAM
 70
     7
  9
$LOFTNORMALS
280
     1
  9
$LATITUDE
 40
37.795
  9
$LONGITUDE
 40
-122.394
  9
$NORTHDIRECTION
 40
0.0
  9
$TIMEZONE
 70
 -8000
  9
$LIGHTGLYPHDISPLAY
280
     1
  9
$TILEMODELIGHTSYNCH
280
     1
  9
$CMATERIAL
347
96
  9
$SOLIDHIST
280
     0
  9
$SHOWHIST
280
     1
  9
$DWFFRAME
280
     2
  9
$DGNFRAME
280
     0
  9
$REALWORLDSCALE
290
     1
  9
$INTERFERECOLOR
 62
     1
  9
$INTERFEREOBJVS
345
A3
  9
$INTERFEREVPVS
346
A0
  9
$CSHADOW
280
     0
  9
$SHADOWPLANELOCATION
 40
0.0
  0
ENDSEC
  0
SECTION
  2
CLASSES
  0
CLASS
  1
ACDBDICTIONARYWDFLT
  2
AcDbDictionaryWithDefault
  3
ObjectDBX Classes
 90
        0
 91
        1
280
     0
281
     0
  0
CLASS
  1
DICTIONARYVAR
  2
AcDbDictionaryVar
  3
ObjectDBX Classes
 90
        0
 91
        9
280
     0
281
     0
  0
CLASS
  1
TABLESTYLE
  2
AcDbTableStyle
  3
ObjectDBX Classes
 90
     4095
 91
        1
280
     0
281
     0
  0
CLASS
  1
MATERIAL
  2
AcDbMaterial
  3
ObjectDBX Classes
 90
     1153
 91
        3
280
     0
281
     0
  0
CLASS
  1
VISUALSTYLE
  2
AcDbVisualStyle
  3
ObjectDBX Classes
 90
     4095
 91
       25
280
     0
281
     0
  0
CLASS
  1
SCALE
  2
AcDbScale
  3
ObjectDBX Classes
 90
     1153
 91
       35
280
     0
281
     0
  0
CLASS
  1
MLEADERSTYLE
  2
AcDbMLeaderStyle
  3
ACDB_MLEADERSTYLE_CLASS
 90
     4095
 91
        1
280
     0
281
     0
  0
CLASS
  1
CELLSTYLEMAP
  2
AcDbCellStyleMap
  3
ObjectDBX Classes
 90
     1152
 91
        1
280
     0
281
     0
  0
CLASS
  1
EXACXREFPANELOBJECT
  2
ExAcXREFPanelObject
  3
EXAC_ESW
 90
     1025
 91
        0
280
     0
281
     0
  0
CLASS
  1
NPOCOLLECTION
  2
AcDbImpNonPersistentObjectsCollection
  3
ObjectDBX Classes
 90
     1153
 91
        0
280
     0
281
     0
  0
CLASS
  1
LAYER_INDEX
  2
AcDbLayerIndex
  3
ObjectDBX Classes
 90
        0
 91
        0
280
     0
281
     0
  0
CLASS
  1
SPATIAL_INDEX
  2
AcDbSpatialIndex
  3
ObjectDBX Classes
 90
        0
 91
        0
280
     0
281
     0
  0
CLASS
  1
IDBUFFER
  2
AcDbIdBuffer
  3
ObjectDBX Classes
 90
        0
 91
        0
280
     0
281
     0
  0
CLASS
  1
ACDBSECTIONVIEWSTYLE
  2
AcDbSectionViewStyle
  3
ObjectDBX Classes
 90
     1025
 91
        2
280
     0
281
     0
  0
CLASS
  1
ACDBDETAILVIEWSTYLE
  2
AcDbDetailViewStyle
  3
ObjectDBX Classes
 90
     1025
 91
        2
280
     0
281
     0
  0
CLASS
  1
SORTENTSTABLE
  2
AcDbSortentsTable
  3
ObjectDBX Classes
 90
        0
 91
        1
280
     0
281
     0
  0
CLASS
  1
SPATIAL_FILTER
  2
AcDbSpatialFilter
  3
ObjectDBX Classes
 90
        0
 91
        0
280
     0
281
     0
  0
CLASS
  1
SOLID_BACKGROUND
  2
AcDbSolidBackground
  3
SCENEOE
 90
     4095
 91
        0
280
     0
281
     0
  0
ENDSEC
  0
SECTION
  2
TABLES
  0
TABLE
  2
VPORT
  5
8
330
0
100
AcDbSymbolTable
 70
     1
  0
VPORT
  5
94
330
8
100
AcDbSymbolTableRecord
100
AcDbViewportTableRecord
  2
*Active
 70
     0
 10
0.0
 20
0.0
 11
1.0
 21
1.0
 12
10757.53071161347
 22
29833.68339754222
 13
0.0
 23
0.0
 14
0.5
 24
0.5
 15
0.5
 25
0.5
 16
0.0
 26
0.0
 36
1.0
 17
0.0
 27
0.0
 37
0.0
 40
1.940145356127556
 41
2.066284779050736
 42
50.0
 43
0.0
 44
0.0
 50
0.0
 51
0.0
 71
     0
 72
  1000
 73
     1
 74
     3
 75
     0
 76
     0
 77
     0
 78
     0
281
     0
 65
     1
110
0.0
120
0.0
130
0.0
111
1.0
121
0.0
131
0.0
112
0.0
122
1.0
132
0.0
 79
     0
146
0.0
348
9F
 60
     3
 61
     5
292
     1
282
     1
141
0.0
142
0.0
 63
   250
421
  3355443
1001
ACAD_NAV_VCDISPLAY
1070
     3
  0
ENDTAB
  0
TABLE
  2
LTYPE
  5
5
330
0
100
AcDbSymbolTable
 70
     1
  0
LTYPE
  5
14
330
5
100
AcDbSymbolTableRecord
100
AcDbLinetypeTableRecord
  2
ByBlock
 70
     0
  3

 72
    65
 73
     0
 40
0.0
  0
LTYPE
  5
15
330
5
100
AcDbSymbolTableRecord
100
AcDbLinetypeTableRecord
  2
ByLayer
 70
     0
  3

 72
    65
 73
     0
 40
0.0
  0
LTYPE
  5
16
330
5
100
AcDbSymbolTableRecord
100
AcDbLinetypeTableRecord
  2
Continuous
 70
     0
  3
Solid line
 72
    65
 73
     0
 40
0.0
  0
ENDTAB
  0
TABLE
  2
LAYER
  5
2
102
{ACAD_XDICTIONARY
360
18E
102
}
330
0
100
AcDbSymbolTable
 70
     2
  0
LAYER
  5
10
102
{ACAD_XDICTIONARY
360
E6
102
}
330
2
100
AcDbSymbolTableRecord
100
AcDbLayerTableRecord
  2
0
 70
     0
 62
     7
  6
Continuous
370
    -3
390
F
347
98
348
0
  0
LAYER
  5
204
330
2
100
AcDbSymbolTableRecord
100
AcDbLayerTableRecord
  2
freecads.com
 70
     0
 62
     7
  6
Continuous
370
    -3
390
F
347
98
348
0
1001
AcAecLayerStandard
1000

1000

1001
AcCmTransparency
1071
        0
  0
ENDTAB
  0
TABLE
  2
STYLE
  5
3
330
0
100
AcDbSymbolTable
 70
     1
  0
STYLE
  5
11
330
3
100
AcDbSymbolTableRecord
100
AcDbTextStyleTableRecord
  2
Standard
 70
     0
 40
0.0
 41
1.0
 50
0.0
 71
     0
 42
0.2
  3
arial.ttf
  4

1001
ACAD
1000
Arial
1071
       34
  0
ENDTAB
  0
TABLE
  2
VIEW
  5
6
330
0
100
AcDbSymbolTable
 70
     0
  0
ENDTAB
  0
TABLE
  2
UCS
  5
7
330
0
100
AcDbSymbolTable
 70
     0
  0
ENDTAB
  0
TABLE
  2
APPID
  5
9
330
0
100
AcDbSymbolTable
 70
    23
  0
APPID
  5
12
330
9
100
AcDbSymbolTableRecord
100
AcDbRegAppTableRecord
  2
ACAD
 70
     0
  0
APPID
  5
DD
330
9
100
AcDbSymbolTableRecord
100
AcDbRegAppTableRecord
  2
AcadAnnoPO
 70
     0
  0
APPID
  5
DE
330
9
100
AcDbSymbolTableRecord
100
AcDbRegAppTableRecord
  2
AcadAnnotative
 70
     0
  0
APPID
  5
DF
330
9
100
AcDbSymbolTableRecord
100
AcDbRegAppTableRecord
  2
ACAD_DSTYLE_DIMJAG
 70
     0
  0
APPID
  5
E0
330
9
100
AcDbSymbolTableRecord
100
AcDbRegAppTableRecord
  2
ACAD_DSTYLE_DIMTALN
 70
     0
  0
APPID
  5
107
330
9
100
AcDbSymbolTableRecord
100
AcDbRegAppTableRecord
  2
ACAD_MLEADERVER
 70
     0
  0
APPID
  5
1A6
330
9
100
AcDbSymbolTableRecord
100
AcDbRegAppTableRecord
  2
ACAD_NAV_VCDISPLAY
 70
     0
  0
APPID
  5
205
330
9
100
AcDbSymbolTableRecord
100
AcDbRegAppTableRecord
  2
AcAecLayerStandard
 70
     0
  0
APPID
  5
206
330
9
100
AcDbSymbolTableRecord
100
AcDbRegAppTableRecord
  2
AcCmTransparency
 70
     0
  0
APPID
  5
222
330
9
100
AcDbSymbolTableRecord
100
AcDbRegAppTableRecord
  2
ACAD_PSEXT
 70
     0
  0
APPID
  5
2DA
330
9
100
AcDbSymbolTableRecord
100
AcDbRegAppTableRecord
  2
GradientColor1ACI
 70
     0
  0
APPID
  5
2DB
330
9
100
AcDbSymbolTableRecord
100
AcDbRegAppTableRecord
  2
GradientColor2ACI
 70
     0
  0
APPID
  5
2F3
330
9
100
AcDbSymbolTableRecord
100
AcDbRegAppTableRecord
  2
ACAD_EXEMPT_FROM_CAD_STANDARDS
 70
     0
  0
APPID
  5
A1A
330
9
100
AcDbSymbolTableRecord
100
AcDbRegAppTableRecord
  2
AcDbBlockRepETag
 70
     0
  0
APPID
  5
228C
330
9
100
AcDbSymbolTableRecord
100
AcDbRegAppTableRecord
  2
RAK
 70
     0
  0
APPID
  5
2683
330
9
100
AcDbSymbolTableRecord
100
AcDbRegAppTableRecord
  2
ACAD_DSTYLE_DIMJOGGED_JOGANGLE_SYMBOL
 70
     0
  0
APPID
  5
47CF
330
9
100
AcDbSymbolTableRecord
100
AcDbRegAppTableRecord
  2
ACAD_DSTYLE_DIMBREAK
 70
     0
  0
APPID
  5
47D0
330
9
100
AcDbSymbolTableRecord
100
AcDbRegAppTableRecord
  2
AcDbDynamicBlockGUID
 70
     0
  0
APPID
  5
8BD5
330
9
100
AcDbSymbolTableRecord
100
AcDbRegAppTableRecord
  2
AcLayerTools
 70
     0
  0
APPID
  5
92D9
330
9
100
AcDbSymbolTableRecord
100
AcDbRegAppTableRecord
  2
AutoGrph01
 70
     0
  0
APPID
  5
92DA
330
9
100
AcDbSymbolTableRecord
100
AcDbRegAppTableRecord
  2
AutoGrphVars
 70
     0
  0
APPID
  5
92DB
330
9
100
AcDbSymbolTableRecord
100
AcDbRegAppTableRecord
  2
AutoGrphZ
 70
     0
  0
APPID
  5
92DC
330
9
100
AcDbSymbolTableRecord
100
AcDbRegAppTableRecord
  2
AutoGrph05
 70
     0
  0
ENDTAB
  0
TABLE
  2
DIMSTYLE
  5
A
330
0
100
AcDbSymbolTable
 70
     1
100
AcDbDimStyleTable
 71
     1
340
27
  0
DIMSTYLE
105
27
330
A
100
AcDbSymbolTableRecord
100
AcDbDimStyleTableRecord
  2
Standard
 70
     0
340
11
  0
ENDTAB
  0
TABLE
  2
BLOCK_RECORD
  5
1
330
0
100
AcDbSymbolTable
 70
     1
  0
BLOCK_RECORD
  5
1F
102
{ACAD_XDICTIONARY
360
15D
102
}
330
1
100
AcDbSymbolTableRecord
100
AcDbBlockTableRecord
  2
*Model_Space
340
22
 70
     0
280
     1
281
     0
  0
BLOCK_RECORD
  5
58
330
1
100
AcDbSymbolTableRecord
100
AcDbBlockTableRecord
  2
*Paper_Space
340
59
 70
     0
280
     1
281
     0
  0
BLOCK_RECORD
  5
5D
330
1
100
AcDbSymbolTableRecord
100
AcDbBlockTableRecord
  2
*Paper_Space0
340
5E
 70
     0
280
     1
281
     0
  0
ENDTAB
  0
ENDSEC
  0
SECTION
  2
BLOCKS
  0
BLOCK
  5
20
330
1F
100
AcDbEntity
  8
0
100
AcDbBlockBegin
  2
*Model_Space
 70
     0
 10
0.0
 20
0.0
 30
0.0
  3
*Model_Space
  1

  0
ENDBLK
  5
21
330
1F
100
AcDbEntity
  8
0
100
AcDbBlockEnd
  0
BLOCK
  5
5A
330
58
100
AcDbEntity
 67
     1
  8
0
100
AcDbBlockBegin
  2
*Paper_Space
 70
     0
 10
0.0
 20
0.0
 30
0.0
  3
*Paper_Space
  1

  0
ENDBLK
  5
5B
330
58
100
AcDbEntity
 67
     1
  8
0
100
AcDbBlockEnd
  0
BLOCK
  5
5F
330
5D
100
AcDbEntity
 67
     1
  8
0
100
AcDbBlockBegin
  2
*Paper_Space0
 70
     0
 10
0.0
 20
0.0
 30
0.0
  3
*Paper_Space0
  1

  0
ENDBLK
  5
60
330
5D
100
AcDbEntity
 67
     1
  8
0
100
AcDbBlockEnd
  0
ENDSEC
  0
SECTION
  2
ENTITIES
  0
LINE
  5
B1C9
330
1F
100
AcDbEntity
  8
freecads.com
 48
5.0
100
AcDbLine
 10
10757.41186424587
 20
29833.69940071134
 30
0.0
 11
10757.389750454
 21
29833.64521206037
 31
0.0
  0
LINE
  5
B1CA
330
1F
100
AcDbEntity
  8
freecads.com
 48
5.0
100
AcDbLine
 10
10757.389750454
 20
29833.64521206037
 30
0.0
 11
10757.34829820947
 21
29833.57937773954
 31
0.0
  0
LINE
  5
B1CB
330
1F
100
AcDbEntity
  8
freecads.com
 48
5.0
100
AcDbLine
 10
10757.34829820947
 20
29833.57937773954
 30
0.0
 11
10757.33614716988
 21
29833.50290354398
 31
0.0
  0
LINE
  5
B1CC
330
1F
100
AcDbEntity
  8
freecads.com
 48
5.0
100
AcDbLine
 10
10757.32828697723
 20
29833.78239609843
 30
0.0
 11
10757.37433395586
 21
29833.7802336168
 31
0.0
  0
LINE
  5
B1CD
330
1F
100
AcDbEntity
  8
freecads.com
 48
5.0
100
AcDbLine
 10
10757.37433395586
 20
29833.7802336168
 30
0.0
 11
10757.38886684818
 21
29833.78664924407
 31
0.0
  0
LINE
  5
B1CE
330
1F
100
AcDbEntity
  8
freecads.com
 48
5.0
100
AcDbLine
 10
10757.38886684818
 20
29833.78664924407
 30
0.0
 11
10757.41458865831
 21
29833.80196726395
 31
0.0
  0
LINE
  5
B1CF
330
1F
100
AcDbEntity
  8
freecads.com
 48
5.0
100
AcDbLine
 10
10757.40936342348
 20
29834.31007001347
 30
0.0
 11
10757.41639204826
 21
29834.27559017219
 31
0.0
  0
LINE
  5
B1D0
330
1F
100
AcDbEntity
  8
freecads.com
 48
5.0
100
AcDbLine
 10
10757.41639204826
 20
29834.27559017219
 30
0.0
 11
10757.43539396742
 21
29834.2331011386
 31
0.0
  0
LINE
  5
B1D1
330
1F
100
AcDbEntity
  8
freecads.com
 48
5.0
100
AcDbLine
 10
10757.43539396742
 20
29834.2331011386
 30
0.0
 11
10757.45611309069
 21
29834.22892998819
 31
0.0
  0
LINE
  5
B1D2
330
1F
100
AcDbEntity
  8
freecads.com
 48
5.0
100
AcDbLine
 10
10757.54838214985
 20
29834.204649445
 30
0.0
 11
10757.54307177569
 21
29834.19036904543
 31
0.0
  0
LINE
  5
B1D3
330
1F
100
AcDbEntity
  8
freecads.com
 48
5.0
100
AcDbLine
 10
10757.54307177569
 20
29834.19036904543
 30
0.0
 11
10757.54275658091
 21
29834.17483503034
 31
0.0
  0
LINE
  5
B1D4
330
1F
100
AcDbEntity
  8
freecads.com
 48
5.0
100
AcDbLine
 10
10757.58468430805
 20
29834.1728076864
 30
0.0
 11
10757.56586670199
 21
29834.18473725923
 31
0.0
  0
LINE
  5
B1D5
330
1F
100
AcDbEntity
  8
freecads.com
 48
5.0
100
AcDbLine
 10
10757.56586670199
 20
29834.18473725923
 30
0.0
 11
10757.54813027253
 21
29834.18712267891
 31
0.0
  0
LINE
  5
B1D6
330
1F
100
AcDbEntity
  8
freecads.com
 48
5.0
100
AcDbLine
 10
10757.54813027253
 20
29834.18712267891
 30
0.0
 11
10757.54307177569
 21
29834.19036904543
 31
0.0
  0
LINE
  5
B1D7
330
1F
100
AcDbEntity
  8
freecads.com
 48
5.0
100
AcDbLine
 10
10757.60251334347
 20
29834.30392304244
 30
0.0
 11
10757.60118257308
 21
29834.25408674663
 31
0.0
  0
LINE
  5
B1D8
330
1F
100
AcDbEntity
  8
freecads.com
 48
5.0
100
AcDbLine
 10
10757.60118257308
 20
29834.25408674663
 30
0.0
 11
10757.58845843624
 21
29834.22093936797
 31
0.0
  0
LINE
  5
B1D9
330
1F
100
AcDbEntity
  8
freecads.com
 48
5.0
100
AcDbLine
 10
10757.58845843624
 20
29834.22093936797
 30
0.0
 11
10757.55514854906
 21
29834.2086449787
 31
0.0
  0
LINE
  5
B1DA
330
1F
100
AcDbEntity
  8
freecads.com
 48
5.0
100
AcDbLine
 10
10757.32675327704
 20
29833.28162987843
 30
0.0
 11
10757.33063894276
 21
29833.29638511788
 31
0.0
  0
LINE
  5
B1DB
330
1F
100
AcDbEntity
  8
freecads.com
 48
5.0
100
AcDbLine
 10
10757.32597614806
 20
29833.2692044123
 30
0.0
 11
10757.32675327704
 21
29833.28162987843
 31
0.0
  0
LINE
  5
B1DC
330
1F
100
AcDbEntity
  8
freecads.com
 48
5.0
100
AcDbLine
 10
10757.32597614806
 20
29833.2521194122
 30
0.0
 11
10757.32597614806
 21
29833.2692044123
 31
0.0
  0
LINE
  5
B1DD
330
1F
100
AcDbEntity
  8
freecads.com
 48
5.0
100
AcDbLine
 10
10757.32753040602
 20
29833.21639620024
 30
0.0
 11
10757.32597614806
 21
29833.2521194122
 31
0.0
  0
LINE
  5
B1DE
330
1F
100
AcDbEntity
  8
freecads.com
 48
5.0
100
AcDbLine
 10
10757.33297035053
 20
29833.2008643739
 30
0.0
 11
10757.32753040602
 21
29833.21639620024
 31
0.0
  0
LINE
  5
B1DF
330
1F
100
AcDbEntity
  8
freecads.com
 48
5.0
100
AcDbLine
 10
10757.34540449752
 20
29833.1791198145
 30
0.0
 11
10757.33297035053
 21
29833.2008643739
 31
0.0
  0
LINE
  5
B1E0
330
1F
100
AcDbEntity
  8
freecads.com
 48
5.0
100
AcDbLine
 10
10757.35317584981
 20
29833.16436458772
 30
0.0
 11
10757.34540449752
 21
29833.1791198145
 31
0.0
  0
LINE
  5
B1E1
330
1F
100
AcDbEntity
  8
freecads.com
 48
5.0
100
AcDbLine
 10
10757.35395297879
 20
29833.15271570846
 30
0.0
 11
10757.35317584981
 21
29833.16436458772
 31
0.0
  0
LINE
  5
B1E2
330
1F
100
AcDbEntity
  8
freecads.com
 48
5.0
100
AcDbLine
 10
10757.35628438656
 20
29833.14184342878
 30
0.0
 11
10757.35395297879
 21
29833.15271570846
 31
0.0
  0
LINE
  5
B1E3
330
1F
100
AcDbEntity
  8
freecads.com
 48
5.0
100
AcDbLine
 10
10757.36250146006
 20
29833.12631160244
 30
0.0
 11
10757.35628438656
 21
29833.14184342878
 31
0.0
  0
LINE
  5
B1E4
330
1F
100
AcDbEntity
  8
freecads.com
 48
5.0
100
AcDbLine
 10
10757.38269636771
 20
29833.08590999502
 30
0.0
 11
10757.36250146006
 21
29833.12631160244
 31
0.0
  0
LINE
  5
B1E5
330
1F
100
AcDbEntity
  8
freecads.com
 48
5.0
100
AcDbLine
 10
10757.404818054
 20
29833.03696050126
 30
0.0
 11
10757.38269636771
 21
29833.08590999502
 31
0.0
  0
LINE
  5
B1E6
330
1F
100
AcDbEntity
  8
freecads.com
 48
5.0
100
AcDbLine
 10
10757.4221993849
 20
29832.99432707367
 30
0.0
 11
10757.404818054
 21
29833.03696050126
 31
0.0
  0
LINE
  5
B1E7
330
1F
100
AcDbEntity
  8
freecads.com
 48
5.0
100
AcDbLine
 10
10757.44914223982
 20
29832.92759879357
 30
0.0
 11
10757.4221993849
 21
29832.99432707367
 31
0.0
  0
LINE
  5
B1E8
330
1F
100
AcDbEntity
  8
freecads.com
 48
5.0
100
AcDbLine
 10
10757.45178405717
 20
29832.90735898835
 30
0.0
 11
10757.44914223982
 21
29832.92759879357
 31
0.0
  0
LINE
  5
B1E9
330
1F
100
AcDbEntity
  8
freecads.com
 48
5.0
100
AcDbLine
 10
10757.46235134742
 20
29832.88007925365
 30
0.0
 11
10757.45178405717
 21
29832.90735898835
 31
0.0
  0
LINE
  5
B1EA
330
1F
100
AcDbEntity
  8
freecads.com
 48
5.0
100
AcDbLine
 10
10757.46411255899
 20
29832.86423940278
 30
0.0
 11
10757.46235134742
 21
29832.88007925365
 31
0.0
  0
LINE
  5
B1EB
330
1F
100
AcDbEntity
  8
freecads.com
 48
5.0
100
AcDbLine
 10
10757.46499316477
 20
29832.84223961837
 30
0.0
 11
10757.46411255899
 21
29832.86423940278
 31
0.0
  0
LINE
  5
B1EC
330
1F
100
AcDbEntity
  8
freecads.com
 48
5.0
100
AcDbLine
 10
10757.46499316477
 20
29832.82551977157
 30
0.0
 11
10757.46499316477
 21
29832.84223961837
 31
0.0
  0
LINE
  5
B1ED
330
1F
100
AcDbEntity
  8
freecads.com
 48
5.0
100
AcDbLine
 10
10757.45794831851
 20
29832.79912002013
 30
0.0
 11
10757.46499316477
 21
29832.82551977157
 31
0.0
  0
LINE
  5
B1EE
330
1F
100
AcDbEntity
  8
freecads.com
 48
5.0
100
AcDbLine
 10
10757.45882892429
 20
29832.79824003685
 30
0.0
 11
10757.45794831851
 21
29832.78768013629
 31
0.0
  0
LINE
  5
B1EF
330
1F
100
AcDbEntity
  8
freecads.com
 48
5.0
100
AcDbLine
 10
10757.45178405717
 20
29832.79032011143
 30
0.0
 11
10757.45882892429
 21
29832.79824003685
 31
0.0
  0
LINE
  5
B1F0
330
1F
100
AcDbEntity
  8
freecads.com
 48
5.0
100
AcDbLine
 10
10757.44033618199
 20
29832.77888021492
 30
0.0
 11
10757.45178405717
 21
29832.79032011143
 31
0.0
  0
LINE
  5
B1F1
330
1F
100
AcDbEntity
  8
freecads.com
 48
5.0
100
AcDbLine
 10
10757.42976889174
 20
29832.76656033513
 30
0.0
 11
10757.44033618199
 21
29832.77888021492
 31
0.0
  0
LINE
  5
B1F2
330
1F
100
AcDbEntity
  8
freecads.com
 48
5.0
100
AcDbLine
 10
10757.42008220728
 20
29832.75512043863
 30
0.0
 11
10757.42976889174
 21
29832.76656033513
 31
0.0
  0
LINE
  5
B1F3
330
1F
100
AcDbEntity
  8
freecads.com
 48
5.0
100
AcDbLine
 10
10757.40863431124
 20
29832.74192056292
 30
0.0
 11
10757.42008220728
 21
29832.75512043863
 31
0.0
  0
LINE
  5
B1F4
330
1F
100
AcDbEntity
  8
freecads.com
 48
5.0
100
AcDbLine
 10
10757.40599249389
 20
29832.73576062935
 30
0.0
 11
10757.40863431124
 21
29832.74192056292
 31
0.0
  0
LINE
  5
B1F5
330
1F
100
AcDbEntity
  8
freecads.com
 48
5.0
100
AcDbLine
 10
10757.42096281306
 20
29832.73312065421
 30
0.0
 11
10757.40599249389
 21
29832.73576062935
 31
0.0
  0
LINE
  5
B1F6
330
1F
100
AcDbEntity
  8
freecads.com
 48
5.0
100
AcDbLine
 10
10757.57774614944
 20
29832.80461957382
 30
0.0
 11
10757.56894007076
 21
29832.80549956975
 31
0.0
  0
LINE
  5
B1F7
330
1F
100
AcDbEntity
  8
freecads.com
 48
5.0
100
AcDbLine
 10
10757.58743281306
 20
29832.80989952411
 30
0.0
 11
10757.57774614944
 21
29832.80461957382
 31
0.0
  0
LINE
  5
B1F8
330
1F
100
AcDbEntity
  8
freecads.com
 48
5.0
100
AcDbLine
 10
10757.5927164686
 20
29832.81781944953
 30
0.0
 11
10757.58743281306
 21
29832.80989952411
 31
0.0
  0
LINE
  5
B1F9
330
1F
100
AcDbEntity
  8
freecads.com
 48
5.0
100
AcDbLine
 10
10757.59095525704
 20
29832.83453928367
 30
0.0
 11
10757.5927164686
 21
29832.81781944953
 31
0.0
  0
LINE
  5
B1FA
330
1F
100
AcDbEntity
  8
freecads.com
 48
5.0
100
AcDbLine
 10
10757.58919402462
 20
29832.85653908076
 30
0.0
 11
10757.59095525704
 21
29832.83453928367
 31
0.0
  0
LINE
  5
B1FB
330
1F
100
AcDbEntity
  8
freecads.com
 48
5.0
100
AcDbLine
 10
10757.57862675522
 20
29832.8776588819
 30
0.0
 11
10757.58919402462
 21
29832.85653908076
 31
0.0
  0
LINE
  5
B1FC
330
1F
100
AcDbEntity
  8
freecads.com
 48
5.0
100
AcDbLine
 10
10757.57510431124
 20
29832.89173874089
 30
0.0
 11
10757.57862675522
 21
29832.8776588819
 31
0.0
  0
LINE
  5
B1FD
330
1F
100
AcDbEntity
  8
freecads.com
 48
5.0
100
AcDbLine
 10
10757.56277580942
 20
29832.89789868712
 30
0.0
 11
10757.57510431124
 21
29832.89173874089
 31
0.0
  0
LINE
  5
B1FE
330
1F
100
AcDbEntity
  8
freecads.com
 48
5.0
100
AcDbLine
 10
10757.56101459786
 20
29832.87941886112
 30
0.0
 11
10757.55661156894
 21
29832.87501890676
 31
0.0
  0
LINE
  5
B1FF
330
1F
100
AcDbEntity
  8
freecads.com
 48
5.0
100
AcDbLine
 10
10757.56189520364
 20
29832.89525871197
 30
0.0
 11
10757.56101459786
 21
29832.87941886112
 31
0.0
  0
LINE
  5
B200
330
1F
100
AcDbEntity
  8
freecads.com
 48
5.0
100
AcDbLine
 10
10757.56189520364
 20
29832.90229864147
 30
0.0
 11
10757.56189520364
 21
29832.89525871197
 31
0.0
  0
LINE
  5
B201
330
1F
100
AcDbEntity
  8
freecads.com
 48
5.0
100
AcDbLine
 10
10757.4879242136
 20
29833.02109751027
 30
0.0
 11
10757.4932078483
 21
29833.00437766347
 31
0.0
  0
LINE
  5
B202
330
1F
100
AcDbEntity
  8
freecads.com
 48
5.0
100
AcDbLine
 10
10757.48616300203
 20
29833.03781735706
 30
0.0
 11
10757.4879242136
 21
29833.02109751027
 31
0.0
  0
LINE
  5
B203
330
1F
100
AcDbEntity
  8
freecads.com
 48
5.0
100
AcDbLine
 10
10757.48264055805
 20
29833.06685707098
 30
0.0
 11
10757.48616300203
 21
29833.03781735706
 31
0.0
  0
LINE
  5
B204
330
1F
100
AcDbEntity
  8
freecads.com
 48
5.0
100
AcDbLine
 10
10757.46814602787
 20
29833.12955566415
 30
0.0
 11
10757.48264055805
 21
29833.06685707098
 31
0.0
  0
LINE
  5
B205
330
1F
100
AcDbEntity
  8
freecads.com
 48
5.0
100
AcDbLine
 10
10757.45951089547
 20
29833.1617186883
 30
0.0
 11
10757.46814602787
 21
29833.12955566415
 31
0.0
  0
LINE
  5
B206
330
1F
100
AcDbEntity
  8
freecads.com
 48
5.0
100
AcDbLine
 10
10757.45244578334
 20
29833.17348564804
 30
0.0
 11
10757.45951089547
 21
29833.1617186883
 31
0.0
  0
LINE
  5
B207
330
1F
100
AcDbEntity
  8
freecads.com
 48
5.0
100
AcDbLine
 10
10757.43910056923
 20
29833.19388171244
 30
0.0
 11
10757.45244578334
 21
29833.17348564804
 31
0.0
  0
LINE
  5
B208
330
1F
100
AcDbEntity
  8
freecads.com
 48
5.0
100
AcDbLine
 10
10757.44145559966
 20
29833.21820010519
 30
0.0
 11
10757.43910056923
 21
29833.19388171244
 31
0.0
  0
LINE
  5
B209
330
1F
100
AcDbEntity
  8
freecads.com
 48
5.0
100
AcDbLine
 10
10757.44852071178
 20
29833.2393806302
 30
0.0
 11
10757.44145559966
 21
29833.21820010519
 31
0.0
  0
LINE
  5
B20A
330
1F
100
AcDbEntity
  8
freecads.com
 48
5.0
100
AcDbLine
 10
10757.45323079348
 20
29833.2762504433
 30
0.0
 11
10757.44852071178
 21
29833.2393806302
 31
0.0
  0
LINE
  5
B20B
330
1F
100
AcDbEntity
  8
freecads.com
 48
5.0
100
AcDbLine
 10
10757.45323079348
 20
29833.29743096831
 30
0.0
 11
10757.45323079348
 21
29833.2762504433
 31
0.0
  0
LINE
  5
B20C
330
1F
100
AcDbEntity
  8
freecads.com
 48
5.0
100
AcDbLine
 10
10757.59469543391
 20
29833.29297499913
 30
0.0
 11
10757.59805354095
 21
29833.3041608732
 31
0.0
  0
LINE
  5
B20D
330
1F
100
AcDbEntity
  8
freecads.com
 48
5.0
100
AcDbLine
 10
10757.59021795089
 20
29833.28067052501
 30
0.0
 11
10757.59469543391
 21
29833.29297499913
 31
0.0
  0
LINE
  5
B20E
330
1F
100
AcDbEntity
  8
freecads.com
 48
5.0
100
AcDbLine
 10
10757.58797919896
 20
29833.26501030132
 30
0.0
 11
10757.59021795089
 21
29833.28067052501
 31
0.0
  0
LINE
  5
B20F
330
1F
100
AcDbEntity
  8
freecads.com
 48
5.0
100
AcDbLine
 10
10757.58909857493
 20
29833.23816420358
 30
0.0
 11
10757.58797919896
 21
29833.26501030132
 31
0.0
  0
LINE
  5
B210
330
1F
100
AcDbEntity
  8
freecads.com
 48
5.0
100
AcDbLine
 10
10757.58909857493
 20
29833.22026680507
 30
0.0
 11
10757.58909857493
 21
29833.23816420358
 31
0.0
  0
LINE
  5
B211
330
1F
100
AcDbEntity
  8
freecads.com
 48
5.0
100
AcDbLine
 10
10757.59357605794
 20
29833.17776047099
 30
0.0
 11
10757.58909857493
 21
29833.22026680507
 31
0.0
  0
LINE
  5
B212
330
1F
100
AcDbEntity
  8
freecads.com
 48
5.0
100
AcDbLine
 10
10757.59805354095
 20
29833.14084708659
 30
0.0
 11
10757.59357605794
 21
29833.17776047099
 31
0.0
  0
LINE
  5
B213
330
1F
100
AcDbEntity
  8
freecads.com
 48
5.0
100
AcDbLine
 10
10757.59917289607
 20
29833.10840803914
 30
0.0
 11
10757.59805354095
 21
29833.14084708659
 31
0.0
  0
LINE
  5
B214
330
1F
100
AcDbEntity
  8
freecads.com
 48
5.0
100
AcDbLine
 10
10757.59917289607
 20
29833.07261324215
 30
0.0
 11
10757.59917289607
 21
29833.10840803914
 31
0.0
  0
LINE
  5
B215
330
1F
100
AcDbEntity
  8
freecads.com
 48
5.0
100
AcDbLine
 10
10757.59245668198
 20
29833.04241136953
 30
0.0
 11
10757.59917289607
 21
29833.07261324215
 31
0.0
  0
LINE
  5
B216
330
1F
100
AcDbEntity
  8
freecads.com
 48
5.0
100
AcDbLine
 10
10757.58238236083
 20
29832.99878646068
 30
0.0
 11
10757.59245668198
 21
29833.04241136953
 31
0.0
  0
LINE
  5
B217
330
1F
100
AcDbEntity
  8
freecads.com
 48
5.0
100
AcDbLine
 10
10757.56877258553
 20
29832.94919586627
 30
0.0
 11
10757.58238236083
 21
29832.99878646068
 31
0.0
  0
LINE
  5
B218
330
1F
100
AcDbEntity
  8
freecads.com
 48
5.0
100
AcDbLine
 10
10757.56610397637
 20
29832.92875087593
 30
0.0
 11
10757.56877258553
 21
29832.94919586627
 31
0.0
  0
LINE
  5
B219
330
1F
100
AcDbEntity
  8
freecads.com
 48
5.0
100
AcDbLine
 10
10757.56254585864
 20
29832.91097262128
 30
0.0
 11
10757.56610397637
 21
29832.92875087593
 31
0.0
  0
LINE
  5
B21A
330
1F
100
AcDbEntity
  8
freecads.com
 48
5.0
100
AcDbLine
 10
10757.55809816978
 20
29832.89408328694
 30
0.0
 11
10757.56254585864
 21
29832.91097262128
 31
0.0
  0
LINE
  5
B21B
330
1F
100
AcDbEntity
  8
freecads.com
 48
5.0
100
AcDbLine
 10
10757.55276097233
 20
29832.87719395259
 30
0.0
 11
10757.55809816978
 21
29832.89408328694
 31
0.0
  0
LINE
  5
B21C
330
1F
100
AcDbEntity
  8
freecads.com
 48
5.0
100
AcDbLine
 10
10757.5545400312
 20
29832.85674896226
 30
0.0
 11
10757.55276097233
 21
29832.87719395259
 31
0.0
  0
LINE
  5
B21D
330
1F
100
AcDbEntity
  8
freecads.com
 48
5.0
100
AcDbLine
 10
10757.55809816978
 20
29832.83985962793
 30
0.0
 11
10757.5545400312
 21
29832.85674896226
 31
0.0
  0
LINE
  5
B21E
330
1F
100
AcDbEntity
  8
freecads.com
 48
5.0
100
AcDbLine
 10
10757.56610397637
 20
29832.80696986692
 30
0.0
 11
10757.56521444694
 21
29832.79630291159
 31
0.0
  0
LINE
  5
B21F
330
1F
100
AcDbEntity
  8
freecads.com
 48
5.0
100
AcDbLine
 10
10757.56432491751
 20
29832.83097050059
 30
0.0
 11
10757.56610397637
 21
29832.80696986692
 31
0.0
  0
LINE
  5
B220
330
1F
100
AcDbEntity
  8
freecads.com
 48
5.0
100
AcDbLine
 10
10757.55987724949
 20
29832.84163745592
 30
0.0
 11
10757.56432491751
 21
29832.83097050059
 31
0.0
  0
LINE
  5
B221
330
1F
100
AcDbEntity
  8
freecads.com
 48
5.0
100
AcDbLine
 10
10757.55809816978
 20
29832.83008159292
 30
0.0
 11
10757.55987724949
 21
29832.84163745592
 31
0.0
  0
LINE
  5
B222
330
1F
100
AcDbEntity
  8
freecads.com
 48
5.0
100
AcDbLine
 10
10757.54831330431
 20
29832.81141443058
 30
0.0
 11
10757.55809816978
 21
29832.83008159292
 31
0.0
  0
LINE
  5
B223
330
1F
100
AcDbEntity
  8
freecads.com
 48
5.0
100
AcDbLine
 10
10757.50828425048
 20
29832.77852466957
 30
0.0
 11
10757.54831330431
 21
29832.81141443058
 31
0.0
  0
LINE
  5
B224
330
1F
100
AcDbEntity
  8
freecads.com
 48
5.0
100
AcDbLine
 10
10757.49049357842
 20
29832.76696880657
 30
0.0
 11
10757.50828425048
 21
29832.77852466957
 31
0.0
  0
LINE
  5
B225
330
1F
100
AcDbEntity
  8
freecads.com
 48
5.0
100
AcDbLine
 10
10757.47181335607
 20
29832.76519097858
 30
0.0
 11
10757.49049357842
 21
29832.76696880657
 31
0.0
  0
LINE
  5
B226
330
1F
100
AcDbEntity
  8
freecads.com
 48
5.0
100
AcDbLine
 10
10757.45313313372
 20
29832.77052446257
 30
0.0
 11
10757.47181335607
 21
29832.76519097858
 31
0.0
  0
LINE
  5
B227
330
1F
100
AcDbEntity
  8
freecads.com
 48
5.0
100
AcDbLine
 10
10757.43448235108
 20
29832.7332457603
 30
0.0
 11
10757.43051643506
 21
29832.73374115913
 31
0.0
  0
LINE
  5
B228
330
1F
100
AcDbEntity
  8
freecads.com
 48
5.0
100
AcDbLine
 10
10757.43894403007
 20
29832.737208913
 30
0.0
 11
10757.43448235108
 21
29832.7332457603
 31
0.0
  0
LINE
  5
B229
330
1F
100
AcDbEntity
  8
freecads.com
 48
5.0
100
AcDbLine
 10
10757.44786736718
 20
29832.74067667954
 30
0.0
 11
10757.43894403007
 21
29832.737208913
 31
0.0
  0
LINE
  5
B22A
330
1F
100
AcDbEntity
  8
freecads.com
 48
5.0
100
AcDbLine
 10
10757.44786736718
 20
29832.73621812799
 30
0.0
 11
10757.44786736718
 21
29832.74067667954
 31
0.0
  0
LINE
  5
B22B
330
1F
100
AcDbEntity
  8
freecads.com
 48
5.0
100
AcDbLine
 10
10757.44885885139
 20
29832.73076879143
 30
0.0
 11
10757.44786736718
 21
29832.73621812799
 31
0.0
  0
LINE
  5
B22C
330
1F
100
AcDbEntity
  8
freecads.com
 48
5.0
100
AcDbLine
 10
10757.45133754109
 20
29832.72878720875
 30
0.0
 11
10757.44885885139
 21
29832.73076879143
 31
0.0
  0
LINE
  5
B22D
330
1F
100
AcDbEntity
  8
freecads.com
 48
5.0
100
AcDbLine
 10
10757.46174810452
 20
29832.72779642373
 30
0.0
 11
10757.45133754109
 21
29832.72878720875
 31
0.0
  0
LINE
  5
B22E
330
1F
100
AcDbEntity
  8
freecads.com
 48
5.0
100
AcDbLine
 10
10757.47909903663
 20
29832.72829182256
 30
0.0
 11
10757.46174810452
 21
29832.72779642373
 31
0.0
  0
LINE
  5
B22F
330
1F
100
AcDbEntity
  8
freecads.com
 48
5.0
100
AcDbLine
 10
10757.49744145296
 20
29832.73126417761
 30
0.0
 11
10757.47909903663
 21
29832.72829182256
 31
0.0
  0
LINE
  5
B230
330
1F
100
AcDbEntity
  8
freecads.com
 48
5.0
100
AcDbLine
 10
10757.51727109562
 20
29832.73671351417
 30
0.0
 11
10757.49744145296
 21
29832.73126417761
 31
0.0
  0
LINE
  5
B231
330
1F
100
AcDbEntity
  8
freecads.com
 48
5.0
100
AcDbLine
 10
10757.53214331718
 20
29832.75752008805
 30
0.0
 11
10757.51727109562
 21
29832.73671351417
 31
0.0
  0
LINE
  5
B232
330
1F
100
AcDbEntity
  8
freecads.com
 48
5.0
100
AcDbLine
 10
10757.53660497531
 20
29832.77287731273
 30
0.0
 11
10757.53214331718
 21
29832.75752008805
 31
0.0
  0
LINE
  5
B233
330
1F
100
AcDbEntity
  8
freecads.com
 48
5.0
100
AcDbLine
 10
10757.55147721773
 20
29832.77684046544
 30
0.0
 11
10757.53660497531
 21
29832.77287731273
 31
0.0
  0
LINE
  5
B234
330
1F
100
AcDbEntity
  8
freecads.com
 48
5.0
100
AcDbLine
 10
10757.55742610218
 20
29832.78674835354
 30
0.0
 11
10757.55147721773
 21
29832.77684046544
 31
0.0
  0
LINE
  5
B235
330
1F
100
AcDbEntity
  8
freecads.com
 48
5.0
100
AcDbLine
 10
10757.5663494393
 20
29832.80061939436
 30
0.0
 11
10757.55742610218
 21
29832.78674835354
 31
0.0
  0
LINE
  5
B236
330
1F
100
AcDbEntity
  8
freecads.com
 48
5.0
100
AcDbLine
 10
10757.56833240773
 20
29832.79715162783
 30
0.0
 11
10757.5663494393
 21
29832.80061939436
 31
0.0
  0
LINE
  5
B237
330
1F
100
AcDbEntity
  8
freecads.com
 48
5.0
100
AcDbLine
 10
10757.56287924453
 20
29832.782289802
 30
0.0
 11
10757.56833240773
 21
29832.79715162783
 31
0.0
  0
LINE
  5
B238
330
1F
100
AcDbEntity
  8
freecads.com
 48
5.0
100
AcDbLine
 10
10757.56139201821
 20
29832.7733726989
 30
0.0
 11
10757.56287924453
 21
29832.782289802
 31
0.0
  0
LINE
  5
B239
330
1F
100
AcDbEntity
  8
freecads.com
 48
5.0
100
AcDbLine
 10
10757.55792184429
 20
29832.76396020963
 30
0.0
 11
10757.56139201821
 21
29832.7733726989
 31
0.0
  0
LINE
  5
B23A
330
1F
100
AcDbEntity
  8
freecads.com
 48
5.0
100
AcDbLine
 10
10757.55494739164
 20
29832.75702468922
 30
0.0
 11
10757.55792184429
 21
29832.76396020963
 31
0.0
  0
LINE
  5
B23B
330
1F
100
AcDbEntity
  8
freecads.com
 48
5.0
100
AcDbLine
 10
10757.55395590742
 20
29832.73819969802
 30
0.0
 11
10757.55494739164
 21
29832.75702468922
 31
0.0
  0
LINE
  5
B23C
330
1F
100
AcDbEntity
  8
freecads.com
 48
5.0
100
AcDbLine
 10
10757.55395590742
 20
29832.72878720875
 30
0.0
 11
10757.55395590742
 21
29832.73819969802
 31
0.0
  0
LINE
  5
B23D
330
1F
100
AcDbEntity
  8
freecads.com
 48
5.0
100
AcDbLine
 10
10757.55346016532
 20
29832.71392538292
 30
0.0
 11
10757.55395590742
 21
29832.72878720875
 31
0.0
  0
LINE
  5
B23E
330
1F
100
AcDbEntity
  8
freecads.com
 48
5.0
100
AcDbLine
 10
10757.55098147562
 20
29832.71095301521
 30
0.0
 11
10757.55346016532
 21
29832.71392538292
 31
0.0
  0
LINE
  5
B23F
330
1F
100
AcDbEntity
  8
freecads.com
 48
5.0
100
AcDbLine
 10
10757.54552831242
 20
29832.71095301521
 30
0.0
 11
10757.55098147562
 21
29832.71095301521
 31
0.0
  0
LINE
  5
B240
330
1F
100
AcDbEntity
  8
freecads.com
 48
5.0
100
AcDbLine
 10
10757.53511776984
 20
29832.71045761637
 30
0.0
 11
10757.54552831242
 21
29832.71095301521
 31
0.0
  0
LINE
  5
B241
330
1F
100
AcDbEntity
  8
freecads.com
 48
5.0
100
AcDbLine
 10
10757.52074126953
 20
29832.70946683136
 30
0.0
 11
10757.53511776984
 21
29832.71045761637
 31
0.0
  0
LINE
  5
B242
330
1F
100
AcDbEntity
  8
freecads.com
 48
5.0
100
AcDbLine
 10
10757.51974978531
 20
29832.71095301521
 30
0.0
 11
10757.52074126953
 21
29832.70946683136
 31
0.0
  0
LINE
  5
B243
330
1F
100
AcDbEntity
  8
freecads.com
 48
5.0
100
AcDbLine
 10
10757.51528812718
 20
29832.71442076909
 30
0.0
 11
10757.51974978531
 21
29832.71095301521
 31
0.0
  0
LINE
  5
B244
330
1F
100
AcDbEntity
  8
freecads.com
 48
5.0
100
AcDbLine
 10
10757.51280941664
 20
29832.71342998408
 30
0.0
 11
10757.51528812718
 21
29832.71442076909
 31
0.0
  0
LINE
  5
B245
330
1F
100
AcDbEntity
  8
freecads.com
 48
5.0
100
AcDbLine
 10
10757.51132219031
 20
29832.71144841405
 30
0.0
 11
10757.51280941664
 21
29832.71342998408
 31
0.0
  0
LINE
  5
B246
330
1F
100
AcDbEntity
  8
freecads.com
 48
5.0
100
AcDbLine
 10
10757.50438182164
 20
29832.7010451271
 30
0.0
 11
10757.51132219031
 21
29832.71144841405
 31
0.0
  0
LINE
  5
B247
330
1F
100
AcDbEntity
  8
freecads.com
 48
5.0
100
AcDbLine
 10
10757.49446700031
 20
29832.69609118938
 30
0.0
 11
10757.50438182164
 21
29832.7010451271
 31
0.0
  0
LINE
  5
B248
330
1F
100
AcDbEntity
  8
freecads.com
 48
5.0
100
AcDbLine
 10
10757.48356071561
 20
29832.69064184016
 30
0.0
 11
10757.49446700031
 21
29832.69609118938
 31
0.0
  0
LINE
  5
B249
330
1F
100
AcDbEntity
  8
freecads.com
 48
5.0
100
AcDbLine
 10
10757.47612458398
 20
29832.69014645399
 30
0.0
 11
10757.48356071561
 21
29832.69064184016
 31
0.0
  0
LINE
  5
B24A
330
1F
100
AcDbEntity
  8
freecads.com
 48
5.0
100
AcDbLine
 10
10757.4662097835
 20
29832.68915565632
 30
0.0
 11
10757.47612458398
 21
29832.69014645399
 31
0.0
  0
LINE
  5
B24B
330
1F
100
AcDbEntity
  8
freecads.com
 48
5.0
100
AcDbLine
 10
10757.45728644639
 20
29832.68667868745
 30
0.0
 11
10757.4662097835
 21
29832.68915565632
 31
0.0
  0
LINE
  5
B24C
330
1F
100
AcDbEntity
  8
freecads.com
 48
5.0
100
AcDbLine
 10
10757.44638014085
 20
29832.68321093358
 30
0.0
 11
10757.45728644639
 21
29832.68667868745
 31
0.0
  0
LINE
  5
B24D
330
1F
100
AcDbEntity
  8
freecads.com
 48
5.0
100
AcDbLine
 10
10757.43795254585
 20
29832.68469711743
 30
0.0
 11
10757.44638014085
 21
29832.68321093358
 31
0.0
  0
LINE
  5
B24E
330
1F
100
AcDbEntity
  8
freecads.com
 48
5.0
100
AcDbLine
 10
10757.42506327187
 20
29832.68618330127
 30
0.0
 11
10757.43795254585
 21
29832.68469711743
 31
0.0
  0
LINE
  5
B24F
330
1F
100
AcDbEntity
  8
freecads.com
 48
5.0
100
AcDbLine
 10
10757.41713141898
 20
29832.68667868745
 30
0.0
 11
10757.42506327187
 21
29832.68618330127
 31
0.0
  0
LINE
  5
B250
330
1F
100
AcDbEntity
  8
freecads.com
 48
5.0
100
AcDbLine
 10
10757.41118253452
 20
29832.68866027013
 30
0.0
 11
10757.41713141898
 21
29832.68667868745
 31
0.0
  0
LINE
  5
B251
330
1F
100
AcDbEntity
  8
freecads.com
 48
5.0
100
AcDbLine
 10
10757.40126771319
 20
29832.68866027013
 30
0.0
 11
10757.41118253452
 21
29832.68866027013
 31
0.0
  0
LINE
  5
B252
330
1F
100
AcDbEntity
  8
freecads.com
 48
5.0
100
AcDbLine
 10
10757.39284011819
 20
29832.69113723901
 30
0.0
 11
10757.40126771319
 21
29832.68866027013
 31
0.0
  0
LINE
  5
B253
330
1F
100
AcDbEntity
  8
freecads.com
 48
5.0
100
AcDbLine
 10
10757.39130935779
 20
29832.6982841473
 30
0.0
 11
10757.39284011819
 21
29832.69113723901
 31
0.0
  0
LINE
  5
B254
330
1F
100
AcDbEntity
  8
freecads.com
 48
5.0
100
AcDbLine
 10
10757.39332531038
 20
29832.71137862655
 30
0.0
 11
10757.39130935779
 21
29832.6982841473
 31
0.0
  0
LINE
  5
B255
330
1F
100
AcDbEntity
  8
freecads.com
 48
5.0
100
AcDbLine
 10
10757.40642896045
 20
29832.72044403915
 30
0.0
 11
10757.39332531038
 21
29832.71137862655
 31
0.0
  0
LINE
  5
B256
330
1F
100
AcDbEntity
  8
freecads.com
 48
5.0
100
AcDbLine
 10
10757.42255651854
 20
29832.7285021851
 30
0.0
 11
10757.40642896045
 21
29832.72044403915
 31
0.0
  0
LINE
  5
B257
330
1F
100
AcDbEntity
  8
freecads.com
 48
5.0
100
AcDbLine
 10
10757.42860433459
 20
29832.73353851841
 30
0.0
 11
10757.42255651854
 21
29832.7285021851
 31
0.0
  0
LINE
  5
B258
330
1F
100
AcDbEntity
  8
freecads.com
 48
5.0
100
AcDbLine
 10
10757.43364421604
 20
29832.73857486437
 30
0.0
 11
10757.42860433459
 21
29832.73353851841
 31
0.0
  0
LINE
  5
B259
330
1F
100
AcDbEntity
  8
freecads.com
 48
5.0
100
AcDbLine
 10
10757.45380365844
 20
29832.77685103546
 30
0.0
 11
10757.43364421604
 21
29832.73857486437
 31
0.0
  0
LINE
  5
B25A
330
1F
100
AcDbEntity
  8
freecads.com
 48
5.0
100
AcDbLine
 10
10757.48206504518
 20
29832.84873512181
 30
0.0
 11
10757.45380365844
 21
29832.77685103546
 31
0.0
  0
LINE
  5
B25B
330
1F
100
AcDbEntity
  8
freecads.com
 48
5.0
100
AcDbLine
 10
10757.49113679009
 20
29832.91823659738
 30
0.0
 11
10757.48206504518
 21
29832.84873512181
 31
0.0
  0
LINE
  5
B25C
330
1F
100
AcDbEntity
  8
freecads.com
 48
5.0
100
AcDbLine
 10
10757.49920057956
 20
29832.98270173962
 30
0.0
 11
10757.49113679009
 21
29832.91823659738
 31
0.0
  0
LINE
  5
B25D
330
1F
100
AcDbEntity
  8
freecads.com
 48
5.0
100
AcDbLine
 10
10757.50524841645
 20
29833.07738491969
 30
0.0
 11
10757.49920057956
 21
29832.98270173962
 31
0.0
  0
LINE
  5
B25E
330
1F
100
AcDbEntity
  8
freecads.com
 48
5.0
100
AcDbLine
 10
10757.50094707128
 20
29833.13719166725
 30
0.0
 11
10757.50524841645
 21
29833.07738491969
 31
0.0
  0
LINE
  5
B25F
330
1F
100
AcDbEntity
  8
freecads.com
 48
5.0
100
AcDbLine
 10
10757.48973294151
 20
29833.19642492435
 30
0.0
 11
10757.50094707128
 21
29833.13719166725
 31
0.0
  0
LINE
  5
B260
330
1F
100
AcDbEntity
  8
freecads.com
 48
5.0
100
AcDbLine
 10
10757.47931981357
 20
29833.22364021354
 30
0.0
 11
10757.48973294151
 21
29833.19642492435
 31
0.0
  0
LINE
  5
B261
330
1F
100
AcDbEntity
  8
freecads.com
 48
5.0
100
AcDbLine
 10
10757.47771780992
 20
29833.25805955248
 30
0.0
 11
10757.47931981357
 21
29833.22364021354
 31
0.0
  0
LINE
  5
B262
330
1F
100
AcDbEntity
  8
freecads.com
 48
5.0
100
AcDbLine
 10
10757.47771780992
 20
29833.29488022445
 30
0.0
 11
10757.47771780992
 21
29833.25805955248
 31
0.0
  0
LINE
  5
B263
330
1F
100
AcDbEntity
  8
freecads.com
 48
5.0
100
AcDbLine
 10
10757.54060744077
 20
29833.38379477716
 30
0.0
 11
10757.54152430409
 21
29833.30683217866
 31
0.0
  0
LINE
  5
B264
330
1F
100
AcDbEntity
  8
freecads.com
 48
5.0
100
AcDbLine
 10
10757.54060744077
 20
29833.45984115048
 30
0.0
 11
10757.54060744077
 21
29833.38379477716
 31
0.0
  0
LINE
  5
B265
330
1F
100
AcDbEntity
  8
freecads.com
 48
5.0
100
AcDbLine
 10
10757.52868823842
 20
29833.51389820814
 30
0.0
 11
10757.54060744077
 21
29833.45984115048
 31
0.0
  0
LINE
  5
B266
330
1F
100
AcDbEntity
  8
freecads.com
 48
5.0
100
AcDbLine
 10
10757.536023145
 20
29833.57620125442
 30
0.0
 11
10757.52868823842
 21
29833.51389820814
 31
0.0
  0
LINE
  5
B267
330
1F
100
AcDbEntity
  8
freecads.com
 48
5.0
100
AcDbLine
 10
10757.53235569171
 20
29833.65133140257
 30
0.0
 11
10757.536023145
 21
29833.57620125442
 31
0.0
  0
LINE
  5
B268
330
1F
100
AcDbEntity
  8
freecads.com
 48
5.0
100
AcDbLine
 10
10757.32606169417
 20
29833.48183045348
 30
0.0
 11
10757.33614716988
 21
29833.50290354398
 31
0.0
  0
LINE
  5
B269
330
1F
100
AcDbEntity
  8
freecads.com
 48
5.0
100
AcDbLine
 10
10757.3233111042
 20
29833.44060049768
 30
0.0
 11
10757.32606169417
 21
29833.48183045348
 31
0.0
  0
LINE
  5
B26A
330
1F
100
AcDbEntity
  8
freecads.com
 48
5.0
100
AcDbLine
 10
10757.31414247097
 20
29833.39020832809
 30
0.0
 11
10757.3233111042
 21
29833.44060049768
 31
0.0
  0
LINE
  5
B26B
330
1F
100
AcDbEntity
  8
freecads.com
 48
5.0
100
AcDbLine
 10
10757.30497385859
 20
29833.33615127044
 30
0.0
 11
10757.31414247097
 21
29833.39020832809
 31
0.0
  0
LINE
  5
B26C
330
1F
100
AcDbEntity
  8
freecads.com
 48
5.0
100
AcDbLine
 10
10757.29488836204
 20
29833.31691061764
 30
0.0
 11
10757.30497385859
 21
29833.33615127044
 31
0.0
  0
LINE
  5
B26D
330
1F
100
AcDbEntity
  8
freecads.com
 48
5.0
100
AcDbLine
 10
10757.29488836204
 20
29833.31049706672
 30
0.0
 11
10757.29488836204
 21
29833.31691061764
 31
0.0
  0
LINE
  5
B26E
330
1F
100
AcDbEntity
  8
freecads.com
 48
5.0
100
AcDbLine
 10
10757.30222326862
 20
29833.31049706672
 30
0.0
 11
10757.29488836204
 21
29833.31049706672
 31
0.0
  0
LINE
  5
B26F
330
1F
100
AcDbEntity
  8
freecads.com
 48
5.0
100
AcDbLine
 10
10757.31047501768
 20
29833.30316730327
 30
0.0
 11
10757.30222326862
 21
29833.31049706672
 31
0.0
  0
LINE
  5
B270
330
1F
100
AcDbEntity
  8
freecads.com
 48
5.0
100
AcDbLine
 10
10757.32972912662
 20
29833.29858619003
 30
0.0
 11
10757.31047501768
 21
29833.30316730327
 31
0.0
  0
LINE
  5
B271
330
1F
100
AcDbEntity
  8
freecads.com
 48
5.0
100
AcDbLine
 10
10757.34348207647
 20
29833.29766996486
 30
0.0
 11
10757.32972912662
 21
29833.29858619003
 31
0.0
  0
LINE
  5
B272
330
1F
100
AcDbEntity
  8
freecads.com
 48
5.0
100
AcDbLine
 10
10757.36915420782
 20
29833.29675375234
 30
0.0
 11
10757.34348207647
 21
29833.29766996486
 31
0.0
  0
LINE
  5
B273
330
1F
100
AcDbEntity
  8
freecads.com
 48
5.0
100
AcDbLine
 10
10757.39849379246
 20
29833.29950241522
 30
0.0
 11
10757.36915420782
 21
29833.29675375234
 31
0.0
  0
LINE
  5
B274
330
1F
100
AcDbEntity
  8
freecads.com
 48
5.0
100
AcDbLine
 10
10757.42691653464
 20
29833.30041864039
 30
0.0
 11
10757.39849379246
 21
29833.29950241522
 31
0.0
  0
LINE
  5
B275
330
1F
100
AcDbEntity
  8
freecads.com
 48
5.0
100
AcDbLine
 10
10757.45992357257
 20
29833.30133485291
 30
0.0
 11
10757.42691653464
 21
29833.30041864039
 31
0.0
  0
LINE
  5
B276
330
1F
100
AcDbEntity
  8
freecads.com
 48
5.0
100
AcDbLine
 10
10757.48742943057
 20
29833.30133485291
 30
0.0
 11
10757.45992357257
 21
29833.30133485291
 31
0.0
  0
LINE
  5
B277
330
1F
100
AcDbEntity
  8
freecads.com
 48
5.0
100
AcDbLine
 10
10757.51768589939
 20
29833.30133485291
 30
0.0
 11
10757.48742943057
 21
29833.30133485291
 31
0.0
  0
LINE
  5
B278
330
1F
100
AcDbEntity
  8
freecads.com
 48
5.0
100
AcDbLine
 10
10757.53694000832
 20
29833.30499974097
 30
0.0
 11
10757.51768589939
 21
29833.30133485291
 31
0.0
  0
LINE
  5
B279
330
1F
100
AcDbEntity
  8
freecads.com
 48
5.0
100
AcDbLine
 10
10757.58369997526
 20
29833.30591596615
 30
0.0
 11
10757.53694000832
 21
29833.30499974097
 31
0.0
  0
LINE
  5
B27A
330
1F
100
AcDbEntity
  8
freecads.com
 48
5.0
100
AcDbLine
 10
10757.60478781085
 20
29833.30591596615
 30
0.0
 11
10757.58369997526
 21
29833.30591596615
 31
0.0
  0
LINE
  5
B27B
330
1F
100
AcDbEntity
  8
freecads.com
 48
5.0
100
AcDbLine
 10
10757.64788032449
 20
29833.30591596615
 30
0.0
 11
10757.60478781085
 21
29833.30591596615
 31
0.0
  0
LINE
  5
B27C
330
1F
100
AcDbEntity
  8
freecads.com
 48
5.0
100
AcDbLine
 10
10757.67263561337
 20
29833.3114132919
 30
0.0
 11
10757.64788032449
 21
29833.30591596615
 31
0.0
  0
LINE
  5
B27D
330
1F
100
AcDbEntity
  8
freecads.com
 48
5.0
100
AcDbLine
 10
10757.69188972231
 20
29833.31507817995
 30
0.0
 11
10757.67263561337
 21
29833.3114132919
 31
0.0
  0
LINE
  5
B27E
330
1F
100
AcDbEntity
  8
freecads.com
 48
5.0
100
AcDbLine
 10
10757.69005599566
 20
29833.32882149433
 30
0.0
 11
10757.69188972231
 21
29833.31507817995
 31
0.0
  0
LINE
  5
B27F
330
1F
100
AcDbEntity
  8
freecads.com
 48
5.0
100
AcDbLine
 10
10757.68638854237
 20
29833.35814057344
 30
0.0
 11
10757.69005599566
 21
29833.32882149433
 31
0.0
  0
LINE
  5
B280
330
1F
100
AcDbEntity
  8
freecads.com
 48
5.0
100
AcDbLine
 10
10757.67997051995
 20
29833.38745966521
 30
0.0
 11
10757.68638854237
 21
29833.35814057344
 31
0.0
  0
LINE
  5
B281
330
1F
100
AcDbEntity
  8
freecads.com
 48
5.0
100
AcDbLine
 10
10757.67446934001
 20
29833.43876805999
 30
0.0
 11
10757.67997051995
 21
29833.38745966521
 31
0.0
  0
LINE
  5
B282
330
1F
100
AcDbEntity
  8
freecads.com
 48
5.0
100
AcDbLine
 10
10757.6698850234
 20
29833.48366290385
 30
0.0
 11
10757.67446934001
 21
29833.43876805999
 31
0.0
  0
LINE
  5
B283
330
1F
100
AcDbEntity
  8
freecads.com
 48
5.0
100
AcDbLine
 10
10757.67265969471
 20
29833.5364140251
 30
0.0
 11
10757.6698850234
 21
29833.48366290385
 31
0.0
  0
LINE
  5
B284
330
1F
100
AcDbEntity
  8
freecads.com
 48
5.0
100
AcDbLine
 10
10757.66706702651
 20
29833.59230164697
 30
0.0
 11
10757.67265969471
 21
29833.5364140251
 31
0.0
  0
LINE
  5
B285
330
1F
100
AcDbEntity
  8
freecads.com
 48
5.0
100
AcDbLine
 10
10757.66147433746
 20
29833.64260049652
 30
0.0
 11
10757.66706702651
 21
29833.59230164697
 31
0.0
  0
LINE
  5
B286
330
1F
100
AcDbEntity
  8
freecads.com
 48
5.0
100
AcDbLine
 10
10757.65961012863
 20
29833.69289934607
 30
0.0
 11
10757.66147433746
 21
29833.64260049652
 31
0.0
  0
LINE
  5
B287
330
1F
100
AcDbEntity
  8
freecads.com
 48
5.0
100
AcDbLine
 10
10757.40991343722
 20
29833.83622828665
 30
0.0
 11
10757.3953682841
 21
29833.85076326445
 31
0.0
  0
LINE
  5
B288
330
1F
100
AcDbEntity
  8
freecads.com
 48
5.0
100
AcDbLine
 10
10757.41303025128
 20
29833.82065509164
 30
0.0
 11
10757.40991343722
 21
29833.83622828665
 31
0.0
  0
LINE
  5
B289
330
1F
100
AcDbEntity
  8
freecads.com
 48
5.0
100
AcDbLine
 10
10757.41614706534
 20
29833.78327943627
 30
0.0
 11
10757.41303025128
 21
29833.82065509164
 31
0.0
  0
LINE
  5
B28A
330
1F
100
AcDbEntity
  8
freecads.com
 48
5.0
100
AcDbLine
 10
10757.4223807143
 20
29833.75836232424
 30
0.0
 11
10757.41614706534
 21
29833.78327943627
 31
0.0
  0
LINE
  5
B28B
330
1F
100
AcDbEntity
  8
freecads.com
 48
5.0
100
AcDbLine
 10
10757.4223807143
 20
29833.72410130786
 30
0.0
 11
10757.4223807143
 21
29833.75836232424
 31
0.0
  0
LINE
  5
B28C
330
1F
100
AcDbEntity
  8
freecads.com
 48
5.0
100
AcDbLine
 10
10757.41199131326
 20
29833.70333705206
 30
0.0
 11
10757.4223807143
 21
29833.72410130786
 31
0.0
  0
LINE
  5
B28D
330
1F
100
AcDbEntity
  8
freecads.com
 48
5.0
100
AcDbLine
 10
10757.41186424587
 20
29833.69940071134
 30
0.0
 11
10757.41199131326
 21
29833.70333705206
 31
0.0
  0
LINE
  5
B28E
330
1F
100
AcDbEntity
  8
freecads.com
 48
5.0
100
AcDbLine
 10
10757.41417354179
 20
29834.06101053043
 30
0.0
 11
10757.42571774235
 21
29834.09771634988
 31
0.0
  0
LINE
  5
B28F
330
1F
100
AcDbEntity
  8
freecads.com
 48
5.0
100
AcDbLine
 10
10757.41207460761
 20
29834.0284996701
 30
0.0
 11
10757.41417354179
 21
29834.06101053043
 31
0.0
  0
LINE
  5
B290
330
1F
100
AcDbEntity
  8
freecads.com
 48
5.0
100
AcDbLine
 10
10757.40997567342
 20
29834.00018375623
 30
0.0
 11
10757.41207460761
 21
29834.0284996701
 31
0.0
  0
LINE
  5
B291
330
1F
100
AcDbEntity
  8
freecads.com
 48
5.0
100
AcDbLine
 10
10757.41207460761
 20
29833.97396531557
 30
0.0
 11
10757.40997567342
 21
29834.00018375623
 31
0.0
  0
LINE
  5
B292
330
1F
100
AcDbEntity
  8
freecads.com
 48
5.0
100
AcDbLine
 10
10757.43201456576
 20
29833.96977035647
 30
0.0
 11
10757.41207460761
 21
29833.97396531557
 31
0.0
  0
LINE
  5
B293
330
1F
100
AcDbEntity
  8
freecads.com
 48
5.0
100
AcDbLine
 10
10757.45825134731
 20
29833.98655016759
 30
0.0
 11
10757.43201456576
 21
29833.96977035647
 31
0.0
  0
LINE
  5
B294
330
1F
100
AcDbEntity
  8
freecads.com
 48
5.0
100
AcDbLine
 10
10757.49288388645
 20
29834.04213325874
 30
0.0
 11
10757.45825134731
 21
29833.98655016759
 31
0.0
  0
LINE
  5
B295
330
1F
100
AcDbEntity
  8
freecads.com
 48
5.0
100
AcDbLine
 10
10757.51807120091
 20
29834.08303402463
 30
0.0
 11
10757.49288388645
 21
29834.04213325874
 31
0.0
  0
LINE
  5
B296
330
1F
100
AcDbEntity
  8
freecads.com
 48
5.0
100
AcDbLine
 10
10757.53066486856
 20
29834.12812973698
 30
0.0
 11
10757.51807120091
 21
29834.08303402463
 31
0.0
  0
LINE
  5
B297
330
1F
100
AcDbEntity
  8
freecads.com
 48
5.0
100
AcDbLine
 10
10757.54745640458
 20
29834.11764237085
 30
0.0
 11
10757.55060480586
 21
29834.12708100036
 31
0.0
  0
LINE
  5
B298
330
1F
100
AcDbEntity
  8
freecads.com
 48
5.0
100
AcDbLine
 10
10757.52961538062
 20
29834.08618023447
 30
0.0
 11
10757.54745640458
 21
29834.11764237085
 31
0.0
  0
LINE
  5
B299
330
1F
100
AcDbEntity
  8
freecads.com
 48
5.0
100
AcDbLine
 10
10757.5117743775
 20
29834.04527946858
 30
0.0
 11
10757.52961538062
 21
29834.08618023447
 31
0.0
  0
LINE
  5
B29A
330
1F
100
AcDbEntity
  8
freecads.com
 48
5.0
100
AcDbLine
 10
10757.48868601808
 20
29834.00647617591
 30
0.0
 11
10757.5117743775
 21
29834.04527946858
 31
0.0
  0
LINE
  5
B29B
330
1F
100
AcDbEntity
  8
freecads.com
 48
5.0
100
AcDbLine
 10
10757.46664710489
 20
29833.97396531557
 30
0.0
 11
10757.48868601808
 21
29834.00647617591
 31
0.0
  0
LINE
  5
B29C
330
1F
100
AcDbEntity
  8
freecads.com
 48
5.0
100
AcDbLine
 10
10757.43726192207
 20
29833.95508803122
 30
0.0
 11
10757.46664710489
 21
29833.97396531557
 31
0.0
  0
LINE
  5
B29D
330
1F
100
AcDbEntity
  8
freecads.com
 48
5.0
100
AcDbLine
 10
10757.40367882917
 20
29833.95823424107
 30
0.0
 11
10757.43726192207
 21
29833.95508803122
 31
0.0
  0
LINE
  5
B29E
330
1F
100
AcDbEntity
  8
freecads.com
 48
5.0
100
AcDbLine
 10
10757.3942336045
 20
29833.98550143099
 30
0.0
 11
10757.40367882917
 21
29833.95823424107
 31
0.0
  0
LINE
  5
B29F
330
1F
100
AcDbEntity
  8
freecads.com
 48
5.0
100
AcDbLine
 10
10757.39738200577
 20
29834.02640219688
 30
0.0
 11
10757.3942336045
 21
29833.98550143099
 31
0.0
  0
LINE
  5
B2A0
330
1F
100
AcDbEntity
  8
freecads.com
 48
5.0
100
AcDbLine
 10
10757.40472831711
 20
29834.07674160495
 30
0.0
 11
10757.39738200577
 21
29834.02640219688
 31
0.0
  0
LINE
  5
B2A1
330
1F
100
AcDbEntity
  8
freecads.com
 48
5.0
100
AcDbLine
 10
10757.43722216179
 20
29833.70093647855
 30
0.0
 11
10757.41186424587
 21
29833.69940071134
 31
0.0
  0
LINE
  5
B2A2
330
1F
100
AcDbEntity
  8
freecads.com
 48
5.0
100
AcDbLine
 10
10757.47920101227
 20
29833.70408268839
 30
0.0
 11
10757.43722216179
 21
29833.70093647855
 31
0.0
  0
LINE
  5
B2A3
330
1F
100
AcDbEntity
  8
freecads.com
 48
5.0
100
AcDbLine
 10
10757.50333883878
 20
29833.71037512072
 30
0.0
 11
10757.47920101227
 21
29833.70408268839
 31
0.0
  0
LINE
  5
B2A4
330
1F
100
AcDbEntity
  8
freecads.com
 48
5.0
100
AcDbLine
 10
10757.56630711451
 20
29833.72295997274
 30
0.0
 11
10757.50333883878
 21
29833.71037512072
 31
0.0
  0
LINE
  5
B2A5
330
1F
100
AcDbEntity
  8
freecads.com
 48
5.0
100
AcDbLine
 10
10757.5998902074
 20
29833.72191123613
 30
0.0
 11
10757.56630711451
 21
29833.72295997274
 31
0.0
  0
LINE
  5
B2A6
330
1F
100
AcDbEntity
  8
freecads.com
 48
5.0
100
AcDbLine
 10
10757.3674735593
 20
29833.81161937638
 30
0.0
 11
10757.35519119775
 21
29833.80460578968
 31
0.0
  0
LINE
  5
B2A7
330
1F
100
AcDbEntity
  8
freecads.com
 48
5.0
100
AcDbLine
 10
10757.37917104648
 20
29833.81629510085
 30
0.0
 11
10757.3674735593
 21
29833.81161937638
 31
0.0
  0
LINE
  5
B2A8
330
1F
100
AcDbEntity
  8
freecads.com
 48
5.0
100
AcDbLine
 10
10757.38326516699
 20
29833.8461028317
 30
0.0
 11
10757.39203828238
 21
29833.84960962507
 31
0.0
  0
LINE
  5
B2A9
330
1F
100
AcDbEntity
  8
freecads.com
 48
5.0
100
AcDbLine
 10
10757.3774164234
 20
29833.84201158545
 30
0.0
 11
10757.38326516699
 21
29833.8461028317
 31
0.0
  0
LINE
  5
B2AA
330
1F
100
AcDbEntity
  8
freecads.com
 48
5.0
100
AcDbLine
 10
10757.34115421314
 20
29833.83616692987
 30
0.0
 11
10757.3358903439
 21
29833.83675139542
 31
0.0
  0
LINE
  5
B2AB
330
1F
100
AcDbEntity
  8
freecads.com
 48
5.0
100
AcDbLine
 10
10757.35402144904
 20
29833.83733586098
 30
0.0
 11
10757.34115421314
 21
29833.83616692987
 31
0.0
  0
LINE
  5
B2AC
330
1F
100
AcDbEntity
  8
freecads.com
 48
5.0
100
AcDbLine
 10
10757.36805843366
 20
29833.84025818878
 30
0.0
 11
10757.35402144904
 21
29833.83733586098
 31
0.0
  0
LINE
  5
B2AD
330
1F
100
AcDbEntity
  8
freecads.com
 48
5.0
100
AcDbLine
 10
10757.38326516699
 20
29833.84142711989
 30
0.0
 11
10757.36805843366
 21
29833.84025818878
 31
0.0
  0
LINE
  5
B2AE
330
1F
100
AcDbEntity
  8
freecads.com
 48
5.0
100
AcDbLine
 10
10757.3803407952
 20
29833.83382906762
 30
0.0
 11
10757.38326516699
 21
29833.84142711989
 31
0.0
  0
LINE
  5
B2AF
330
1F
100
AcDbEntity
  8
freecads.com
 48
5.0
100
AcDbLine
 10
10757.37566180033
 20
29833.82739994647
 30
0.0
 11
10757.3803407952
 21
29833.83382906762
 31
0.0
  0
LINE
  5
B2B0
330
1F
100
AcDbEntity
  8
freecads.com
 48
5.0
100
AcDbLine
 10
10757.32711722851
 20
29833.81687956641
 30
0.0
 11
10757.32828697723
 21
29833.81863296309
 31
0.0
  0
LINE
  5
B2B1
330
1F
100
AcDbEntity
  8
freecads.com
 48
5.0
100
AcDbLine
 10
10757.3516819516
 20
29833.82038635977
 30
0.0
 11
10757.32711722851
 21
29833.81687956641
 31
0.0
  0
LINE
  5
B2B2
330
1F
100
AcDbEntity
  8
freecads.com
 48
5.0
100
AcDbLine
 10
10757.36688868494
 20
29833.822724222
 30
0.0
 11
10757.3516819516
 21
29833.82038635977
 31
0.0
  0
LINE
  5
B2B3
330
1F
100
AcDbEntity
  8
freecads.com
 48
5.0
100
AcDbLine
 10
10757.37975592084
 20
29833.8256465498
 30
0.0
 11
10757.36688868494
 21
29833.822724222
 31
0.0
  0
LINE
  5
B2B4
330
1F
100
AcDbEntity
  8
freecads.com
 48
5.0
100
AcDbLine
 10
10757.37800129776
 20
29833.81454170418
 30
0.0
 11
10757.37975592084
 21
29833.8256465498
 31
0.0
  0
LINE
  5
B2B5
330
1F
100
AcDbEntity
  8
freecads.com
 48
5.0
100
AcDbLine
 10
10757.37624667469
 20
29833.80519025523
 30
0.0
 11
10757.37800129776
 21
29833.81454170418
 31
0.0
  0
LINE
  5
B2B6
330
1F
100
AcDbEntity
  8
freecads.com
 48
5.0
100
AcDbLine
 10
10757.36162481571
 20
29833.79350094405
 30
0.0
 11
10757.37624667469
 21
29833.80519025523
 31
0.0
  0
LINE
  5
B2B7
330
1F
100
AcDbEntity
  8
freecads.com
 48
5.0
100
AcDbLine
 10
10757.34349371057
 20
29833.78531842622
 30
0.0
 11
10757.36162481571
 21
29833.79350094405
 31
0.0
  0
LINE
  5
B2B8
330
1F
100
AcDbEntity
  8
freecads.com
 48
5.0
100
AcDbLine
 10
10757.32828697723
 20
29833.78239609843
 30
0.0
 11
10757.34349371057
 21
29833.78531842622
 31
0.0
  0
LINE
  5
B2B9
330
1F
100
AcDbEntity
  8
freecads.com
 48
5.0
100
AcDbLine
 10
10757.31249536954
 20
29833.78999415069
 30
0.0
 11
10757.32828697723
 21
29833.78239609843
 31
0.0
  0
LINE
  5
B2BA
330
1F
100
AcDbEntity
  8
freecads.com
 48
5.0
100
AcDbLine
 10
10757.30430712851
 20
29833.80460578968
 30
0.0
 11
10757.31249536954
 21
29833.78999415069
 31
0.0
  0
LINE
  5
B2BB
330
1F
100
AcDbEntity
  8
freecads.com
 48
5.0
100
AcDbLine
 10
10757.30021300799
 20
29833.82038635977
 30
0.0
 11
10757.30430712851
 21
29833.80460578968
 31
0.0
  0
LINE
  5
B2BC
330
1F
100
AcDbEntity
  8
freecads.com
 48
5.0
100
AcDbLine
 10
10757.29962813364
 20
29833.84084265433
 30
0.0
 11
10757.30021300799
 21
29833.82038635977
 31
0.0
  0
LINE
  5
B2BD
330
1F
100
AcDbEntity
  8
freecads.com
 48
5.0
100
AcDbLine
 10
10757.30898612338
 20
29833.85720767733
 30
0.0
 11
10757.29962813364
 21
29833.84084265433
 31
0.0
  0
LINE
  5
B2BE
330
1F
100
AcDbEntity
  8
freecads.com
 48
5.0
100
AcDbLine
 10
10757.3259474798
 20
29833.87065038519
 30
0.0
 11
10757.30898612338
 21
29833.85720767733
 31
0.0
  0
LINE
  5
B2BF
330
1F
100
AcDbEntity
  8
freecads.com
 48
5.0
100
AcDbLine
 10
10757.33998446442
 20
29833.87240378187
 30
0.0
 11
10757.3259474798
 21
29833.87065038519
 31
0.0
  0
LINE
  5
B2C0
330
1F
100
AcDbEntity
  8
freecads.com
 48
5.0
100
AcDbLine
 10
10757.33238109775
 20
29833.86539019516
 30
0.0
 11
10757.32009873621
 21
29833.86246786736
 31
0.0
  0
LINE
  5
B2C1
330
1F
100
AcDbEntity
  8
freecads.com
 48
5.0
100
AcDbLine
 10
10757.34349371057
 20
29833.86889698851
 30
0.0
 11
10757.33238109775
 21
29833.86539019516
 31
0.0
  0
LINE
  5
B2C2
330
1F
100
AcDbEntity
  8
freecads.com
 48
5.0
100
AcDbLine
 10
10757.35636094647
 20
29833.86831252295
 30
0.0
 11
10757.34349371057
 21
29833.86889698851
 31
0.0
  0
LINE
  5
B2C3
330
1F
100
AcDbEntity
  8
freecads.com
 48
5.0
100
AcDbLine
 10
10757.36864330802
 20
29833.8648057296
 30
0.0
 11
10757.35636094647
 21
29833.86831252295
 31
0.0
  0
LINE
  5
B2C4
330
1F
100
AcDbEntity
  8
freecads.com
 48
5.0
100
AcDbLine
 10
10757.33530546955
 20
29833.85545428065
 30
0.0
 11
10757.33238109775
 21
29833.85603874621
 31
0.0
  0
LINE
  5
B2C5
330
1F
100
AcDbEntity
  8
freecads.com
 48
5.0
100
AcDbLine
 10
10757.34583320801
 20
29833.85603874621
 30
0.0
 11
10757.33530546955
 21
29833.85545428065
 31
0.0
  0
LINE
  5
B2C6
330
1F
100
AcDbEntity
  8
freecads.com
 48
5.0
100
AcDbLine
 10
10757.35870044391
 20
29833.85720767733
 30
0.0
 11
10757.34583320801
 21
29833.85603874621
 31
0.0
  0
LINE
  5
B2C7
330
1F
100
AcDbEntity
  8
freecads.com
 48
5.0
100
AcDbLine
 10
10757.37449205161
 20
29833.858961074
 30
0.0
 11
10757.35870044391
 21
29833.85720767733
 31
0.0
  0
LINE
  5
B2C8
330
1F
100
AcDbEntity
  8
freecads.com
 48
5.0
100
AcDbLine
 10
10757.39086853366
 20
29833.858961074
 30
0.0
 11
10757.37449205161
 21
29833.858961074
 31
0.0
  0
LINE
  5
B2C9
330
1F
100
AcDbEntity
  8
freecads.com
 48
5.0
100
AcDbLine
 10
10757.39437777982
 20
29833.85019409063
 30
0.0
 11
10757.39086853366
 21
29833.858961074
 31
0.0
  0
LINE
  5
B2CA
330
1F
100
AcDbEntity
  8
freecads.com
 48
5.0
100
AcDbLine
 10
10757.38325113518
 20
29833.87180117637
 30
0.0
 11
10757.38325113518
 21
29833.86229418978
 31
0.0
  0
LINE
  5
B2CB
330
1F
100
AcDbEntity
  8
freecads.com
 48
5.0
100
AcDbLine
 10
10757.36898067619
 20
29833.88368490011
 30
0.0
 11
10757.38325113518
 21
29833.87180117637
 31
0.0
  0
LINE
  5
B2CC
330
1F
100
AcDbEntity
  8
freecads.com
 48
5.0
100
AcDbLine
 10
10757.35946704381
 20
29833.91458259702
 30
0.0
 11
10757.36898067619
 21
29833.88368490011
 31
0.0
  0
LINE
  5
B2CD
330
1F
100
AcDbEntity
  8
freecads.com
 48
5.0
100
AcDbLine
 10
10757.36541307187
 20
29833.94191518185
 30
0.0
 11
10757.35946704381
 21
29833.91458259702
 31
0.0
  0
LINE
  5
B2CE
330
1F
100
AcDbEntity
  8
freecads.com
 48
5.0
100
AcDbLine
 10
10757.36779147475
 20
29833.96924775405
 30
0.0
 11
10757.36541307187
 21
29833.94191518185
 31
0.0
  0
LINE
  5
B2CF
330
1F
100
AcDbEntity
  8
freecads.com
 48
5.0
100
AcDbLine
 10
10757.34995341143
 20
29833.9977687138
 30
0.0
 11
10757.36779147475
 21
29833.96924775405
 31
0.0
  0
LINE
  5
B2D0
330
1F
100
AcDbEntity
  8
freecads.com
 48
5.0
100
AcDbLine
 10
10757.35471023805
 20
29833.87417791353
 30
0.0
 11
10757.35946704381
 21
29833.86942442655
 31
0.0
  0
LINE
  5
B2D1
330
1F
100
AcDbEntity
  8
freecads.com
 48
5.0
100
AcDbLine
 10
10757.35352103661
 20
29833.89675699875
 30
0.0
 11
10757.35471023805
 21
29833.87417791353
 31
0.0
  0
LINE
  5
B2D2
330
1F
100
AcDbEntity
  8
freecads.com
 48
5.0
100
AcDbLine
 10
10757.35352103661
 20
29833.92052445888
 30
0.0
 11
10757.35352103661
 21
29833.89675699875
 31
0.0
  0
LINE
  5
B2D3
330
1F
100
AcDbEntity
  8
freecads.com
 48
5.0
100
AcDbLine
 10
10757.35233183517
 20
29833.95261053069
 30
0.0
 11
10757.35352103661
 21
29833.92052445888
 31
0.0
  0
LINE
  5
B2D4
330
1F
100
AcDbEntity
  8
freecads.com
 48
5.0
100
AcDbLine
 10
10757.35352103661
 20
29833.97400125367
 30
0.0
 11
10757.35233183517
 21
29833.95261053069
 31
0.0
  0
LINE
  5
B2D5
330
1F
100
AcDbEntity
  8
freecads.com
 48
5.0
100
AcDbLine
 10
10757.3416289805
 20
29834.01321756225
 30
0.0
 11
10757.35352103661
 21
29833.97400125367
 31
0.0
  0
LINE
  5
B2D6
330
1F
100
AcDbEntity
  8
freecads.com
 48
5.0
100
AcDbLine
 10
10757.33687217473
 20
29834.04649200897
 30
0.0
 11
10757.3416289805
 21
29834.01321756225
 31
0.0
  0
LINE
  5
B2D7
330
1F
100
AcDbEntity
  8
freecads.com
 48
5.0
100
AcDbLine
 10
10757.35589943949
 20
29834.08333156774
 30
0.0
 11
10757.33687217473
 21
29834.04649200897
 31
0.0
  0
LINE
  5
B2D8
330
1F
100
AcDbEntity
  8
freecads.com
 48
5.0
100
AcDbLine
 10
10757.40108919849
 20
29834.10947577768
 30
0.0
 11
10757.35589943949
 21
29834.08333156774
 31
0.0
  0
LINE
  5
B2D9
330
1F
100
AcDbEntity
  8
freecads.com
 48
5.0
100
AcDbLine
 10
10757.65041962412
 20
29833.78619424478
 30
0.0
 11
10757.64096931212
 21
29833.79280482862
 31
0.0
  0
LINE
  5
B2DA
330
1F
100
AcDbEntity
  8
freecads.com
 48
5.0
100
AcDbLine
 10
10757.66648513365
 20
29833.77675055178
 30
0.0
 11
10757.65041962412
 21
29833.78619424478
 31
0.0
  0
LINE
  5
B2DB
330
1F
100
AcDbEntity
  8
freecads.com
 48
5.0
100
AcDbLine
 10
10757.6778254872
 20
29833.76164064043
 30
0.0
 11
10757.66648513365
 21
29833.77675055178
 31
0.0
  0
LINE
  5
B2DC
330
1F
100
AcDbEntity
  8
freecads.com
 48
5.0
100
AcDbLine
 10
10757.68916584074
 20
29833.74180888892
 30
0.0
 11
10757.6778254872
 21
29833.76164064043
 31
0.0
  0
LINE
  5
B2DD
330
1F
100
AcDbEntity
  8
freecads.com
 48
5.0
100
AcDbLine
 10
10757.70334128788
 20
29833.73519830508
 30
0.0
 11
10757.68916584074
 21
29833.74180888892
 31
0.0
  0
LINE
  5
B2DE
330
1F
100
AcDbEntity
  8
freecads.com
 48
5.0
100
AcDbLine
 10
10757.73169218216
 20
29833.73519830508
 30
0.0
 11
10757.70334128788
 21
29833.73519830508
 31
0.0
  0
LINE
  5
B2DF
330
1F
100
AcDbEntity
  8
freecads.com
 48
5.0
100
AcDbLine
 10
10757.62962895858
 20
29833.72669897758
 30
0.0
 11
10757.64380440572
 21
29833.69836791122
 31
0.0
  0
LINE
  5
B2E0
330
1F
100
AcDbEntity
  8
freecads.com
 48
5.0
100
AcDbLine
 10
10757.61261843869
 20
29833.80224850896
 30
0.0
 11
10757.62962895858
 21
29833.72669897758
 31
0.0
  0
LINE
  5
B2E1
330
1F
100
AcDbEntity
  8
freecads.com
 48
5.0
100
AcDbLine
 10
10757.65514475926
 20
29833.71442218805
 30
0.0
 11
10757.65703482166
 21
29833.70025664222
 31
0.0
  0
LINE
  5
B2E2
330
1F
100
AcDbEntity
  8
freecads.com
 48
5.0
100
AcDbLine
 10
10757.64947459292
 20
29833.75314131293
 30
0.0
 11
10757.65514475926
 21
29833.71442218805
 31
0.0
  0
LINE
  5
B2E3
330
1F
100
AcDbEntity
  8
freecads.com
 48
5.0
100
AcDbLine
 10
10757.63813423937
 20
29833.79374919413
 30
0.0
 11
10757.64947459292
 21
29833.75314131293
 31
0.0
  0
LINE
  5
B2E4
330
1F
100
AcDbEntity
  8
freecads.com
 48
5.0
100
AcDbLine
 10
10757.62868392738
 20
29833.81830278581
 30
0.0
 11
10757.63813423937
 21
29833.79374919413
 31
0.0
  0
LINE
  5
B2E5
330
1F
100
AcDbEntity
  8
freecads.com
 48
5.0
100
AcDbLine
 10
10757.6078932827
 20
29833.82869085698
 30
0.0
 11
10757.62868392738
 21
29833.81830278581
 31
0.0
  0
LINE
  5
B2E6
330
1F
100
AcDbEntity
  8
freecads.com
 48
5.0
100
AcDbLine
 10
10757.72602199496
 20
29833.77675055178
 30
0.0
 11
10757.72224189101
 21
29833.79280482862
 31
0.0
  0
LINE
  5
B2E7
330
1F
100
AcDbEntity
  8
freecads.com
 48
5.0
100
AcDbLine
 10
10757.73358224456
 20
29833.7635293841
 30
0.0
 11
10757.72602199496
 21
29833.77675055178
 31
0.0
  0
LINE
  5
B2E8
330
1F
100
AcDbEntity
  8
freecads.com
 48
5.0
100
AcDbLine
 10
10757.7458676293
 20
29833.74936383826
 30
0.0
 11
10757.73358224456
 21
29833.7635293841
 31
0.0
  0
LINE
  5
B2E9
330
1F
100
AcDbEntity
  8
freecads.com
 48
5.0
100
AcDbLine
 10
10757.7439775669
 20
29833.74369763258
 30
0.0
 11
10757.7458676293
 21
29833.74936383826
 31
0.0
  0
LINE
  5
B2EA
330
1F
100
AcDbEntity
  8
freecads.com
 48
5.0
100
AcDbLine
 10
10757.73074715096
 20
29833.73614267057
 30
0.0
 11
10757.7439775669
 21
29833.74369763258
 31
0.0
  0
LINE
  5
B2EB
330
1F
100
AcDbEntity
  8
freecads.com
 48
5.0
100
AcDbLine
 10
10757.73452727575
 20
29833.72386588107
 30
0.0
 11
10757.73074715096
 21
29833.73614267057
 31
0.0
  0
LINE
  5
B2EC
330
1F
100
AcDbEntity
  8
freecads.com
 48
5.0
100
AcDbLine
 10
10757.72885708856
 20
29833.71536655356
 30
0.0
 11
10757.73452727575
 21
29833.72386588107
 31
0.0
  0
LINE
  5
B2ED
330
1F
100
AcDbEntity
  8
freecads.com
 48
5.0
100
AcDbLine
 10
10757.70901147507
 20
29833.70970033523
 30
0.0
 11
10757.72885708856
 21
29833.71536655356
 31
0.0
  0
LINE
  5
B2EE
330
1F
100
AcDbEntity
  8
freecads.com
 48
5.0
100
AcDbLine
 10
10757.69200093434
 20
29833.70781160422
 30
0.0
 11
10757.70901147507
 21
29833.70970033523
 31
0.0
  0
LINE
  5
B2EF
330
1F
100
AcDbEntity
  8
freecads.com
 48
5.0
100
AcDbLine
 10
10757.676880456
 20
29833.70308975139
 30
0.0
 11
10757.69200093434
 21
29833.70781160422
 31
0.0
  0
LINE
  5
B2F0
330
1F
100
AcDbEntity
  8
freecads.com
 48
5.0
100
AcDbLine
 10
10757.65986991526
 20
29833.69647916756
 30
0.0
 11
10757.676880456
 21
29833.70308975139
 31
0.0
  0
LINE
  5
B2F1
330
1F
100
AcDbEntity
  8
freecads.com
 48
5.0
100
AcDbLine
 10
10757.65136465532
 20
29833.69742353305
 30
0.0
 11
10757.65986991526
 21
29833.69647916756
 31
0.0
  0
LINE
  5
B2F2
330
1F
100
AcDbEntity
  8
freecads.com
 48
5.0
100
AcDbLine
 10
10757.63624417698
 20
29833.69270169288
 30
0.0
 11
10757.65136465532
 21
29833.69742353305
 31
0.0
  0
LINE
  5
B2F3
330
1F
100
AcDbEntity
  8
freecads.com
 48
5.0
100
AcDbLine
 10
10757.61923363624
 20
29833.68703547455
 30
0.0
 11
10757.63624417698
 21
29833.69270169288
 31
0.0
  0
LINE
  5
B2F4
330
1F
100
AcDbEntity
  8
freecads.com
 48
5.0
100
AcDbLine
 10
10757.61072837629
 20
29833.69836791122
 30
0.0
 11
10757.61923363624
 21
29833.68703547455
 31
0.0
  0
LINE
  5
B2F5
330
1F
100
AcDbEntity
  8
freecads.com
 48
5.0
100
AcDbLine
 10
10757.6012780643
 20
29833.73897577975
 30
0.0
 11
10757.61072837629
 21
29833.69836791122
 31
0.0
  0
LINE
  5
B2F6
330
1F
100
AcDbEntity
  8
freecads.com
 48
5.0
100
AcDbLine
 10
10757.58993771076
 20
29833.78147239195
 30
0.0
 11
10757.6012780643
 21
29833.73897577975
 31
0.0
  0
LINE
  5
B2F7
330
1F
100
AcDbEntity
  8
freecads.com
 48
5.0
100
AcDbLine
 10
10757.58804764836
 20
29833.81830278581
 30
0.0
 11
10757.58993771076
 21
29833.78147239195
 31
0.0
  0
LINE
  5
B2F8
330
1F
100
AcDbEntity
  8
freecads.com
 48
5.0
100
AcDbLine
 10
10757.62679388583
 20
29833.84285639017
 30
0.0
 11
10757.63529914578
 21
29833.84191202466
 31
0.0
  0
LINE
  5
B2F9
330
1F
100
AcDbEntity
  8
freecads.com
 48
5.0
100
AcDbLine
 10
10757.61639854264
 20
29833.84285639017
 30
0.0
 11
10757.62679388583
 21
29833.84285639017
 31
0.0
  0
LINE
  5
B2FA
330
1F
100
AcDbEntity
  8
freecads.com
 48
5.0
100
AcDbLine
 10
10757.6022230955
 20
29833.83719017182
 30
0.0
 11
10757.61639854264
 21
29833.84285639017
 31
0.0
  0
LINE
  5
B2FB
330
1F
100
AcDbEntity
  8
freecads.com
 48
5.0
100
AcDbLine
 10
10757.59182777316
 20
29833.82869085698
 30
0.0
 11
10757.6022230955
 21
29833.83719017182
 31
0.0
  0
LINE
  5
B2FC
330
1F
100
AcDbEntity
  8
freecads.com
 48
5.0
100
AcDbLine
 10
10757.58710261716
 20
29833.83813453733
 30
0.0
 11
10757.59182777316
 21
29833.82869085698
 31
0.0
  0
LINE
  5
B2FD
330
1F
100
AcDbEntity
  8
freecads.com
 48
5.0
100
AcDbLine
 10
10757.58048741962
 20
29833.85796628884
 30
0.0
 11
10757.58710261716
 21
29833.83813453733
 31
0.0
  0
LINE
  5
B2FE
330
1F
100
AcDbEntity
  8
freecads.com
 48
5.0
100
AcDbLine
 10
10757.59955842694
 20
29833.93529628124
 30
0.0
 11
10757.59787354593
 21
29833.93445442602
 31
0.0
  0
LINE
  5
B2FF
330
1F
100
AcDbEntity
  8
freecads.com
 48
5.0
100
AcDbLine
 10
10757.60040085701
 20
29833.91509180651
 30
0.0
 11
10757.59955842694
 21
29833.93529628124
 31
0.0
  0
LINE
  5
B300
330
1F
100
AcDbEntity
  8
freecads.com
 48
5.0
100
AcDbLine
 10
10757.59787354593
 20
29833.89993845045
 30
0.0
 11
10757.60040085701
 21
29833.91509180651
 31
0.0
  0
LINE
  5
B301
330
1F
100
AcDbEntity
  8
freecads.com
 48
5.0
100
AcDbLine
 10
10757.59955842694
 20
29833.88899435786
 30
0.0
 11
10757.59787354593
 21
29833.89993845045
 31
0.0
  0
LINE
  5
B302
330
1F
100
AcDbEntity
  8
freecads.com
 48
5.0
100
AcDbLine
 10
10757.59703109501
 20
29833.87299914658
 30
0.0
 11
10757.59955842694
 21
29833.88899435786
 31
0.0
  0
LINE
  5
B303
330
1F
100
AcDbEntity
  8
freecads.com
 48
5.0
100
AcDbLine
 10
10757.58692178815
 20
29833.86289690921
 30
0.0
 11
10757.59703109501
 21
29833.87299914658
 31
0.0
  0
LINE
  5
B304
330
1F
100
AcDbEntity
  8
freecads.com
 48
5.0
100
AcDbLine
 10
10757.56923050637
 20
29833.85700393531
 30
0.0
 11
10757.58692178815
 21
29833.86289690921
 31
0.0
  0
LINE
  5
B305
330
1F
100
AcDbEntity
  8
freecads.com
 48
5.0
100
AcDbLine
 10
10757.56670319529
 20
29833.86542247489
 30
0.0
 11
10757.56923050637
 21
29833.85700393531
 31
0.0
  0
LINE
  5
B306
330
1F
100
AcDbEntity
  8
freecads.com
 48
5.0
100
AcDbLine
 10
10757.56838807629
 20
29833.87805026526
 30
0.0
 11
10757.56670319529
 21
29833.86542247489
 31
0.0
  0
LINE
  5
B307
330
1F
100
AcDbEntity
  8
freecads.com
 48
5.0
100
AcDbLine
 10
10757.57260028922
 20
29833.89993845045
 30
0.0
 11
10757.56838807629
 21
29833.87805026526
 31
0.0
  0
LINE
  5
B308
330
1F
100
AcDbEntity
  8
freecads.com
 48
5.0
100
AcDbLine
 10
10757.57428517022
 20
29833.91424995128
 30
0.0
 11
10757.57260028922
 21
29833.89993845045
 31
0.0
  0
LINE
  5
B309
330
1F
100
AcDbEntity
  8
freecads.com
 48
5.0
100
AcDbLine
 10
10757.58776423908
 20
29833.92182662298
 30
0.0
 11
10757.59955842694
 21
29833.93613812381
 31
0.0
  0
LINE
  5
B30A
330
1F
100
AcDbEntity
  8
freecads.com
 48
5.0
100
AcDbLine
 10
10757.5717578383
 20
29833.91761735953
 30
0.0
 11
10757.58776423908
 21
29833.92182662298
 31
0.0
  0
LINE
  5
B30B
330
1F
100
AcDbEntity
  8
freecads.com
 48
5.0
100
AcDbLine
 10
10757.56249098237
 20
29833.92603588644
 30
0.0
 11
10757.5717578383
 21
29833.91761735953
 31
0.0
  0
LINE
  5
B30C
330
1F
100
AcDbEntity
  8
freecads.com
 48
5.0
100
AcDbLine
 10
10757.55406655651
 20
29833.94203109772
 30
0.0
 11
10757.56249098237
 21
29833.92603588644
 31
0.0
  0
LINE
  5
B30D
330
1F
100
AcDbEntity
  8
freecads.com
 48
5.0
100
AcDbLine
 10
10757.56080610137
 20
29833.95465890076
 30
0.0
 11
10757.55406655651
 21
29833.94203109772
 31
0.0
  0
LINE
  5
B30E
330
1F
100
AcDbEntity
  8
freecads.com
 48
5.0
100
AcDbLine
 10
10757.61001087732
 20
29834.08708281355
 30
0.0
 11
10757.60895753219
 21
29834.08287241081
 31
0.0
  0
LINE
  5
B30F
330
1F
100
AcDbEntity
  8
freecads.com
 48
5.0
100
AcDbLine
 10
10757.61422421612
 20
29834.09918773569
 30
0.0
 11
10757.61001087732
 21
29834.08708281355
 31
0.0
  0
LINE
  5
B310
330
1F
100
AcDbEntity
  8
freecads.com
 48
5.0
100
AcDbLine
 10
10757.62001758305
 20
29834.11339785286
 30
0.0
 11
10757.61422421612
 21
29834.09918773569
 31
0.0
  0
LINE
  5
B311
330
1F
100
AcDbEntity
  8
freecads.com
 48
5.0
100
AcDbLine
 10
10757.63792432511
 20
29834.13655507429
 30
0.0
 11
10757.63529097271
 21
29834.12866056756
 31
0.0
  0
LINE
  5
B312
330
1F
100
AcDbEntity
  8
freecads.com
 48
5.0
100
AcDbLine
 10
10757.64477101631
 20
29834.14181807456
 30
0.0
 11
10757.63792432511
 21
29834.13655507429
 31
0.0
  0
LINE
  5
B313
330
1F
100
AcDbEntity
  8
freecads.com
 48
5.0
100
AcDbLine
 10
10757.57735740773
 20
29834.06708339735
 30
0.0
 11
10757.57893741499
 21
29834.04392617592
 31
0.0
  0
LINE
  5
B314
330
1F
100
AcDbEntity
  8
freecads.com
 48
5.0
100
AcDbLine
 10
10757.58525744406
 20
29834.09129322896
 30
0.0
 11
10757.57735740773
 21
29834.06708339735
 31
0.0
  0
LINE
  5
B315
330
1F
100
AcDbEntity
  8
freecads.com
 48
5.0
100
AcDbLine
 10
10757.59737081919
 20
29834.11813455438
 30
0.0
 11
10757.58525744406
 21
29834.09129322896
 31
0.0
  0
LINE
  5
B316
330
1F
100
AcDbEntity
  8
freecads.com
 48
5.0
100
AcDbLine
 10
10757.61843757578
 20
29834.14708108748
 30
0.0
 11
10757.61580422339
 21
29834.1412917758
 31
0.0
  0
LINE
  5
B317
330
1F
100
AcDbEntity
  8
freecads.com
 48
5.0
100
AcDbLine
 10
10757.60406841455
 20
29833.9372790665
 30
0.0
 11
10757.61143255235
 21
29833.93393407686
 31
0.0
  0
LINE
  5
B318
330
1F
100
AcDbEntity
  8
freecads.com
 48
5.0
100
AcDbLine
 10
10757.59737375899
 20
29833.94999004997
 30
0.0
 11
10757.60406841455
 21
29833.9372790665
 31
0.0
  0
LINE
  5
B319
330
1F
100
AcDbEntity
  8
freecads.com
 48
5.0
100
AcDbLine
 10
10757.57394242284
 20
29833.95333503962
 30
0.0
 11
10757.59737375899
 21
29833.94999004997
 31
0.0
  0
LINE
  5
B31A
330
1F
100
AcDbEntity
  8
freecads.com
 48
5.0
100
AcDbLine
 10
10757.56055307002
 20
29833.96002503159
 30
0.0
 11
10757.57394242284
 21
29833.95333503962
 31
0.0
  0
LINE
  5
B31B
330
1F
100
AcDbEntity
  8
freecads.com
 48
5.0
100
AcDbLine
 10
10757.54448587166
 20
29833.97541200424
 30
0.0
 11
10757.56055307002
 21
29833.96002503159
 31
0.0
  0
LINE
  5
B31C
330
1F
100
AcDbEntity
  8
freecads.com
 48
5.0
100
AcDbLine
 10
10757.53645227248
 20
29833.99213696516
 30
0.0
 11
10757.54448587166
 21
29833.97541200424
 31
0.0
  0
LINE
  5
B31D
330
1F
100
AcDbEntity
  8
freecads.com
 48
5.0
100
AcDbLine
 10
10757.53846067749
 20
29834.0075239378
 30
0.0
 11
10757.53645227248
 21
29833.99213696516
 31
0.0
  0
LINE
  5
B31E
330
1F
100
AcDbEntity
  8
freecads.com
 48
5.0
100
AcDbLine
 10
10757.53444386748
 20
29834.00685493734
 30
0.0
 11
10757.53846067749
 21
29834.0075239378
 31
0.0
  0
LINE
  5
B31F
330
1F
100
AcDbEntity
  8
freecads.com
 48
5.0
100
AcDbLine
 10
10757.53377440609
 20
29834.02357991091
 30
0.0
 11
10757.53444386748
 21
29834.00685493734
 31
0.0
  0
LINE
  5
B320
330
1F
100
AcDbEntity
  8
freecads.com
 48
5.0
100
AcDbLine
 10
10757.52908813469
 20
29834.0322768916
 30
0.0
 11
10757.53377440609
 21
29834.02357991091
 31
0.0
  0
LINE
  5
B321
330
1F
100
AcDbEntity
  8
freecads.com
 48
5.0
100
AcDbLine
 10
10757.52908813469
 20
29834.04164288542
 30
0.0
 11
10757.52908813469
 21
29834.0322768916
 31
0.0
  0
LINE
  5
B322
330
1F
100
AcDbEntity
  8
freecads.com
 48
5.0
100
AcDbLine
 10
10757.52975761693
 20
29834.05167786703
 30
0.0
 11
10757.52908813469
 21
29834.04164288542
 31
0.0
  0
LINE
  5
B323
330
1F
100
AcDbEntity
  8
freecads.com
 48
5.0
100
AcDbLine
 10
10757.5331049447
 20
29834.05167786703
 30
0.0
 11
10757.52975761693
 21
29834.05167786703
 31
0.0
  0
LINE
  5
B324
330
1F
100
AcDbEntity
  8
freecads.com
 48
5.0
100
AcDbLine
 10
10757.5331049447
 20
29834.05234685483
 30
0.0
 11
10757.5331049447
 21
29834.05167786703
 31
0.0
  0
LINE
  5
B325
330
1F
100
AcDbEntity
  8
freecads.com
 48
5.0
100
AcDbLine
 10
10757.53109653969
 20
29834.0630508369
 30
0.0
 11
10757.5331049447
 21
29834.05234685483
 31
0.0
  0
LINE
  5
B326
330
1F
100
AcDbEntity
  8
freecads.com
 48
5.0
100
AcDbLine
 10
10757.53176600108
 20
29834.06907182841
 30
0.0
 11
10757.53109653969
 21
29834.0630508369
 31
0.0
  0
LINE
  5
B327
330
1F
100
AcDbEntity
  8
freecads.com
 48
5.0
100
AcDbLine
 10
10757.5377912161
 20
29834.07174783025
 30
0.0
 11
10757.53176600108
 21
29834.06907182841
 31
0.0
  0
LINE
  5
B328
330
1F
100
AcDbEntity
  8
freecads.com
 48
5.0
100
AcDbLine
 10
10757.54314694889
 20
29834.07040982933
 30
0.0
 11
10757.5377912161
 21
29834.07174783025
 31
0.0
  0
LINE
  5
B329
330
1F
100
AcDbEntity
  8
freecads.com
 48
5.0
100
AcDbLine
 10
10757.56323095727
 20
29834.05569185714
 30
0.0
 11
10757.54314694889
 21
29834.07040982933
 31
0.0
  0
LINE
  5
B32A
330
1F
100
AcDbEntity
  8
freecads.com
 48
5.0
100
AcDbLine
 10
10757.575950807
 20
29834.04632587598
 30
0.0
 11
10757.56323095727
 21
29834.05569185714
 31
0.0
  0
LINE
  5
B32B
330
1F
100
AcDbEntity
  8
freecads.com
 48
5.0
100
AcDbLine
 10
10757.58934015981
 20
29834.03762888264
 30
0.0
 11
10757.575950807
 21
29834.04632587598
 31
0.0
  0
LINE
  5
B32C
330
1F
100
AcDbEntity
  8
freecads.com
 48
5.0
100
AcDbLine
 10
10757.59402641036
 20
29834.03762888264
 30
0.0
 11
10757.58934015981
 21
29834.03762888264
 31
0.0
  0
LINE
  5
B32D
330
1F
100
AcDbEntity
  8
freecads.com
 48
5.0
100
AcDbLine
 10
10757.59402641036
 20
29834.04498787506
 30
0.0
 11
10757.59402641036
 21
29834.03762888264
 31
0.0
  0
LINE
  5
B32E
330
1F
100
AcDbEntity
  8
freecads.com
 48
5.0
100
AcDbLine
 10
10757.59402641036
 20
29834.05502285667
 30
0.0
 11
10757.59402641036
 21
29834.04498787506
 31
0.0
  0
LINE
  5
B32F
330
1F
100
AcDbEntity
  8
freecads.com
 48
5.0
100
AcDbLine
 10
10757.59402641036
 20
29834.06639583922
 30
0.0
 11
10757.59402641036
 21
29834.05502285667
 31
0.0
  0
LINE
  5
B330
330
1F
100
AcDbEntity
  8
freecads.com
 48
5.0
100
AcDbLine
 10
10757.59804322038
 20
29834.08044481094
 30
0.0
 11
10757.59402641036
 21
29834.06639583922
 31
0.0
  0
LINE
  5
B331
330
1F
100
AcDbEntity
  8
freecads.com
 48
5.0
100
AcDbLine
 10
10757.60741576318
 20
29834.08579680197
 30
0.0
 11
10757.59804322038
 21
29834.08044481094
 31
0.0
  0
LINE
  5
B332
330
1F
100
AcDbEntity
  8
freecads.com
 48
5.0
100
AcDbLine
 10
10757.61076309096
 20
29834.07977581048
 30
0.0
 11
10757.60741576318
 21
29834.08579680197
 31
0.0
  0
LINE
  5
B333
330
1F
100
AcDbEntity
  8
freecads.com
 48
5.0
100
AcDbLine
 10
10757.61009362957
 20
29834.06371983737
 30
0.0
 11
10757.61076309096
 21
29834.07977581048
 31
0.0
  0
LINE
  5
B334
330
1F
100
AcDbEntity
  8
freecads.com
 48
5.0
100
AcDbLine
 10
10757.61076309096
 20
29834.04833286471
 30
0.0
 11
10757.61009362957
 21
29834.06371983737
 31
0.0
  0
LINE
  5
B335
330
1F
100
AcDbEntity
  8
freecads.com
 48
5.0
100
AcDbLine
 10
10757.61210201373
 20
29834.04097388495
 30
0.0
 11
10757.61076309096
 21
29834.04833286471
 31
0.0
  0
LINE
  5
B336
330
1F
100
AcDbEntity
  8
freecads.com
 48
5.0
100
AcDbLine
 10
10757.62549136655
 20
29834.01555193069
 30
0.0
 11
10757.61210201373
 21
29834.04097388495
 31
0.0
  0
LINE
  5
B337
330
1F
100
AcDbEntity
  8
freecads.com
 48
5.0
100
AcDbLine
 10
10757.62549136655
 20
29834.00350994769
 30
0.0
 11
10757.62549136655
 21
29834.01555193069
 31
0.0
  0
LINE
  5
B338
330
1F
100
AcDbEntity
  8
freecads.com
 48
5.0
100
AcDbLine
 10
10757.63754175489
 20
29833.99414396654
 30
0.0
 11
10757.62549136655
 21
29834.00350994769
 31
0.0
  0
LINE
  5
B339
330
1F
100
AcDbEntity
  8
freecads.com
 48
5.0
100
AcDbLine
 10
10757.64289748768
 20
29833.97942599435
 30
0.0
 11
10757.63754175489
 21
29833.99414396654
 31
0.0
  0
LINE
  5
B33A
330
1F
100
AcDbEntity
  8
freecads.com
 48
5.0
100
AcDbLine
 10
10757.6516005691
 20
29833.97541200424
 30
0.0
 11
10757.65628681965
 21
29833.96203202031
 31
0.0
  0
LINE
  5
B33B
330
1F
100
AcDbEntity
  8
freecads.com
 48
5.0
100
AcDbLine
 10
10757.64222802629
 20
29834.01287592883
 30
0.0
 11
10757.6516005691
 21
29833.97541200424
 31
0.0
  0
LINE
  5
B33C
330
1F
100
AcDbEntity
  8
freecads.com
 48
5.0
100
AcDbLine
 10
10757.64155856491
 20
29834.05167786703
 30
0.0
 11
10757.64222802629
 21
29834.01287592883
 31
0.0
  0
LINE
  5
B33D
330
1F
100
AcDbEntity
  8
freecads.com
 48
5.0
100
AcDbLine
 10
10757.64155856491
 20
29834.07576182036
 30
0.0
 11
10757.64155856491
 21
29834.05167786703
 31
0.0
  0
LINE
  5
B33E
330
1F
100
AcDbEntity
  8
freecads.com
 48
5.0
100
AcDbLine
 10
10757.64624483631
 20
29834.0998457737
 30
0.0
 11
10757.64155856491
 21
29834.07576182036
 31
0.0
  0
LINE
  5
B33F
330
1F
100
AcDbEntity
  8
freecads.com
 48
5.0
100
AcDbLine
 10
10757.65628681965
 20
29834.12259173878
 30
0.0
 11
10757.64624483631
 21
29834.0998457737
 31
0.0
  0
LINE
  5
B340
330
1F
100
AcDbEntity
  8
freecads.com
 48
5.0
100
AcDbLine
 10
10757.74063964231
 20
29833.88509715705
 30
0.0
 11
10757.7480037801
 21
29833.8817521674
 31
0.0
  0
LINE
  5
B341
330
1F
100
AcDbEntity
  8
freecads.com
 48
5.0
100
AcDbLine
 10
10757.73528390953
 20
29833.89178714902
 30
0.0
 11
10757.74063964231
 21
29833.88509715705
 31
0.0
  0
LINE
  5
B342
330
1F
100
AcDbEntity
  8
freecads.com
 48
5.0
100
AcDbLine
 10
10757.69712429778
 20
29833.89446315086
 30
0.0
 11
10757.68842123722
 21
29833.89312514995
 31
0.0
  0
LINE
  5
B343
330
1F
100
AcDbEntity
  8
freecads.com
 48
5.0
100
AcDbLine
 10
10757.70181056918
 20
29833.89981514191
 30
0.0
 11
10757.69712429778
 21
29833.89446315086
 31
0.0
  0
LINE
  5
B344
330
1F
100
AcDbEntity
  8
freecads.com
 48
5.0
100
AcDbLine
 10
10757.70047162556
 20
29833.90717412166
 30
0.0
 11
10757.70181056918
 21
29833.89981514191
 31
0.0
  0
LINE
  5
B345
330
1F
100
AcDbEntity
  8
freecads.com
 48
5.0
100
AcDbLine
 10
10757.69980216418
 20
29833.92055409294
 30
0.0
 11
10757.70047162556
 21
29833.90717412166
 31
0.0
  0
LINE
  5
B346
330
1F
100
AcDbEntity
  8
freecads.com
 48
5.0
100
AcDbLine
 10
10757.70248003057
 20
29833.93393407686
 30
0.0
 11
10757.69980216418
 21
29833.92055409294
 31
0.0
  0
LINE
  5
B347
330
1F
100
AcDbEntity
  8
freecads.com
 48
5.0
100
AcDbLine
 10
10757.71854722893
 20
29833.9085121226
 30
0.0
 11
10757.72122509532
 21
29833.9024911311
 31
0.0
  0
LINE
  5
B348
330
1F
100
AcDbEntity
  8
freecads.com
 48
5.0
100
AcDbLine
 10
10757.70783576336
 20
29833.91988510513
 30
0.0
 11
10757.71854722893
 21
29833.9085121226
 31
0.0
  0
LINE
  5
B349
330
1F
100
AcDbEntity
  8
freecads.com
 48
5.0
100
AcDbLine
 10
10757.70515789696
 20
29833.93192707547
 30
0.0
 11
10757.70783576336
 21
29833.91988510513
 31
0.0
  0
LINE
  5
B34A
330
1F
100
AcDbEntity
  8
freecads.com
 48
5.0
100
AcDbLine
 10
10757.68105709942
 20
29833.9459760472
 30
0.0
 11
10757.68775177583
 21
29833.94396905847
 31
0.0
  0
LINE
  5
B34B
330
1F
100
AcDbEntity
  8
freecads.com
 48
5.0
100
AcDbLine
 10
10757.67637082802
 20
29833.94731404812
 30
0.0
 11
10757.68105709942
 21
29833.9459760472
 31
0.0
  0
LINE
  5
B34C
330
1F
100
AcDbEntity
  8
freecads.com
 48
5.0
100
AcDbLine
 10
10757.66565936245
 20
29833.94932104951
 30
0.0
 11
10757.67637082802
 21
29833.94731404812
 31
0.0
  0
LINE
  5
B34D
330
1F
100
AcDbEntity
  8
freecads.com
 48
5.0
100
AcDbLine
 10
10757.66030362966
 20
29833.95668002927
 30
0.0
 11
10757.66565936245
 21
29833.94932104951
 31
0.0
  0
LINE
  5
B34E
330
1F
100
AcDbEntity
  8
freecads.com
 48
5.0
100
AcDbLine
 10
10757.65695630188
 20
29833.96069403205
 30
0.0
 11
10757.66030362966
 21
29833.95668002927
 31
0.0
  0
LINE
  5
B34F
330
1F
100
AcDbEntity
  8
freecads.com
 48
5.0
100
AcDbLine
 10
10757.65227003048
 20
29833.96872201227
 30
0.0
 11
10757.65695630188
 21
29833.96069403205
 31
0.0
  0
LINE
  5
B350
330
1F
100
AcDbEntity
  8
freecads.com
 48
5.0
100
AcDbLine
 10
10757.64490589269
 20
29833.97942599435
 30
0.0
 11
10757.65227003048
 21
29833.96872201227
 31
0.0
  0
LINE
  5
B352
330
1F
100
AcDbEntity
  8
freecads.com
 48
5.0
100
AcDbLine
 10
10757.64356696992
 20
29833.97139800146
 30
0.0
 11
10757.64490589269
 21
29833.97942599435
 31
0.0
  0
LINE
  5
B353
330
1F
100
AcDbEntity
  8
freecads.com
 48
5.0
100
AcDbLine
 10
10757.63687229351
 20
29833.95734902973
 30
0.0
 11
10757.64356696992
 21
29833.97139800146
 31
0.0
  0
LINE
  5
B354
330
1F
100
AcDbEntity
  8
freecads.com
 48
5.0
100
AcDbLine
 10
10757.62549136655
 20
29833.94530705939
 30
0.0
 11
10757.63687229351
 21
29833.95734902973
 31
0.0
  0
LINE
  5
B355
330
1F
100
AcDbEntity
  8
freecads.com
 48
5.0
100
AcDbLine
 10
10757.61678828513
 20
29833.9392860679
 30
0.0
 11
10757.62549136655
 21
29833.94530705939
 31
0.0
  0
LINE
  5
B356
330
1F
100
AcDbEntity
  8
freecads.com
 48
5.0
100
AcDbLine
 10
10757.60607681956
 20
29833.93594106559
 30
0.0
 11
10757.61678828513
 21
29833.9392860679
 31
0.0
  0
LINE
  5
B357
330
1F
100
AcDbEntity
  8
freecads.com
 48
5.0
100
AcDbLine
 10
10757.61009362957
 20
29833.93393407686
 30
0.0
 11
10757.60607681956
 21
29833.93594106559
 31
0.0
  0
LINE
  5
B358
330
1F
100
AcDbEntity
  8
freecads.com
 48
5.0
100
AcDbLine
 10
10757.61344095735
 20
29833.92456809571
 30
0.0
 11
10757.61009362957
 21
29833.93393407686
 31
0.0
  0
LINE
  5
B359
330
1F
100
AcDbEntity
  8
freecads.com
 48
5.0
100
AcDbLine
 10
10757.61678828513
 20
29833.90918112306
 30
0.0
 11
10757.61344095735
 21
29833.92456809571
 31
0.0
  0
LINE
  5
B35A
330
1F
100
AcDbEntity
  8
freecads.com
 48
5.0
100
AcDbLine
 10
10757.61678828513
 20
29833.89914614144
 30
0.0
 11
10757.61678828513
 21
29833.90918112306
 31
0.0
  0
LINE
  5
B35B
330
1F
100
AcDbEntity
  8
freecads.com
 48
5.0
100
AcDbLine
 10
10757.61879669014
 20
29833.8777381773
 30
0.0
 11
10757.61678828513
 21
29833.89914614144
 31
0.0
  0
LINE
  5
B35C
330
1F
100
AcDbEntity
  8
freecads.com
 48
5.0
100
AcDbLine
 10
10757.6363346019
 20
29833.85783648638
 30
0.0
 11
10757.61879669014
 21
29833.8777381773
 31
0.0
  0
LINE
  5
B35D
330
1F
100
AcDbEntity
  8
freecads.com
 48
5.0
100
AcDbLine
 10
10757.65675816767
 20
29833.83912796801
 30
0.0
 11
10757.6363346019
 21
29833.85783648638
 31
0.0
  0
LINE
  5
B35E
330
1F
100
AcDbEntity
  8
freecads.com
 48
5.0
100
AcDbLine
 10
10757.67037388512
 20
29833.82722253458
 30
0.0
 11
10757.65675816767
 21
29833.83912796801
 31
0.0
  0
LINE
  5
B35F
330
1F
100
AcDbEntity
  8
freecads.com
 48
5.0
100
AcDbLine
 10
10757.68484058101
 20
29833.81021479061
 30
0.0
 11
10757.67037388512
 21
29833.82722253458
 31
0.0
  0
LINE
  5
B360
330
1F
100
AcDbEntity
  8
freecads.com
 48
5.0
100
AcDbLine
 10
10757.70015825533
 20
29833.80256130583
 30
0.0
 11
10757.68484058101
 21
29833.81021479061
 31
0.0
  0
LINE
  5
B361
330
1F
100
AcDbEntity
  8
freecads.com
 48
5.0
100
AcDbLine
 10
10757.71207201593
 20
29833.79915975704
 30
0.0
 11
10757.70015825533
 21
29833.80256130583
 31
0.0
  0
LINE
  5
B362
330
1F
100
AcDbEntity
  8
freecads.com
 48
5.0
100
AcDbLine
 10
10757.72653871182
 20
29833.78640394906
 30
0.0
 11
10757.71207201593
 21
29833.79915975704
 31
0.0
  0
LINE
  5
B363
330
1F
100
AcDbEntity
  8
freecads.com
 48
5.0
100
AcDbLine
 10
10757.73760147313
 20
29833.79235665945
 30
0.0
 11
10757.72653871182
 21
29833.78640394906
 31
0.0
  0
LINE
  5
B364
330
1F
100
AcDbEntity
  8
freecads.com
 48
5.0
100
AcDbLine
 10
10757.75377014673
 20
29833.80426208023
 30
0.0
 11
10757.73760147313
 21
29833.79235665945
 31
0.0
  0
LINE
  5
B365
330
1F
100
AcDbEntity
  8
freecads.com
 48
5.0
100
AcDbLine
 10
10757.75972701661
 20
29833.8187186626
 30
0.0
 11
10757.75377014673
 21
29833.80426208023
 31
0.0
  0
LINE
  5
B366
330
1F
100
AcDbEntity
  8
freecads.com
 48
5.0
100
AcDbLine
 10
10757.76483290804
 20
29833.83827758082
 30
0.0
 11
10757.75972701661
 21
29833.8187186626
 31
0.0
  0
LINE
  5
B367
330
1F
100
AcDbEntity
  8
freecads.com
 48
5.0
100
AcDbLine
 10
10757.76653486491
 20
29833.86293880956
 30
0.0
 11
10757.76483290804
 21
29833.83827758082
 31
0.0
  0
LINE
  5
B368
330
1F
100
AcDbEntity
  8
freecads.com
 48
5.0
100
AcDbLine
 10
10757.76227997275
 20
29833.88930081271
 30
0.0
 11
10757.76653486491
 21
29833.86293880956
 31
0.0
  0
LINE
  5
B369
330
1F
100
AcDbEntity
  8
freecads.com
 48
5.0
100
AcDbLine
 10
10757.74866425529
 20
29833.92671786209
 30
0.0
 11
10757.76227997275
 21
29833.88930081271
 31
0.0
  0
LINE
  5
B36A
330
1F
100
AcDbEntity
  8
freecads.com
 48
5.0
100
AcDbLine
 10
10757.7367504947
 20
29833.97008762186
 30
0.0
 11
10757.74866425529
 21
29833.92671786209
 31
0.0
  0
LINE
  5
B36B
330
1F
100
AcDbEntity
  8
freecads.com
 48
5.0
100
AcDbLine
 10
10757.73249558169
 20
29833.98794575302
 30
0.0
 11
10757.7367504947
 21
29833.97008762186
 31
0.0
  0
LINE
  5
B36C
330
1F
100
AcDbEntity
  8
freecads.com
 48
5.0
100
AcDbLine
 10
10757.72398575567
 20
29834.02026046655
 30
0.0
 11
10757.73249558169
 21
29833.98794575302
 31
0.0
  0
LINE
  5
B36D
330
1F
100
AcDbEntity
  8
freecads.com
 48
5.0
100
AcDbLine
 10
10757.72143282038
 20
29834.05257519274
 30
0.0
 11
10757.72398575567
 21
29834.02026046655
 31
0.0
  0
LINE
  5
B36E
330
1F
100
AcDbEntity
  8
freecads.com
 48
5.0
100
AcDbLine
 10
10757.71181994367
 20
29834.09644446543
 30
0.0
 11
10757.72143282038
 21
29834.05257519274
 31
0.0
  0
LINE
  5
B36F
330
1F
100
AcDbEntity
  8
freecads.com
 48
5.0
100
AcDbLine
 10
10757.70302864739
 20
29834.11536632111
 30
0.0
 11
10757.71181994367
 21
29834.09644446543
 31
0.0
  0
LINE
  5
B370
330
1F
100
AcDbEntity
  8
freecads.com
 48
5.0
100
AcDbLine
 10
10757.68274104219
 20
29834.13023350159
 30
0.0
 11
10757.70302864739
 21
29834.11536632111
 31
0.0
  0
LINE
  5
B371
330
1F
100
AcDbEntity
  8
freecads.com
 48
5.0
100
AcDbLine
 10
10757.66853972063
 20
29834.13563974789
 30
0.0
 11
10757.68274104219
 21
29834.13023350159
 31
0.0
  0
LINE
  5
B372
330
1F
100
AcDbEntity
  8
freecads.com
 48
5.0
100
AcDbLine
 10
10757.65569091582
 20
29834.13563974789
 30
0.0
 11
10757.66853972063
 21
29834.13563974789
 31
0.0
  0
LINE
  5
B373
330
1F
100
AcDbEntity
  8
freecads.com
 48
5.0
100
AcDbLine
 10
10757.64757587791
 20
29834.13969442312
 30
0.0
 11
10757.65569091582
 21
29834.13563974789
 31
0.0
  0
LINE
  5
B374
330
1F
100
AcDbEntity
  8
freecads.com
 48
5.0
100
AcDbLine
 10
10757.63810832326
 20
29834.14847957175
 30
0.0
 11
10757.64757587791
 21
29834.13969442312
 31
0.0
  0
LINE
  5
B375
330
1F
100
AcDbEntity
  8
freecads.com
 48
5.0
100
AcDbLine
 10
10757.62864076861
 20
29834.14847957175
 30
0.0
 11
10757.63810832326
 21
29834.14847957175
 31
0.0
  0
LINE
  5
B376
330
1F
100
AcDbEntity
  8
freecads.com
 48
5.0
100
AcDbLine
 10
10757.60902942178
 20
29834.14983114282
 30
0.0
 11
10757.62864076861
 21
29834.14847957175
 31
0.0
  0
LINE
  5
B377
330
1F
100
AcDbEntity
  8
freecads.com
 48
5.0
100
AcDbLine
 10
10757.60226687976
 20
29834.15591316199
 30
0.0
 11
10757.60902942178
 21
29834.14983114282
 31
0.0
  0
LINE
  5
B378
330
1F
100
AcDbEntity
  8
freecads.com
 48
5.0
100
AcDbLine
 10
10757.45146236794
 20
29834.06265542926
 30
0.0
 11
10757.45890116833
 21
29834.05387028061
 31
0.0
  0
LINE
  5
B379
330
1F
100
AcDbEntity
  8
freecads.com
 48
5.0
100
AcDbLine
 10
10757.44267107165
 20
29834.07346792184
 30
0.0
 11
10757.45146236794
 21
29834.06265542926
 31
0.0
  0
LINE
  5
B37A
330
1F
100
AcDbEntity
  8
freecads.com
 48
5.0
100
AcDbLine
 10
10757.44199483413
 20
29834.08292884337
 30
0.0
 11
10757.44267107165
 21
29834.07346792184
 31
0.0
  0
LINE
  5
B37B
330
1F
100
AcDbEntity
  8
freecads.com
 48
5.0
100
AcDbLine
 10
10757.43861356312
 20
29834.09171399201
 30
0.0
 11
10757.44199483413
 21
29834.08292884337
 31
0.0
  0
LINE
  5
B37C
330
1F
100
AcDbEntity
  8
freecads.com
 48
5.0
100
AcDbLine
 10
10757.43320353785
 20
29834.10049914066
 30
0.0
 11
10757.43861356312
 21
29834.09171399201
 31
0.0
  0
LINE
  5
B37D
330
1F
100
AcDbEntity
  8
freecads.com
 48
5.0
100
AcDbLine
 10
10757.42711725421
 20
29834.11198741876
 30
0.0
 11
10757.43320353785
 21
29834.10049914066
 31
0.0
  0
LINE
  5
B37E
330
1F
100
AcDbEntity
  8
freecads.com
 48
5.0
100
AcDbLine
 10
10757.41764969955
 20
29834.10522961408
 30
0.0
 11
10757.42711725421
 21
29834.11198741876
 31
0.0
  0
LINE
  5
B37F
330
1F
100
AcDbEntity
  8
freecads.com
 48
5.0
100
AcDbLine
 10
10757.41021092001
 20
29834.09103821913
 30
0.0
 11
10757.41764969955
 21
29834.10522961408
 31
0.0
  0
LINE
  5
B380
330
1F
100
AcDbEntity
  8
freecads.com
 48
5.0
100
AcDbLine
 10
10757.39668583598
 20
29834.07819838261
 30
0.0
 11
10757.41021092001
 21
29834.09103821913
 31
0.0
  0
LINE
  5
B381
330
1F
100
AcDbEntity
  8
freecads.com
 48
5.0
100
AcDbLine
 10
10757.37234072225
 20
29834.07008901949
 30
0.0
 11
10757.39668583598
 21
29834.07819838261
 31
0.0
  0
LINE
  5
B382
330
1F
100
AcDbEntity
  8
freecads.com
 48
5.0
100
AcDbLine
 10
10757.38248451443
 20
29834.08225307049
 30
0.0
 11
10757.37234072225
 21
29834.07008901949
 31
0.0
  0
LINE
  5
B383
330
1F
100
AcDbEntity
  8
freecads.com
 48
5.0
100
AcDbLine
 10
10757.39127581071
 20
29834.09441712149
 30
0.0
 11
10757.38248451443
 21
29834.08225307049
 31
0.0
  0
LINE
  5
B384
330
1F
100
AcDbEntity
  8
freecads.com
 48
5.0
100
AcDbLine
 10
10757.40547713226
 20
29834.10996007482
 30
0.0
 11
10757.39127581071
 21
29834.09441712149
 31
0.0
  0
LINE
  5
B385
330
1F
100
AcDbEntity
  8
freecads.com
 48
5.0
100
AcDbLine
 10
10757.41156341591
 20
29834.12550302817
 30
0.0
 11
10757.40547713226
 21
29834.10996007482
 31
0.0
  0
LINE
  5
B386
330
1F
100
AcDbEntity
  8
freecads.com
 48
5.0
100
AcDbLine
 10
10757.41697344118
 20
29834.13766707917
 30
0.0
 11
10757.41156341591
 21
29834.12550302817
 31
0.0
  0
LINE
  5
B387
330
1F
100
AcDbEntity
  8
freecads.com
 48
5.0
100
AcDbLine
 10
10757.42982226684
 20
29834.14645224047
 30
0.0
 11
10757.41697344118
 21
29834.13766707917
 31
0.0
  0
LINE
  5
B388
330
1F
100
AcDbEntity
  8
freecads.com
 48
5.0
100
AcDbLine
 10
10757.47039747724
 20
29834.07279213632
 30
0.0
 11
10757.47039747724
 21
29834.0646827732
 31
0.0
  0
LINE
  5
B389
330
1F
100
AcDbEntity
  8
freecads.com
 48
5.0
100
AcDbLine
 10
10757.46498745197
 20
29834.09374133595
 30
0.0
 11
10757.47039747724
 21
29834.07279213632
 31
0.0
  0
LINE
  5
B38A
330
1F
100
AcDbEntity
  8
freecads.com
 48
5.0
100
AcDbLine
 10
10757.45213862631
 20
29834.10928428929
 30
0.0
 11
10757.46498745197
 21
29834.09374133595
 31
0.0
  0
LINE
  5
B38B
330
1F
100
AcDbEntity
  8
freecads.com
 48
5.0
100
AcDbLine
 10
10757.44334733003
 20
29834.11469053559
 30
0.0
 11
10757.45213862631
 21
29834.10928428929
 31
0.0
  0
LINE
  5
B38C
330
1F
100
AcDbEntity
  8
freecads.com
 48
5.0
100
AcDbLine
 10
10757.44064231739
 20
29834.12347568423
 30
0.0
 11
10757.44334733003
 21
29834.11469053559
 31
0.0
  0
LINE
  5
B38D
330
1F
100
AcDbEntity
  8
freecads.com
 48
5.0
100
AcDbLine
 10
10757.44469984677
 20
29834.13699130629
 30
0.0
 11
10757.44064231739
 21
29834.12347568423
 31
0.0
  0
LINE
  5
B38E
330
1F
100
AcDbEntity
  8
freecads.com
 48
5.0
100
AcDbLine
 10
10757.44199483413
 20
29834.15388581804
 30
0.0
 11
10757.44469984677
 21
29834.13699130629
 31
0.0
  0
LINE
  5
B38F
330
1F
100
AcDbEntity
  8
freecads.com
 48
5.0
100
AcDbLine
 10
10757.46363493523
 20
29834.05049137827
 30
0.0
 11
10757.46228241848
 21
29834.03629998333
 31
0.0
  0
LINE
  5
B390
330
1F
100
AcDbEntity
  8
freecads.com
 48
5.0
100
AcDbLine
 10
10757.46633994786
 20
29834.05860074138
 30
0.0
 11
10757.46363493523
 21
29834.05049137827
 31
0.0
  0
LINE
  5
B391
330
1F
100
AcDbEntity
  8
freecads.com
 48
5.0
100
AcDbLine
 10
10757.47445498577
 20
29834.06535854607
 30
0.0
 11
10757.46633994786
 21
29834.05860074138
 31
0.0
  0
LINE
  5
B392
330
1F
100
AcDbEntity
  8
freecads.com
 48
5.0
100
AcDbLine
 10
10757.49000882407
 20
29834.07617103866
 30
0.0
 11
10757.47445498577
 21
29834.06535854607
 31
0.0
  0
LINE
  5
B393
330
1F
100
AcDbEntity
  8
freecads.com
 48
5.0
100
AcDbLine
 10
10757.49947635787
 20
29834.09982336778
 30
0.0
 11
10757.49000882407
 21
29834.07617103866
 31
0.0
  0
LINE
  5
B394
330
1F
100
AcDbEntity
  8
freecads.com
 48
5.0
100
AcDbLine
 10
10757.50894391253
 20
29834.11401476271
 30
0.0
 11
10757.49947635787
 21
29834.09982336778
 31
0.0
  0
LINE
  5
B395
330
1F
100
AcDbEntity
  8
freecads.com
 48
5.0
100
AcDbLine
 10
10757.52382149245
 20
29834.12888193053
 30
0.0
 11
10757.50894391253
 21
29834.11401476271
 31
0.0
  0
LINE
  5
B396
330
1F
100
AcDbEntity
  8
freecads.com
 48
5.0
100
AcDbLine
 10
10757.52855525935
 20
29834.14037020864
 30
0.0
 11
10757.52382149245
 21
29834.12888193053
 31
0.0
  0
LINE
  5
B397
330
1F
100
AcDbEntity
  8
freecads.com
 48
5.0
100
AcDbLine
 10
10757.53396528463
 20
29834.15591316199
 30
0.0
 11
10757.52720276346
 21
29834.14983114282
 31
0.0
  0
LINE
  5
B398
330
1F
100
AcDbEntity
  8
freecads.com
 48
5.0
100
AcDbLine
 10
10757.54005156827
 20
29834.16064363541
 30
0.0
 11
10757.53396528463
 21
29834.15591316199
 31
0.0
  0
LINE
  5
B399
330
1F
100
AcDbEntity
  8
freecads.com
 48
5.0
100
AcDbLine
 10
10757.54478535602
 20
29834.16740144011
 30
0.0
 11
10757.54005156827
 21
29834.16064363541
 31
0.0
  0
LINE
  5
B39A
330
1F
100
AcDbEntity
  8
freecads.com
 48
5.0
100
AcDbLine
 10
10757.54275658091
 20
29834.17483503034
 30
0.0
 11
10757.54478535602
 21
29834.16740144011
 31
0.0
  0
LINE
  5
B39B
330
1F
100
AcDbEntity
  8
freecads.com
 48
5.0
100
AcDbLine
 10
10757.58603680394
 20
29834.17145611534
 30
0.0
 11
10757.58468430805
 21
29834.1728076864
 31
0.0
  0
LINE
  5
B39C
330
1F
100
AcDbEntity
  8
freecads.com
 48
5.0
100
AcDbLine
 10
10757.58671306231
 20
29834.16131940828
 30
0.0
 11
10757.58603680394
 21
29834.17145611534
 31
0.0
  0
LINE
  5
B39D
330
1F
100
AcDbEntity
  8
freecads.com
 48
5.0
100
AcDbLine
 10
10757.60091438387
 20
29834.15456160357
 30
0.0
 11
10757.58671306231
 21
29834.16131940828
 31
0.0
  0
LINE
  5
B39E
330
1F
100
AcDbEntity
  8
freecads.com
 48
5.0
100
AcDbLine
 10
10757.60970568015
 20
29834.14104599418
 30
0.0
 11
10757.60091438387
 21
29834.15456160357
 31
0.0
  0
LINE
  5
B39F
330
1F
100
AcDbEntity
  8
freecads.com
 48
5.0
100
AcDbLine
 10
10757.6205257307
 20
29834.13293661841
 30
0.0
 11
10757.60970568015
 21
29834.14104599418
 31
0.0
  0
LINE
  5
B3A0
330
1F
100
AcDbEntity
  8
freecads.com
 48
5.0
100
AcDbLine
 10
10757.63405079388
 20
29834.12753037211
 30
0.0
 11
10757.6205257307
 21
29834.13293661841
 31
0.0
  0
LINE
  5
B3A1
330
1F
100
AcDbEntity
  8
freecads.com
 48
5.0
100
AcDbLine
 10
10757.62931702698
 20
29834.12212412582
 30
0.0
 11
10757.63405079388
 21
29834.12753037211
 31
0.0
  0
LINE
  5
B3A2
330
1F
100
AcDbEntity
  8
freecads.com
 48
5.0
100
AcDbLine
 10
10757.6239070017
 20
29834.12212412582
 30
0.0
 11
10757.62931702698
 21
29834.12212412582
 31
0.0
  0
LINE
  5
B3A3
330
1F
100
AcDbEntity
  8
freecads.com
 48
5.0
100
AcDbLine
 10
10757.6049718924
 20
29834.12144835295
 30
0.0
 11
10757.6239070017
 21
29834.12212412582
 31
0.0
  0
LINE
  5
B3A4
330
1F
100
AcDbEntity
  8
freecads.com
 48
5.0
100
AcDbLine
 10
10757.5955043586
 20
29834.12347568423
 30
0.0
 11
10757.6049718924
 21
29834.12144835295
 31
0.0
  0
LINE
  5
B3A5
330
1F
100
AcDbEntity
  8
freecads.com
 48
5.0
100
AcDbLine
 10
10757.56439670285
 20
29834.12888193053
 30
0.0
 11
10757.5955043586
 21
29834.12347568423
 31
0.0
  0
LINE
  5
B3A6
330
1F
100
AcDbEntity
  8
freecads.com
 48
5.0
100
AcDbLine
 10
10757.55763416083
 20
29834.13090927447
 30
0.0
 11
10757.56439670285
 21
29834.12888193053
 31
0.0
  0
LINE
  5
B3A7
330
1F
100
AcDbEntity
  8
freecads.com
 48
5.0
100
AcDbLine
 10
10757.54951912293
 20
29834.14037020864
 30
0.0
 11
10757.55763416083
 21
29834.13090927447
 31
0.0
  0
LINE
  5
B3A8
330
1F
100
AcDbEntity
  8
freecads.com
 48
5.0
100
AcDbLine
 10
10757.5393753099
 20
29834.14442489652
 30
0.0
 11
10757.54951912293
 21
29834.14037020864
 31
0.0
  0
LINE
  5
B3A9
330
1F
100
AcDbEntity
  8
freecads.com
 48
5.0
100
AcDbLine
 10
10757.52652650509
 20
29834.14442489652
 30
0.0
 11
10757.5393753099
 21
29834.14442489652
 31
0.0
  0
LINE
  5
B3AA
330
1F
100
AcDbEntity
  8
freecads.com
 48
5.0
100
AcDbLine
 10
10757.52111647982
 20
29834.13901865024
 30
0.0
 11
10757.52652650509
 21
29834.14442489652
 31
0.0
  0
LINE
  5
B3AB
330
1F
100
AcDbEntity
  8
freecads.com
 48
5.0
100
AcDbLine
 10
10757.51300144191
 20
29834.12955771606
 30
0.0
 11
10757.52111647982
 21
29834.13901865024
 31
0.0
  0
LINE
  5
B3AC
330
1F
100
AcDbEntity
  8
freecads.com
 48
5.0
100
AcDbLine
 10
10757.50691515826
 20
29834.10928428929
 30
0.0
 11
10757.51300144191
 21
29834.12955771606
 31
0.0
  0
LINE
  5
B3AD
330
1F
100
AcDbEntity
  8
freecads.com
 48
5.0
100
AcDbLine
 10
10757.53639639542
 20
29834.19689314613
 30
0.0
 11
10757.54161575065
 21
29834.20065391129
 31
0.0
  0
LINE
  5
B3AE
330
1F
100
AcDbEntity
  8
freecads.com
 48
5.0
100
AcDbLine
 10
10757.51926492672
 20
29834.19651271375
 30
0.0
 11
10757.53639639542
 21
29834.19689314613
 31
0.0
  0
LINE
  5
B3AF
330
1F
100
AcDbEntity
  8
freecads.com
 48
5.0
100
AcDbLine
 10
10757.49832645802
 20
29834.19689314613
 30
0.0
 11
10757.51926492672
 21
29834.19651271375
 31
0.0
  0
LINE
  5
B3B0
330
1F
100
AcDbEntity
  8
freecads.com
 48
5.0
100
AcDbLine
 10
10757.48652478514
 20
29834.20221921211
 30
0.0
 11
10757.49832645802
 21
29834.19689314613
 31
0.0
  0
LINE
  5
B3B1
330
1F
100
AcDbEntity
  8
freecads.com
 48
5.0
100
AcDbLine
 10
10757.50887888247
 20
29834.25224739301
 30
0.0
 11
10757.5153496962
 21
29834.25483391039
 31
0.0
  0
LINE
  5
B3B2
330
1F
100
AcDbEntity
  8
freecads.com
 48
5.0
100
AcDbLine
 10
10757.50327082723
 20
29834.24750543814
 30
0.0
 11
10757.50887888247
 21
29834.25224739301
 31
0.0
  0
LINE
  5
B3B3
330
1F
100
AcDbEntity
  8
freecads.com
 48
5.0
100
AcDbLine
 10
10757.50887888247
 20
29834.24578109321
 30
0.0
 11
10757.50327082723
 21
29834.24750543814
 31
0.0
  0
LINE
  5
B3B4
330
1F
100
AcDbEntity
  8
freecads.com
 48
5.0
100
AcDbLine
 10
10757.51621247553
 20
29834.24405674829
 30
0.0
 11
10757.50887888247
 21
29834.24578109321
 31
0.0
  0
LINE
  5
B3B5
330
1F
100
AcDbEntity
  8
freecads.com
 48
5.0
100
AcDbLine
 10
10757.52484022716
 20
29834.24276349592
 30
0.0
 11
10757.51621247553
 21
29834.24405674829
 31
0.0
  0
LINE
  5
B3B6
330
1F
100
AcDbEntity
  8
freecads.com
 48
5.0
100
AcDbLine
 10
10757.53907603404
 20
29834.2453500133
 30
0.0
 11
10757.52484022716
 21
29834.24276349592
 31
0.0
  0
LINE
  5
B3B7
330
1F
100
AcDbEntity
  8
freecads.com
 48
5.0
100
AcDbLine
 10
10757.54425268919
 20
29834.24793653069
 30
0.0
 11
10757.53907603404
 21
29834.2453500133
 31
0.0
  0
LINE
  5
B3B8
330
1F
100
AcDbEntity
  8
freecads.com
 48
5.0
100
AcDbLine
 10
10757.53950741328
 20
29834.25095412798
 30
0.0
 11
10757.54425268919
 21
29834.24793653069
 31
0.0
  0
LINE
  5
B3B9
330
1F
100
AcDbEntity
  8
freecads.com
 48
5.0
100
AcDbLine
 10
10757.53001688231
 20
29834.25569608286
 30
0.0
 11
10757.53950741328
 21
29834.25095412798
 31
0.0
  0
LINE
  5
B3BA
330
1F
100
AcDbEntity
  8
freecads.com
 48
5.0
100
AcDbLine
 10
10757.51448691686
 20
29834.2552649903
 30
0.0
 11
10757.53001688231
 21
29834.25569608286
 31
0.0
  0
LINE
  5
B3BB
330
1F
100
AcDbEntity
  8
freecads.com
 48
5.0
100
AcDbLine
 10
10757.52182050992
 20
29834.2798369118
 30
0.0
 11
10757.51664385477
 21
29834.27638822196
 31
0.0
  0
LINE
  5
B3BC
330
1F
100
AcDbEntity
  8
freecads.com
 48
5.0
100
AcDbLine
 10
10757.5356249167
 20
29834.27552604949
 30
0.0
 11
10757.53389937889
 21
29834.2798369118
 31
0.0
  0
LINE
  5
B3BD
330
1F
100
AcDbEntity
  8
freecads.com
 48
5.0
100
AcDbLine
 10
10757.55288044082
 20
29834.31044404055
 30
0.0
 11
10757.55762571673
 21
29834.3065642708
 31
0.0
  0
LINE
  5
B3BE
330
1F
100
AcDbEntity
  8
freecads.com
 48
5.0
100
AcDbLine
 10
10757.55288044082
 20
29834.31432382297
 30
0.0
 11
10757.55288044082
 21
29834.31044404055
 31
0.0
  0
LINE
  5
B3BF
330
1F
100
AcDbEntity
  8
freecads.com
 48
5.0
100
AcDbLine
 10
10757.50197666865
 20
29834.31259947804
 30
0.0
 11
10757.50456500665
 21
29834.31647926044
 31
0.0
  0
LINE
  5
B3C0
330
1F
100
AcDbEntity
  8
freecads.com
 48
5.0
100
AcDbLine
 10
10757.49421169636
 20
29834.31087513311
 30
0.0
 11
10757.50197666865
 21
29834.31259947804
 31
0.0
  0
LINE
  5
B3C1
330
1F
100
AcDbEntity
  8
freecads.com
 48
5.0
100
AcDbLine
 10
10757.49291751693
 20
29834.31906577783
 30
0.0
 11
10757.49421169636
 21
29834.31087513311
 31
0.0
  0
LINE
  5
B3C2
330
1F
100
AcDbEntity
  8
freecads.com
 48
5.0
100
AcDbLine
 10
10757.48170144815
 20
29834.31216839814
 30
0.0
 11
10757.48558392387
 21
29834.31173730557
 31
0.0
  0
LINE
  5
B3C3
330
1F
100
AcDbEntity
  8
freecads.com
 48
5.0
100
AcDbLine
 10
10757.47781895157
 20
29834.31432382297
 30
0.0
 11
10757.48170144815
 21
29834.31216839814
 31
0.0
  0
LINE
  5
B3C4
330
1F
100
AcDbEntity
  8
freecads.com
 48
5.0
100
AcDbLine
 10
10757.47479923433
 20
29834.3203590302
 30
0.0
 11
10757.47781895157
 21
29834.31432382297
 31
0.0
  0
LINE
  5
B3C5
330
1F
100
AcDbEntity
  8
freecads.com
 48
5.0
100
AcDbLine
 10
10757.48040726872
 20
29834.32208337512
 30
0.0
 11
10757.47479923433
 21
29834.3203590302
 31
0.0
  0
LINE
  5
B3C6
330
1F
100
AcDbEntity
  8
freecads.com
 48
5.0
100
AcDbLine
 10
10757.48817226187
 20
29834.32337664014
 30
0.0
 11
10757.48040726872
 21
29834.32208337512
 31
0.0
  0
LINE
  5
B3C7
330
1F
100
AcDbEntity
  8
freecads.com
 48
5.0
100
AcDbLine
 10
10757.4968000135
 20
29834.32510098507
 30
0.0
 11
10757.48817226187
 21
29834.32337664014
 31
0.0
  0
LINE
  5
B3C8
330
1F
100
AcDbEntity
  8
freecads.com
 48
5.0
100
AcDbLine
 10
10757.50370222732
 20
29834.32251446768
 30
0.0
 11
10757.4968000135
 21
29834.32510098507
 31
0.0
  0
LINE
  5
B3C9
330
1F
100
AcDbEntity
  8
freecads.com
 48
5.0
100
AcDbLine
 10
10757.56021403388
 20
29834.30828861573
 30
0.0
 11
10757.5563315373
 21
29834.30742644327
 31
0.0
  0
LINE
  5
B3CA
330
1F
100
AcDbEntity
  8
freecads.com
 48
5.0
100
AcDbLine
 10
10757.57056734418
 20
29834.31087513311
 30
0.0
 11
10757.56021403388
 21
29834.30828861573
 31
0.0
  0
LINE
  5
B3CB
330
1F
100
AcDbEntity
  8
freecads.com
 48
5.0
100
AcDbLine
 10
10757.56841040627
 20
29834.31518599542
 30
0.0
 11
10757.57056734418
 21
29834.31087513311
 31
0.0
  0
LINE
  5
B3CC
330
1F
100
AcDbEntity
  8
freecads.com
 48
5.0
100
AcDbLine
 10
10757.55762571673
 20
29834.31906577783
 30
0.0
 11
10757.56841040627
 21
29834.31518599542
 31
0.0
  0
LINE
  5
B3CD
330
1F
100
AcDbEntity
  8
freecads.com
 48
5.0
100
AcDbLine
 10
10757.54813516491
 20
29834.31863468528
 30
0.0
 11
10757.55762571673
 21
29834.31906577783
 31
0.0
  0
LINE
  5
B3CE
330
1F
100
AcDbEntity
  8
freecads.com
 48
5.0
100
AcDbLine
 10
10757.54209575128
 20
29834.31475491552
 30
0.0
 11
10757.54813516491
 21
29834.31863468528
 31
0.0
  0
LINE
  5
B3CF
330
1F
100
AcDbEntity
  8
freecads.com
 48
5.0
100
AcDbLine
 10
10757.47479923433
 20
29834.33587814717
 30
0.0
 11
10757.46841563469
 21
29834.33281380125
 31
0.0
  0
LINE
  5
B3D0
330
1F
100
AcDbEntity
  8
freecads.com
 48
5.0
100
AcDbLine
 10
10757.4842897653
 20
29834.33717139954
 30
0.0
 11
10757.47479923433
 21
29834.33587814717
 31
0.0
  0
LINE
  5
B3D1
330
1F
100
AcDbEntity
  8
freecads.com
 48
5.0
100
AcDbLine
 10
10757.49248613769
 20
29834.33717139954
 30
0.0
 11
10757.4842897653
 21
29834.33717139954
 31
0.0
  0
LINE
  5
B3D2
330
1F
100
AcDbEntity
  8
freecads.com
 48
5.0
100
AcDbLine
 10
10757.5047081395
 20
29834.33465789763
 30
0.0
 11
10757.49248613769
 21
29834.33717139954
 31
0.0
  0
LINE
  5
B3D3
330
1F
100
AcDbEntity
  8
freecads.com
 48
5.0
100
AcDbLine
 10
10757.56253007546
 20
29834.33096971754
 30
0.0
 11
10757.54346113225
 21
29834.33219910668
 31
0.0
  0
LINE
  5
B3D4
330
1F
100
AcDbEntity
  8
freecads.com
 48
5.0
100
AcDbLine
 10
10757.48994508669
 20
29834.37953079127
 30
0.0
 11
10757.49363584989
 21
29834.38198958222
 31
0.0
  0
LINE
  5
B3D5
330
1F
100
AcDbEntity
  8
freecads.com
 48
5.0
100
AcDbLine
 10
10757.47087614349
 20
29834.35924578178
 30
0.0
 11
10757.48994508669
 21
29834.37953079127
 31
0.0
  0
LINE
  5
B3D6
330
1F
100
AcDbEntity
  8
freecads.com
 48
5.0
100
AcDbLine
 10
10757.45857359948
 20
29834.33834607773
 30
0.0
 11
10757.47087614349
 21
29834.35924578178
 31
0.0
  0
LINE
  5
B3D7
330
1F
100
AcDbEntity
  8
freecads.com
 48
5.0
100
AcDbLine
 10
10757.44811643708
 20
29834.31498759537
 30
0.0
 11
10757.45857359948
 21
29834.33834607773
 31
0.0
  0
LINE
  5
B3D8
330
1F
100
AcDbEntity
  8
freecads.com
 48
5.0
100
AcDbLine
 10
10757.44504080108
 20
29834.28240864381
 30
0.0
 11
10757.44811643708
 21
29834.31498759537
 31
0.0
  0
LINE
  5
B3D9
330
1F
100
AcDbEntity
  8
freecads.com
 48
5.0
100
AcDbLine
 10
10757.45119207309
 20
29834.24921498502
 30
0.0
 11
10757.44504080108
 21
29834.28240864381
 31
0.0
  0
LINE
  5
B3DA
330
1F
100
AcDbEntity
  8
freecads.com
 48
5.0
100
AcDbLine
 10
10757.45611309069
 20
29834.22892998819
 30
0.0
 11
10757.45119207309
 21
29834.24921498502
 31
0.0
  0
LINE
  5
B3DB
330
1F
100
AcDbEntity
  8
freecads.com
 48
5.0
100
AcDbLine
 10
10757.47149127069
 20
29834.21540664431
 30
0.0
 11
10757.45611309069
 21
29834.22892998819
 31
0.0
  0
LINE
  5
B3DC
330
1F
100
AcDbEntity
  8
freecads.com
 48
5.0
100
AcDbLine
 10
10757.48440894189
 20
29834.20618618776
 30
0.0
 11
10757.47149127069
 21
29834.21540664431
 31
0.0
  0
LINE
  5
B3DD
330
1F
100
AcDbEntity
  8
freecads.com
 48
5.0
100
AcDbLine
 10
10757.48256356029
 20
29834.1957363294
 30
0.0
 11
10757.48440894189
 21
29834.20618618776
 31
0.0
  0
LINE
  5
B3DE
330
1F
100
AcDbEntity
  8
freecads.com
 48
5.0
100
AcDbLine
 10
10757.47395177949
 20
29834.1852864837
 30
0.0
 11
10757.48256356029
 21
29834.1957363294
 31
0.0
  0
LINE
  5
B3DF
330
1F
100
AcDbEntity
  8
freecads.com
 48
5.0
100
AcDbLine
 10
10757.46041898109
 20
29834.1852864837
 30
0.0
 11
10757.47395177949
 21
29834.1852864837
 31
0.0
  0
LINE
  5
B3E0
330
1F
100
AcDbEntity
  8
freecads.com
 48
5.0
100
AcDbLine
 10
10757.45119207309
 20
29834.18282769276
 30
0.0
 11
10757.46041898109
 21
29834.1852864837
 31
0.0
  0
LINE
  5
B3E1
330
1F
100
AcDbEntity
  8
freecads.com
 48
5.0
100
AcDbLine
 10
10757.44934669148
 20
29834.18098360904
 30
0.0
 11
10757.45119207309
 21
29834.18282769276
 31
0.0
  0
LINE
  5
B3E2
330
1F
100
AcDbEntity
  8
freecads.com
 48
5.0
100
AcDbLine
 10
10757.45057694588
 20
29834.16131329412
 30
0.0
 11
10757.44934669148
 21
29834.18098360904
 31
0.0
  0
LINE
  5
B3E3
330
1F
100
AcDbEntity
  8
freecads.com
 48
5.0
100
AcDbLine
 10
10757.44196516508
 20
29834.15393692128
 30
0.0
 11
10757.45057694588
 21
29834.16131329412
 31
0.0
  0
LINE
  5
B3E4
330
1F
100
AcDbEntity
  8
freecads.com
 48
5.0
100
AcDbLine
 10
10757.43888952908
 20
29834.15393692128
 30
0.0
 11
10757.44196516508
 21
29834.15393692128
 31
0.0
  0
LINE
  5
B3E5
330
1F
100
AcDbEntity
  8
freecads.com
 48
5.0
100
AcDbLine
 10
10757.42982226684
 20
29834.14645224047
 30
0.0
 11
10757.43888952908
 21
29834.15393692128
 31
0.0
  0
LINE
  5
B3E6
330
1F
100
AcDbEntity
  8
freecads.com
 48
5.0
100
AcDbLine
 10
10757.41305418668
 20
29834.33773138315
 30
0.0
 11
10757.40936342348
 21
29834.31007001347
 31
0.0
  0
LINE
  5
B3E7
330
1F
100
AcDbEntity
  8
freecads.com
 48
5.0
100
AcDbLine
 10
10757.43335338428
 20
29834.36600746005
 30
0.0
 11
10757.41305418668
 21
29834.33773138315
 31
0.0
  0
LINE
  5
B3E8
330
1F
100
AcDbEntity
  8
freecads.com
 48
5.0
100
AcDbLine
 10
10757.45795847229
 20
29834.39612762066
 30
0.0
 11
10757.43335338428
 21
29834.36600746005
 31
0.0
  0
LINE
  5
B3E9
330
1F
100
AcDbEntity
  8
freecads.com
 48
5.0
100
AcDbLine
 10
10757.48256356029
 20
29834.40473338265
 30
0.0
 11
10757.45795847229
 21
29834.39612762066
 31
0.0
  0
LINE
  5
B3EA
330
1F
100
AcDbEntity
  8
freecads.com
 48
5.0
100
AcDbLine
 10
10757.48686945069
 20
29834.40473338265
 30
0.0
 11
10757.48256356029
 21
29834.40473338265
 31
0.0
  0
LINE
  5
B3EB
330
1F
100
AcDbEntity
  8
freecads.com
 48
5.0
100
AcDbLine
 10
10757.49609635869
 20
29834.39981580076
 30
0.0
 11
10757.48686945069
 21
29834.40473338265
 31
0.0
  0
LINE
  5
B3EC
330
1F
100
AcDbEntity
  8
freecads.com
 48
5.0
100
AcDbLine
 10
10757.49732661309
 20
29834.38198958222
 30
0.0
 11
10757.49609635869
 21
29834.39981580076
 31
0.0
  0
LINE
  5
B3ED
330
1F
100
AcDbEntity
  8
freecads.com
 48
5.0
100
AcDbLine
 10
10757.55514854906
 20
29834.2086449787
 30
0.0
 11
10757.54161575065
 21
29834.20065391129
 31
0.0
  0
LINE
  5
B3EE
330
1F
100
AcDbEntity
  8
freecads.com
 48
5.0
100
AcDbLine
 10
10757.55945443946
 20
29834.21909482439
 30
0.0
 11
10757.55514854906
 21
29834.2086449787
 31
0.0
  0
LINE
  5
B3EF
330
1F
100
AcDbEntity
  8
freecads.com
 48
5.0
100
AcDbLine
 10
10757.56499058426
 20
29834.22216830992
 30
0.0
 11
10757.55945443946
 21
29834.21909482439
 31
0.0
  0
LINE
  5
B3F0
330
1F
100
AcDbEntity
  8
freecads.com
 48
5.0
100
AcDbLine
 10
10757.56806622026
 20
29834.21786543525
 30
0.0
 11
10757.56499058426
 21
29834.22216830992
 31
0.0
  0
LINE
  5
B3F1
330
1F
100
AcDbEntity
  8
freecads.com
 48
5.0
100
AcDbLine
 10
10757.57114185626
 20
29834.22831528096
 30
0.0
 11
10757.56806622026
 21
29834.21786543525
 31
0.0
  0
LINE
  5
B3F2
330
1F
100
AcDbEntity
  8
freecads.com
 48
5.0
100
AcDbLine
 10
10757.56437545706
 20
29834.23138876648
 30
0.0
 11
10757.57114185626
 21
29834.22831528096
 31
0.0
  0
LINE
  5
B3F3
330
1F
100
AcDbEntity
  8
freecads.com
 48
5.0
100
AcDbLine
 10
10757.56068469386
 20
29834.23999452846
 30
0.0
 11
10757.56437545706
 21
29834.23138876648
 31
0.0
  0
LINE
  5
B3F4
330
1F
100
AcDbEntity
  8
freecads.com
 48
5.0
100
AcDbLine
 10
10757.56437545706
 20
29834.25105908139
 30
0.0
 11
10757.56068469386
 21
29834.23999452846
 31
0.0
  0
LINE
  5
B3F5
330
1F
100
AcDbEntity
  8
freecads.com
 48
5.0
100
AcDbLine
 10
10757.57360236506
 20
29834.25536195605
 30
0.0
 11
10757.56437545706
 21
29834.25105908139
 31
0.0
  0
LINE
  5
B3F6
330
1F
100
AcDbEntity
  8
freecads.com
 48
5.0
100
AcDbLine
 10
10757.57667800106
 20
29834.27564696554
 30
0.0
 11
10757.57360236506
 21
29834.25536195605
 31
0.0
  0
LINE
  5
B3F7
330
1F
100
AcDbEntity
  8
freecads.com
 48
5.0
100
AcDbLine
 10
10757.58159901866
 20
29834.28302333838
 30
0.0
 11
10757.57667800106
 21
29834.27564696554
 31
0.0
  0
LINE
  5
B3F8
330
1F
100
AcDbEntity
  8
freecads.com
 48
5.0
100
AcDbLine
 10
10757.58159901866
 20
29834.29224379494
 30
0.0
 11
10757.58159901866
 21
29834.28302333838
 31
0.0
  0
LINE
  5
B3F9
330
1F
100
AcDbEntity
  8
freecads.com
 48
5.0
100
AcDbLine
 10
10757.58098389146
 20
29834.29716137683
 30
0.0
 11
10757.58159901866
 21
29834.29224379494
 31
0.0
  0
LINE
  5
B3FA
330
1F
100
AcDbEntity
  8
freecads.com
 48
5.0
100
AcDbLine
 10
10757.57913850986
 20
29834.31437288814
 30
0.0
 11
10757.58098389146
 21
29834.29716137683
 31
0.0
  0
LINE
  5
B3FB
330
1F
100
AcDbEntity
  8
freecads.com
 48
5.0
100
AcDbLine
 10
10757.57544774666
 20
29834.33158441212
 30
0.0
 11
10757.57913850986
 21
29834.31437288814
 31
0.0
  0
LINE
  5
B3FC
330
1F
100
AcDbEntity
  8
freecads.com
 48
5.0
100
AcDbLine
 10
10757.56683596586
 20
29834.34449304876
 30
0.0
 11
10757.57544774666
 21
29834.33158441212
 31
0.0
  0
LINE
  5
B3FD
330
1F
100
AcDbEntity
  8
freecads.com
 48
5.0
100
AcDbLine
 10
10757.56991160186
 20
29834.3586310872
 30
0.0
 11
10757.56683596586
 21
29834.34449304876
 31
0.0
  0
LINE
  5
B3FE
330
1F
100
AcDbEntity
  8
freecads.com
 48
5.0
100
AcDbLine
 10
10757.56745109306
 20
29834.36785154376
 30
0.0
 11
10757.56991160186
 21
29834.3586310872
 31
0.0
  0
LINE
  5
B3FF
330
1F
100
AcDbEntity
  8
freecads.com
 48
5.0
100
AcDbLine
 10
10757.55022753146
 20
29834.36293397453
 30
0.0
 11
10757.56745109306
 21
29834.36785154376
 31
0.0
  0
LINE
  5
B400
330
1F
100
AcDbEntity
  8
freecads.com
 48
5.0
100
AcDbLine
 10
10757.53115858825
 20
29834.37215443109
 30
0.0
 11
10757.55022753146
 21
29834.36293397453
 31
0.0
  0
LINE
  5
B401
330
1F
100
AcDbEntity
  8
freecads.com
 48
5.0
100
AcDbLine
 10
10757.51516528105
 20
29834.37461322203
 30
0.0
 11
10757.53115858825
 21
29834.37215443109
 31
0.0
  0
LINE
  5
B402
330
1F
100
AcDbEntity
  8
freecads.com
 48
5.0
100
AcDbLine
 10
10757.5053232667
 20
29834.38813655325
 30
0.0
 11
10757.51516528105
 21
29834.37461322203
 31
0.0
  0
LINE
  5
B403
330
1F
100
AcDbEntity
  8
freecads.com
 48
5.0
100
AcDbLine
 10
10757.49425097709
 20
29834.40411867542
 30
0.0
 11
10757.5053232667
 21
29834.38813655325
 31
0.0
  0
LINE
  5
B404
330
1F
100
AcDbEntity
  8
freecads.com
 48
5.0
100
AcDbLine
 10
10757.49486610429
 20
29834.41088035368
 30
0.0
 11
10757.49425097709
 21
29834.40411867542
 31
0.0
  0
LINE
  5
B405
330
1F
100
AcDbEntity
  8
freecads.com
 48
5.0
100
AcDbLine
 10
10757.5004022491
 20
29834.4127244374
 30
0.0
 11
10757.49486610429
 21
29834.41088035368
 31
0.0
  0
LINE
  5
B406
330
1F
100
AcDbEntity
  8
freecads.com
 48
5.0
100
AcDbLine
 10
10757.52254680745
 20
29834.41026564646
 30
0.0
 11
10757.5004022491
 21
29834.4127244374
 31
0.0
  0
LINE
  5
B407
330
1F
100
AcDbEntity
  8
freecads.com
 48
5.0
100
AcDbLine
 10
10757.54899727705
 20
29834.40411867542
 30
0.0
 11
10757.52254680745
 21
29834.41026564646
 31
0.0
  0
LINE
  5
B408
330
1F
100
AcDbEntity
  8
freecads.com
 48
5.0
100
AcDbLine
 10
10757.56622083866
 20
29834.39366882971
 30
0.0
 11
10757.54899727705
 21
29834.40411867542
 31
0.0
  0
LINE
  5
B409
330
1F
100
AcDbEntity
  8
freecads.com
 48
5.0
100
AcDbLine
 10
10757.57975363706
 20
29834.37830140212
 30
0.0
 11
10757.56622083866
 21
29834.39366882971
 31
0.0
  0
LINE
  5
B40A
330
1F
100
AcDbEntity
  8
freecads.com
 48
5.0
100
AcDbLine
 10
10757.59636207147
 20
29834.35740169806
 30
0.0
 11
10757.57975363706
 21
29834.37830140212
 31
0.0
  0
LINE
  5
B40B
330
1F
100
AcDbEntity
  8
freecads.com
 48
5.0
100
AcDbLine
 10
10757.60066796187
 20
29834.34203427047
 30
0.0
 11
10757.59636207147
 21
29834.35740169806
 31
0.0
  0
LINE
  5
B40C
330
1F
100
AcDbEntity
  8
freecads.com
 48
5.0
100
AcDbLine
 10
10757.60374359787
 20
29834.32420805193
 30
0.0
 11
10757.60066796187
 21
29834.34203427047
 31
0.0
  0
LINE
  5
B40D
330
1F
100
AcDbEntity
  8
freecads.com
 48
5.0
100
AcDbLine
 10
10757.60251334347
 20
29834.30392304244
 30
0.0
 11
10757.60374359787
 21
29834.32420805193
 31
0.0
  0
ENDSEC
  0
SECTION
  2
OBJECTS
  0
DICTIONARY
  5
C
330
0
100
AcDbDictionary
281
     1
  3
ACAD_CIP_PREVIOUS_PRODUCT_INFO
350
1A5
  3
ACAD_COLOR
350
73
  3
ACAD_DETAILVIEWSTYLE
350
1AB
  3
ACAD_GROUP
350
D
  3
ACAD_LAYOUT
350
1A
  3
ACAD_MATERIAL
350
72
  3
ACAD_MLEADERSTYLE
350
D7
  3
ACAD_MLINESTYLE
350
17
  3
ACAD_PLOTSETTINGS
350
19
  3
ACAD_PLOTSTYLENAME
350
E
  3
ACAD_SCALELIST
350
B6
  3
ACAD_SECTIONVIEWSTYLE
350
1A8
  3
ACAD_TABLESTYLE
350
86
  3
ACAD_VISUALSTYLE
350
99
  3
ACDB_RECOMPOSE_DATA
350
B465
  3
AcDbVariableDictionary
350
66
  3
AEC_PROPERTY_SET_DEFS
350
268B
  0
DICTIONARY
  5
18E
330
2
100
AcDbDictionary
280
     1
281
     1
  3
ACAD_LAYERSTATES
360
18F
  0
DICTIONARY
  5
E6
330
10
100
AcDbDictionary
280
     1
281
     1
  0
DICTIONARY
  5
15D
330
1F
100
AcDbDictionary
280
     1
281
     1
  3
ACAD_SORTENTS
360
28E
  0
XRECORD
  5
1A5
102
{ACAD_REACTORS
330
C
102
}
330
C
100
AcDbXrecord
280
     1
300
ACD
300
2022
300

  0
DICTIONARY
  5
73
102
{ACAD_REACTORS
330
C
102
}
330
C
100
AcDbDictionary
281
     1
  0
DICTIONARY
  5
1AB
102
{ACAD_REACTORS
330
C
102
}
330
C
100
AcDbDictionary
281
     1
  3
Imperial24
350
1AC
  3
Metric50
350
224
  0
DICTIONARY
  5
D
102
{ACAD_REACTORS
330
C
102
}
330
C
100
AcDbDictionary
281
     1
  0
DICTIONARY
  5
1A
102
{ACAD_REACTORS
330
C
102
}
330
C
100
AcDbDictionary
281
     1
  3
Layout1
350
59
  3
Layout2
350
5E
  3
Model
350
22
  0
DICTIONARY
  5
72
102
{ACAD_REACTORS
330
C
102
}
330
C
100
AcDbDictionary
281
     1
  3
ByBlock
350
97
  3
ByLayer
350
96
  3
Global
350
98
  0
DICTIONARY
  5
D7
102
{ACAD_REACTORS
330
C
102
}
330
C
100
AcDbDictionary
281
     1
  3
Standard
350
D8
  0
DICTIONARY
  5
17
102
{ACAD_REACTORS
330
C
102
}
330
C
100
AcDbDictionary
281
     1
  3
Standard
350
18
  0
DICTIONARY
  5
19
102
{ACAD_REACTORS
330
C
102
}
330
C
100
AcDbDictionary
281
     1
  0
ACDBDICTIONARYWDFLT
  5
E
102
{ACAD_REACTORS
330
C
102
}
330
C
100
AcDbDictionary
281
     1
  3
Normal
350
F
100
AcDbDictionaryWithDefault
340
F
  0
DICTIONARY
  5
B6
102
{ACAD_REACTORS
330
C
102
}
330
C
100
AcDbDictionary
281
     1
  3
*A1
350
47D1
  3
*A2
350
8BD6
  3
A0
350
B7
  3
A1
350
124
  3
A2
350
125
  3
A3
350
126
  3
A4
350
127
  3
A5
350
128
  3
A6
350
129
  3
A7
350
12A
  3
A8
350
12B
  3
A9
350
12C
  3
B0
350
12D
  3
B1
350
12E
  3
B2
350
12F
  3
B3
350
130
  3
B4
350
131
  3
B5
350
132
  3
B6
350
133
  3
B7
350
134
  3
B8
350
135
  3
B9
350
136
  3
C0
350
137
  3
C1
350
138
  3
C2
350
139
  3
C3
350
13A
  3
C4
350
13B
  3
C5
350
13C
  3
C6
350
13D
  3
C7
350
13E
  3
C8
350
13F
  3
C9
350
140
  3
D0
350
141
  3
D1
350
142
  3
D2
350
143
  0
DICTIONARY
  5
1A8
102
{ACAD_REACTORS
330
C
102
}
330
C
100
AcDbDictionary
281
     1
  3
Imperial24
350
1AA
  3
Metric50
350
223
  0
DICTIONARY
  5
86
102
{ACAD_REACTORS
330
C
102
}
330
C
100
AcDbDictionary
281
     1
  3
Standard
350
87
  0
DICTIONARY
  5
99
102
{ACAD_REACTORS
330
C
102
}
330
C
100
AcDbDictionary
281
     1
  3
2dWireframe
350
9F
  3
3dWireframe
350
2684
  3
Basic
350
9E
  3
Brighten
350
A5
  3
ColorChange
350
A9
  3
Conceptual
350
A2
  3
Dim
350
A4
  3
EdgeColorOff
350
175
  3
Facepattern
350
A8
  3
Flat
350
9A
  3
FlatWithEdges
350
9B
  3
Gouraud
350
9C
  3
GouraudWithEdges
350
9D
  3
Hidden
350
A1
  3
JitterOff
350
173
  3
Linepattern
350
A7
  3
OverhangOff
350
174
  3
Realistic
350
A3
  3
Shaded
350
182
  3
Shaded with edges
350
181
  3
Shades of Gray
350
17E
  3
Sketchy
350
17F
  3
Thicken
350
A6
  3
Wireframe
350
A0
  3
X-Ray
350
180
  0
XRECORD
  5
B465
102
{ACAD_REACTORS
330
C
102
}
330
C
100
AcDbXrecord
280
     1
 90
        1
330
87
  0
DICTIONARY
  5
66
102
{ACAD_REACTORS
330
C
102
}
330
C
100
AcDbDictionary
281
     1
  3
CANNOSCALE
350
F0
  3
CMLEADERSTYLE
350
EF
  3
CTABLESTYLE
350
89
  3
CVIEWDETAILSTYLE
350
1B7
  3
CVIEWSECTIONSTYLE
350
1B8
  3
DIMASSOC
350
67
  3
HIDETEXT
350
6B
  3
LAYEREVAL
350
14D
  3
LAYERNOTIFY
350
14E
  0
DICTIONARY
  5
268B
102
{ACAD_REACTORS
330
C
102
}
330
C
100
AcDbDictionary
281
     1
  0
DICTIONARY
  5
18F
102
{ACAD_REACTORS
330
18E
102
}
330
18E
100
AcDbDictionary
281
     1
  0
SORTENTSTABLE
  5
28E
102
{ACAD_REACTORS
330
15D
102
}
330
15D
100
AcDbSortentsTable
330
1F
  0
ACDBDETAILVIEWSTYLE
  5
1AC
102
{ACAD_REACTORS
330
1AB
102
}
330
1AB
100
AcDbModelDocViewStyle
 70
     0
  3
Imperial24
290
     0
300
Imperial24
 90
        0
100
AcDbDetailViewStyle
 70
     0
 71
     0
 90
        3
 71
     1
340
11
 62
   256
 40
0.24
340
0
 62
   256
 40
0.24
300

 40
0.36
280
     3
 71
     2
340
16
 90
       25
 62
   256
 71
     3
340
11
 62
   256
 40
0.24
 90
        1
 40
0.75
 90
        1
300
%<\AcVar ViewType \f "%tc1">% %<\AcVar ViewDetailId>%\PSCALE %<\AcVar ViewScale \f "%sn">%
 71
     4
340
16
 90
       25
 62
   256
340
16
 90
       25
 62
   256
280
     0
  0
ACDBDETAILVIEWSTYLE
  5
224
102
{ACAD_REACTORS
330
1AB
102
}
330
1AB
100
AcDbModelDocViewStyle
 70
     0
  3
Metric50
290
     0
300
Metric50
 90
        0
100
AcDbDetailViewStyle
 70
     0
 71
     0
 90
        3
 71
     1
340
11
 62
   256
 40
5.0
340
0
 62
   256
 40
5.0
300

 40
0.0
280
     1
 71
     2
340
16
 90
       25
 62
   256
 71
     3
340
11
 62
   256
 40
5.0
 90
        0
 40
15.0
 90
        1
300
%<\AcVar ViewDetailId>% (%<\AcVar ViewScale \f "%sn">%)
 71
     4
340
16
 90
       25
 62
   256
340
16
 90
       25
 62
   256
280
     0
  0
LAYOUT
  5
59
102
{ACAD_REACTORS
330
1A
102
}
330
1A
100
AcDbPlotSettings
  1

  2
None
  4

  6

 40
0.0
 41
0.0
 42
0.0
 43
0.0
 44
0.0
 45
0.0
 46
0.0
 47
0.0
 48
0.0
 49
0.0
140
0.0
141
0.0
142
1.0
143
1.0
 70
   688
 72
     0
 73
     0
 74
     5
  7

 75
    16
147
1.0
 76
     0
 77
     2
 78
   300
148
0.0
149
0.0
100
AcDbLayout
  1
Layout1
 70
     1
 71
     1
 10
0.0
 20
0.0
 11
12.0
 21
9.0
 12
0.0
 22
0.0
 32
0.0
 14
0.0
 24
0.0
 34
0.0
 15
0.0
 25
0.0
 35
0.0
146
0.0
 13
0.0
 23
0.0
 33
0.0
 16
1.0
 26
0.0
 36
0.0
 17
0.0
 27
1.0
 37
0.0
 76
     0
330
58
  0
LAYOUT
  5
5E
102
{ACAD_REACTORS
330
1A
102
}
330
1A
100
AcDbPlotSettings
  1

  2
None
  4

  6

 40
0.0
 41
0.0
 42
0.0
 43
0.0
 44
0.0
 45
0.0
 46
0.0
 47
0.0
 48
0.0
 49
0.0
140
0.0
141
0.0
142
1.0
143
1.0
 70
   688
 72
     0
 73
     0
 74
     5
  7

 75
    16
147
1.0
 76
     0
 77
     2
 78
   300
148
0.0
149
0.0
100
AcDbLayout
  1
Layout2
 70
     1
 71
     2
 10
0.0
 20
0.0
 11
12.0
 21
9.0
 12
0.0
 22
0.0
 32
0.0
 14
0.0
 24
0.0
 34
0.0
 15
0.0
 25
0.0
 35
0.0
146
0.0
 13
0.0
 23
0.0
 33
0.0
 16
1.0
 26
0.0
 36
0.0
 17
0.0
 27
1.0
 37
0.0
 76
     0
330
5D
  0
LAYOUT
  5
22
102
{ACAD_XDICTIONARY
360
194
102
}
102
{ACAD_REACTORS
330
1A
102
}
330
1A
100
AcDbPlotSettings
  1

  2
none_device
  4
ANSI_A_(8.50_x_11.00_Inches)
  6

 40
6.349999904632568
 41
19.04999923706055
 42
6.350006103515625
 43
19.04998779296875
 44
215.8999938964844
 45
279.3999938964844
 46
0.0
 47
0.0
 48
0.0
 49
0.0
140
0.0
141
0.0
142
1.0
143
2.584895464708373
 70
 11952
 72
     0
 73
     1
 74
     0
  7

 75
     0
147
0.3868628397755418
 76
     0
 77
     2
 78
   300
148
0.0
149
0.0
100
AcDbLayout
  1
Model
 70
     1
 71
     0
 10
0.0
 20
0.0
 11
12.0
 21
9.0
 12
0.0
 22
0.0
 32
0.0
 14
0.0
 24
0.0
 34
0.0
 15
0.0
 25
0.0
 35
0.0
146
0.0
 13
0.0
 23
0.0
 33
0.0
 16
1.0
 26
0.0
 36
0.0
 17
0.0
 27
1.0
 37
0.0
 76
     0
330
1F
331
94
  0
MATERIAL
  5
97
102
{ACAD_XDICTIONARY
360
188
102
}
102
{ACAD_REACTORS
330
72
102
}
330
72
100
AcDbMaterial
  1
ByBlock
 94
       63
  0
MATERIAL
  5
96
102
{ACAD_XDICTIONARY
360
186
102
}
102
{ACAD_REACTORS
330
72
102
}
330
72
100
AcDbMaterial
  1
ByLayer
 94
       63
  0
MATERIAL
  5
98
102
{ACAD_XDICTIONARY
360
110
102
}
102
{ACAD_REACTORS
330
72
102
}
330
72
100
AcDbMaterial
  1
Global
 43
0.0208000000566244
 43
0.0
 43
0.0
 43
0.0
 43
0.0
 43
0.0208000000566244
 43
0.0
 43
0.0
 43
0.0
 43
0.0
 43
1.0
 43
0.0
 43
0.0
 43
0.0
 43
0.0
 43
1.0
 49
0.0208000000566244
 49
0.0
 49
0.0
 49
0.0
 49
0.0
 49
0.0208000000566244
 49
0.0
 49
0.0
 49
0.0
 49
0.0
 49
1.0
 49
0.0
 49
0.0
 49
0.0
 49
0.0
 49
1.0
142
0.0208000000566244
142
0.0
142
0.0
142
0.0
142
0.0
142
0.0208000000566244
142
0.0
142
0.0
142
0.0
142
0.0
142
1.0
142
0.0
142
0.0
142
0.0
142
0.0
142
1.0
144
0.0208000000566244
144
0.0
144
0.0
144
0.0
144
0.0
144
0.0208000000566244
144
0.0
144
0.0
144
0.0
144
0.0
144
1.0
144
0.0
144
0.0
144
0.0
144
0.0
144
1.0
 94
       63
1001
ACAD
1070
    -1
1070
     3
1070
     0
1000

1071
        0
1070
     0
  0
MLEADERSTYLE
  5
D8
102
{ACAD_REACTORS
330
D7
102
}
330
D7
100
AcDbMLeaderStyle
179
     2
170
     2
171
     1
172
     0
 90
        2
 40
0.0
 41
0.0
173
     1
 91
-1056964608
340
14
 92
       -2
290
     1
 42
0.09
291
     1
 43
0.36
  3
Standard
 44
0.18
300

342
11
174
     1
178
     1
175
     1
176
     0
 93
-1056964608
 45
0.18
292
     0
297
     0
 46
0.18
 94
-1056964608
 47
1.0
 49
1.0
140
1.0
293
     1
141
0.0
294
     1
177
     0
142
1.0
295
     0
296
     0
143
0.125
271
     0
272
     9
273
     9
298
     0
  0
MLINESTYLE
  5
18
102
{ACAD_REACTORS
330
17
102
}
330
17
100
AcDbMlineStyle
  2
STANDARD
 70
     0
  3

 62
   256
 51
90.0
 52
90.0
 71
     2
 49
0.5
 62
   256
  6
BYLAYER
 49
-0.5
 62
   256
  6
BYLAYER
  0
ACDBPLACEHOLDER
  5
F
102
{ACAD_REACTORS
330
E
102
}
330
E
  0
SCALE
  5
47D1
102
{ACAD_REACTORS
330
B6
102
}
330
B6
100
AcDbScale
 70
     0
300
1:100_1_XREF_XREF_XREF_XREF
140
1.0
141
0.1
290
     0
  0
SCALE
  5
8BD6
102
{ACAD_REACTORS
330
B6
102
}
330
B6
100
AcDbScale
 70
     0
300
1:100_1_XREF_XREF_XREF_XREF_XREF_XREF_XREF_XREF_XREF
140
1.0
141
0.1
290
     0
1001
ACAD
1000
AcRTDxfName
1000
SCALE
1000
AcRTDxfName
1000
SCALE
1000
AcRTDxfName
1000
SCALE
1000
AcRTDxfName
1000
SCALE
  0
SCALE
  5
B7
102
{ACAD_REACTORS
330
B6
102
}
330
B6
100
AcDbScale
 70
     0
300
1:1
140
1.0
141
1.0
290
     1
  0
SCALE
  5
124
102
{ACAD_REACTORS
330
B6
102
}
330
B6
100
AcDbScale
 70
     0
300
1:2
140
1.0
141
2.0
290
     0
  0
SCALE
  5
125
102
{ACAD_REACTORS
330
B6
102
}
330
B6
100
AcDbScale
 70
     0
300
1:4
140
1.0
141
4.0
290
     0
  0
SCALE
  5
126
102
{ACAD_REACTORS
330
B6
102
}
330
B6
100
AcDbScale
 70
     0
300
1:5
140
1.0
141
5.0
290
     0
  0
SCALE
  5
127
102
{ACAD_REACTORS
330
B6
102
}
330
B6
100
AcDbScale
 70
     0
300
1:8
140
1.0
141
8.0
290
     0
  0
SCALE
  5
128
102
{ACAD_REACTORS
330
B6
102
}
330
B6
100
AcDbScale
 70
     0
300
1:10
140
1.0
141
10.0
290
     0
  0
SCALE
  5
129
102
{ACAD_REACTORS
330
B6
102
}
330
B6
100
AcDbScale
 70
     0
300
1:16
140
1.0
141
16.0
290
     0
  0
SCALE
  5
12A
102
{ACAD_REACTORS
330
B6
102
}
330
B6
100
AcDbScale
 70
     0
300
1:20
140
1.0
141
20.0
290
     0
  0
SCALE
  5
12B
102
{ACAD_REACTORS
330
B6
102
}
330
B6
100
AcDbScale
 70
     0
300
1:30
140
1.0
141
30.0
290
     0
  0
SCALE
  5
12C
102
{ACAD_REACTORS
330
B6
102
}
330
B6
100
AcDbScale
 70
     0
300
1:40
140
1.0
141
40.0
290
     0
  0
SCALE
  5
12D
102
{ACAD_REACTORS
330
B6
102
}
330
B6
100
AcDbScale
 70
     0
300
1:50
140
1.0
141
50.0
290
     0
  0
SCALE
  5
12E
102
{ACAD_REACTORS
330
B6
102
}
330
B6
100
AcDbScale
 70
     0
300
1:100
140
1.0
141
100.0
290
     0
  0
SCALE
  5
12F
102
{ACAD_REACTORS
330
B6
102
}
330
B6
100
AcDbScale
 70
     0
300
2:1
140
2.0
141
1.0
290
     0
  0
SCALE
  5
130
102
{ACAD_REACTORS
330
B6
102
}
330
B6
100
AcDbScale
 70
     0
300
4:1
140
4.0
141
1.0
290
     0
  0
SCALE
  5
131
102
{ACAD_REACTORS
330
B6
102
}
330
B6
100
AcDbScale
 70
     0
300
8:1
140
8.0
141
1.0
290
     0
  0
SCALE
  5
132
102
{ACAD_REACTORS
330
B6
102
}
330
B6
100
AcDbScale
 70
     0
300
10:1
140
10.0
141
1.0
290
     0
  0
SCALE
  5
133
102
{ACAD_REACTORS
330
B6
102
}
330
B6
100
AcDbScale
 70
     0
300
100:1
140
100.0
141
1.0
290
     0
  0
SCALE
  5
134
102
{ACAD_REACTORS
330
B6
102
}
330
B6
100
AcDbScale
 70
     0
300
1/128" = 1'-0"
140
0.0078125
141
12.0
290
     0
  0
SCALE
  5
135
102
{ACAD_REACTORS
330
B6
102
}
330
B6
100
AcDbScale
 70
     0
300
1/64" = 1'-0"
140
0.015625
141
12.0
290
     0
  0
SCALE
  5
136
102
{ACAD_REACTORS
330
B6
102
}
330
B6
100
AcDbScale
 70
     0
300
1/32" = 1'-0"
140
0.03125
141
12.0
290
     0
  0
SCALE
  5
137
102
{ACAD_REACTORS
330
B6
102
}
330
B6
100
AcDbScale
 70
     0
300
1/16" = 1'-0"
140
0.0625
141
12.0
290
     0
  0
SCALE
  5
138
102
{ACAD_REACTORS
330
B6
102
}
330
B6
100
AcDbScale
 70
     0
300
3/32" = 1'-0"
140
0.09375
141
12.0
290
     0
  0
SCALE
  5
139
102
{ACAD_REACTORS
330
B6
102
}
330
B6
100
AcDbScale
 70
     0
300
1/8" = 1'-0"
140
0.125
141
12.0
290
     0
  0
SCALE
  5
13A
102
{ACAD_REACTORS
330
B6
102
}
330
B6
100
AcDbScale
 70
     0
300
3/16" = 1'-0"
140
0.1875
141
12.0
290
     0
  0
SCALE
  5
13B
102
{ACAD_REACTORS
330
B6
102
}
330
B6
100
AcDbScale
 70
     0
300
1/4" = 1'-0"
140
0.25
141
12.0
290
     0
  0
SCALE
  5
13C
102
{ACAD_REACTORS
330
B6
102
}
330
B6
100
AcDbScale
 70
     0
300
3/8" = 1'-0"
140
0.375
141
12.0
290
     0
  0
SCALE
  5
13D
102
{ACAD_REACTORS
330
B6
102
}
330
B6
100
AcDbScale
 70
     0
300
1/2" = 1'-0"
140
0.5
141
12.0
290
     0
  0
SCALE
  5
13E
102
{ACAD_REACTORS
330
B6
102
}
330
B6
100
AcDbScale
 70
     0
300
3/4" = 1'-0"
140
0.75
141
12.0
290
     0
  0
SCALE
  5
13F
102
{ACAD_REACTORS
330
B6
102
}
330
B6
100
AcDbScale
 70
     0
300
1" = 1'-0"
140
1.0
141
12.0
290
     0
  0
SCALE
  5
140
102
{ACAD_REACTORS
330
B6
102
}
330
B6
100
AcDbScale
 70
     0
300
1-1/2" = 1'-0"
140
1.5
141
12.0
290
     0
  0
SCALE
  5
141
102
{ACAD_REACTORS
330
B6
102
}
330
B6
100
AcDbScale
 70
     0
300
3" = 1'-0"
140
3.0
141
12.0
290
     0
  0
SCALE
  5
142
102
{ACAD_REACTORS
330
B6
102
}
330
B6
100
AcDbScale
 70
     0
300
6" = 1'-0"
140
6.0
141
12.0
290
     0
  0
SCALE
  5
143
102
{ACAD_REACTORS
330
B6
102
}
330
B6
100
AcDbScale
 70
     0
300
1'-0" = 1'-0"
140
12.0
141
12.0
290
     0
  0
ACDBSECTIONVIEWSTYLE
  5
1AA
102
{ACAD_REACTORS
330
1A8
102
}
330
1A8
100
AcDbModelDocViewStyle
 70
     0
  3
Imperial24
290
     0
300
Imperial24
 90
        0
100
AcDbSectionViewStyle
 70
     0
 71
     0
 90
       78
 71
     1
340
11
 62
   256
 40
0.24
340
0
340
0
 62
   256
 40
0.24
300
I, O, Q, S, X, Z
 40
0.48
 90
        3
 40
0.18
 90
        1
 71
     2
340
16
 90
       25
 62
   256
340
16
 90
       50
 62
   256
 40
0.24
 40
0.0
 40
0.24
 71
     3
340
11
 62
   256
 40
0.24
 90
        1
 40
0.75
 90
        1
300
%<\AcVar ViewType \f "%tc1">% %<\AcVar ViewSectionStartId>%-%<\AcVar ViewSectionEndId>%\PSCALE %<\AcVar ViewScale \f "%sn">%
 71
     4
 62
   256
 62
   257
300
ANSI31
 40
1.0
 90
        0
290
     0
290
     0
 90
        6
 40
0.0
 40
1.570796326794896
 40
0.2617993877991494
 40
1.308996938995747
 40
-0.2617993877991494
 40
1.832595714594046
  0
ACDBSECTIONVIEWSTYLE
  5
223
102
{ACAD_REACTORS
330
1A8
102
}
330
1A8
100
AcDbModelDocViewStyle
 70
     0
  3
Metric50
290
     0
300
Metric50
 90
        0
100
AcDbSectionViewStyle
 70
     0
 71
     0
 90
      102
 71
     1
340
11
 62
   256
 40
5.0
340
0
340
0
 62
   256
 40
5.0
300
I, O, Q, S, X, Z
 40
10.0
 90
        0
 40
2.5
 90
        0
 71
     2
340
16
 90
       25
 62
   256
340
16
 90
       50
 62
   256
 40
5.0
 40
2.5
 40
5.0
 71
     3
340
11
 62
   256
 40
5.0
 90
        0
 40
15.0
 90
        1
300
%<\AcVar ViewSectionStartId>%-%<\AcVar ViewSectionEndId>% (%<\AcVar ViewScale \f "%sn">%)
 71
     4
 62
   256
 62
   257
300
ANSI31
 40
1.0
 90
        0
290
     0
290
     0
 90
        6
 40
0.0
 40
1.570796326794896
 40
0.2617993877991494
 40
1.308996938995747
 40
-0.2617993877991494
 40
1.832595714594046
  0
TABLESTYLE
  5
87
102
{ACAD_XDICTIONARY
360
104
102
}
102
{ACAD_REACTORS
330
86
102
}
330
86
100
AcDbTableStyle
280
     0
  3
Standard
 70
     0
 71
     0
 40
0.06
 41
0.06
280
     0
281
     0
  7
Standard
140
0.18
170
     2
 62
     0
 63
     7
283
     0
 90
      512
 91
        0
  1

274
    -2
284
     1
 64
     0
275
    -2
285
     1
 65
     0
276
    -2
286
     1
 66
     0
277
    -2
287
     1
 67
     0
278
    -2
288
     1
 68
     0
279
    -2
289
     1
 69
     0
  7
Standard
140
0.25
170
     5
 62
     0
 63
     7
283
     0
 90
      512
 91
        0
  1

274
    -2
284
     1
 64
     0
275
    -2
285
     1
 65
     0
276
    -2
286
     1
 66
     0
277
    -2
287
     1
 67
     0
278
    -2
288
     1
 68
     0
279
    -2
289
     1
 69
     0
  7
Standard
140
0.18
170
     5
 62
     0
 63
     7
283
     0
 90
      512
 91
        0
  1

274
    -2
284
     1
 64
     0
275
    -2
285
     1
 65
     0
276
    -2
286
     1
 66
     0
277
    -2
287
     1
 67
     0
278
    -2
288
     1
 68
     0
279
    -2
289
     1
 69
     0
  0
VISUALSTYLE
  5
9F
102
{ACAD_REACTORS
330
99
102
}
330
99
100
AcDbVisualStyle
  2
2dWireframe
 70
     4
177
     3
291
     0
 70
    58
 90
        0
176
     1
 90
        2
176
     1
 90
        1
176
     1
 90
        0
176
     1
 40
0.6
176
     1
 40
30.0
176
     1
 62
     7
420
 16777215
176
     1
 90
        1
176
     1
 90
        4
176
     1
 62
     7
176
     1
 62
   257
176
     1
 90
        1
176
     1
 90
        1
176
     1
 40
1.0
176
     1
 90
        0
176
     1
 62
   257
176
     1
 40
1.0
176
     1
 90
        1
176
     1
 90
        6
176
     1
 90
        2
176
     1
 62
     7
176
     1
 90
        5
176
     1
 90
        0
176
     1
 90
        0
176
     1
290
     0
176
     1
 90
        1
176
     1
 40
0.0
176
     1
 90
        0
176
     1
290
     1
176
     1
290
     1
176
     1
290
     0
176
     1
290
     0
176
     1
290
     0
176
     1
290
     0
176
     1
290
     0
176
     1
290
     0
176
     1
290
     0
176
     1
 90
       50
176
     1
 40
0.0
176
     1
 40
1.0
176
     1
 90
        0
176
     1
 62
    18
420
        0
176
     1
 90
       50
176
     1
 90
        3
176
     1
 62
     5
420
      255
176
     1
290
     0
176
     1
 90
       50
176
     1
 90
       50
176
     1
 90
       50
176
     1
290
     0
176
     1
 90
       50
176
     1
 62
   256
176
     0
 40
1.0
176
     0
 90
        2
176
     1
  1
strokes_ogs.tif
176
     1
290
     0
176
     1
 40
1.0
176
     1
 40
1.0
176
     1
  0
VISUALSTYLE
  5
2684
102
{ACAD_REACTORS
330
99
102
}
330
99
100
AcDbVisualStyle
  2
3dWireframe
 70
     5
177
     3
291
     0
 70
    58
 90
        0
176
     1
 90
        2
176
     1
 90
        0
176
     1
 90
        0
176
     1
 40
0.6
176
     1
 40
30.0
176
     1
 62
     7
176
     1
 90
        1
176
     1
 90
        4
176
     1
 62
     7
176
     1
 62
   257
176
     1
 90
        1
176
     1
 90
        1
176
     1
 40
1.0
176
     1
 90
        0
176
     1
 62
   257
176
     1
 40
1.0
176
     1
 90
        1
176
     1
 90
        6
176
     1
 90
        2
176
     1
 62
     7
176
     1
 90
        5
176
     1
 90
        0
176
     1
 90
        0
176
     1
290
     0
176
     1
 90
        1
176
     1
 40
0.0
176
     1
 90
        0
176
     1
290
     0
176
     1
290
     1
176
     1
290
     1
176
     1
290
     0
176
     1
290
     0
176
     1
290
     0
176
     1
290
     0
176
     1
290
     0
176
     1
290
     0
176
     1
 90
       50
176
     1
 40
0.0
176
     1
 40
1.0
176
     1
 90
        0
176
     1
 62
    18
420
        0
176
     1
 90
       50
176
     1
 90
        3
176
     1
 62
     5
420
      255
176
     1
290
     0
176
     1
 90
       50
176
     1
 90
       50
176
     1
 90
       50
176
     1
290
     0
176
     1
 90
       50
176
     1
 62
   256
176
     0
 40
1.0
176
     0
 90
        2
176
     1
  1
strokes_ogs.tif
176
     1
290
     0
176
     1
 40
1.0
176
     1
 40
1.0
176
     1
1001
ACAD
1000
AcRTDxfName
1000
VISUALSTYLE
  0
VISUALSTYLE
  5
9E
102
{ACAD_REACTORS
330
99
102
}
330
99
100
AcDbVisualStyle
  2
Basic
 70
     7
177
     3
291
     1
 70
    58
 90
        1
176
     1
 90
        0
176
     1
 90
        1
176
     1
 90
        0
176
     1
 40
0.6
176
     1
 40
30.0
176
     1
 62
     7
420
 16777215
176
     1
 90
        0
176
     1
 90
        4
176
     1
 62
     7
176
     1
 62
   257
176
     1
 90
        1
176
     1
 90
        1
176
     1
 40
1.0
176
     1
 90
        8
176
     1
 62
     7
176
     1
 40
1.0
176
     1
 90
        1
176
     1
 90
        6
176
     1
 90
        2
176
     1
 62
     7
176
     1
 90
        5
176
     1
 90
        0
176
     1
 90
        0
176
     1
290
     0
176
     1
 90
        1
176
     1
 40
0.0
176
     1
 90
        0
176
     1
290
     0
176
     1
290
     1
176
     1
290
     1
176
     1
290
     0
176
     1
290
     0
176
     1
290
     0
176
     1
290
     0
176
     1
290
     0
176
     1
290
     0
176
     1
 90
       50
176
     1
 40
0.0
176
     1
 40
1.0
176
     1
 90
        0
176
     1
 62
    18
420
        0
176
     1
 90
       50
176
     1
 90
        3
176
     1
 62
     5
420
      255
176
     1
290
     0
176
     1
 90
       50
176
     1
 90
       50
176
     1
 90
       50
176
     1
290
     0
176
     1
 90
       50
176
     1
 62
   256
176
     0
 40
1.0
176
     0
 90
        2
176
     1
  1
strokes_ogs.tif
176
     1
290
     0
176
     1
 40
1.0
176
     1
 40
1.0
176
     1
  0
VISUALSTYLE
  5
A5
102
{ACAD_REACTORS
330
99
102
}
330
99
100
AcDbVisualStyle
  2
Brighten
 70
    12
177
     3
291
     1
 70
    58
 90
        2
176
     1
 90
        2
176
     1
 90
        1
176
     1
 90
        0
176
     1
 40
0.6
176
     1
 40
30.0
176
     1
 62
     7
420
 16777215
176
     1
 90
        1
176
     1
 90
        4
176
     1
 62
     7
176
     1
 62
   257
176
     1
 90
        1
176
     1
 90
        1
176
     1
 40
1.0
176
     1
 90
        8
176
     1
 62
     7
176
     1
 40
1.0
176
     1
 90
        1
176
     1
 90
        6
176
     1
 90
        2
176
     1
 62
     7
176
     1
 90
        5
176
     1
 90
        0
176
     1
 90
        0
176
     1
290
     0
176
     1
 90
        1
176
     1
 40
50.0
176
     1
 90
        0
176
     1
290
     0
176
     1
290
     1
176
     1
290
     1
176
     1
290
     0
176
     1
290
     0
176
     1
290
     0
176
     1
290
     0
176
     1
290
     0
176
     1
290
     0
176
     1
 90
       50
176
     1
 40
0.0
176
     1
 40
1.0
176
     1
 90
        0
176
     1
 62
    18
420
        0
176
     1
 90
       50
176
     1
 90
        3
176
     1
 62
     5
420
      255
176
     1
290
     0
176
     1
 90
       50
176
     1
 90
       50
176
     1
 90
       50
176
     1
290
     0
176
     1
 90
       50
176
     1
 62
   256
176
     0
 40
1.0
176
     0
 90
        2
176
     1
  1
strokes_ogs.tif
176
     1
290
     0
176
     1
 40
1.0
176
     1
 40
1.0
176
     1
  0
VISUALSTYLE
  5
A9
102
{ACAD_REACTORS
330
99
102
}
330
99
100
AcDbVisualStyle
  2
ColorChange
 70
    16
177
     3
291
     1
 70
    58
 90
        2
176
     1
 90
        2
176
     1
 90
        3
176
     1
 90
        0
176
     1
 40
0.6
176
     1
 40
30.0
176
     1
 62
     8
420
  8421504
176
     1
 90
        1
176
     1
 90
        4
176
     1
 62
     7
176
     1
 62
   257
176
     1
 90
        1
176
     1
 90
        1
176
     1
 40
1.0
176
     1
 90
        8
176
     1
 62
     8
420
  8421504
176
     1
 40
1.0
176
     1
 90
        1
176
     1
 90
        6
176
     1
 90
        2
176
     1
 62
     7
176
     1
 90
        5
176
     1
 90
        0
176
     1
 90
        0
176
     1
290
     0
176
     1
 90
        1
176
     1
 40
0.0
176
     1
 90
        0
176
     1
290
     0
176
     1
290
     1
176
     1
290
     1
176
     1
290
     0
176
     1
290
     0
176
     1
290
     0
176
     1
290
     0
176
     1
290
     0
176
     1
290
     0
176
     1
 90
       50
176
     1
 40
0.0
176
     1
 40
1.0
176
     1
 90
        0
176
     1
 62
    18
420
        0
176
     1
 90
       50
176
     1
 90
        3
176
     1
 62
     5
420
      255
176
     1
290
     0
176
     1
 90
       50
176
     1
 90
       50
176
     1
 90
       50
176
     1
290
     0
176
     1
 90
       50
176
     1
 62
   256
176
     0
 40
1.0
176
     0
 90
        2
176
     1
  1
strokes_ogs.tif
176
     1
290
     0
176
     1
 40
1.0
176
     1
 40
1.0
176
     1
  0
VISUALSTYLE
  5
A2
102
{ACAD_REACTORS
330
99
102
}
330
99
100
AcDbVisualStyle
  2
Conceptual
 70
     9
177
     3
291
     0
 70
    58
 90
        3
176
     1
 90
        2
176
     1
 90
        1
176
     1
 90
        0
176
     1
 40
0.6
176
     1
 40
30.0
176
     1
 62
     7
420
 16777215
176
     1
 90
        2
176
     1
 90
        2
176
     1
 62
     7
176
     1
 62
   257
176
     1
 90
        1
176
     1
 90
        1
176
     1
 40
40.0
176
     1
 90
        8
176
     1
 62
     7
176
     1
 40
1.0
176
     1
 90
        1
176
     1
 90
        6
176
     1
 90
        2
176
     1
 62
     7
176
     1
 90
        3
176
     1
 90
        0
176
     1
 90
        0
176
     1
290
     0
176
     1
 90
        1
176
     1
 40
0.0
176
     1
 90
        0
176
     1
290
     0
176
     1
290
     1
176
     1
290
     1
176
     1
290
     0
176
     1
290
     0
176
     1
290
     0
176
     1
290
     0
176
     1
290
     0
176
     1
290
     0
176
     1
 90
       50
176
     1
 40
0.0
176
     1
 40
1.0
176
     1
 90
        0
176
     1
 62
    18
420
        0
176
     1
 90
       50
176
     1
 90
        3
176
     1
 62
     5
420
      255
176
     1
290
     0
176
     1
 90
       50
176
     1
 90
       50
176
     1
 90
       50
176
     1
290
     0
176
     1
 90
       50
176
     1
 62
   256
176
     0
 40
1.0
176
     0
 90
        2
176
     1
  1
strokes_ogs.tif
176
     1
290
     0
176
     1
 40
1.0
176
     1
 40
1.0
176
     1
  0
VISUALSTYLE
  5
A4
102
{ACAD_REACTORS
330
99
102
}
330
99
100
AcDbVisualStyle
  2
Dim
 70
    11
177
     3
291
     1
 70
    58
 90
        2
176
     1
 90
        2
176
     1
 90
        1
176
     1
 90
        0
176
     1
 40
0.6
176
     1
 40
30.0
176
     1
 62
     7
420
 16777215
176
     1
 90
        1
176
     1
 90
        4
176
     1
 62
     7
176
     1
 62
   257
176
     1
 90
        1
176
     1
 90
        1
176
     1
 40
1.0
176
     1
 90
        8
176
     1
 62
     7
176
     1
 40
1.0
176
     1
 90
        1
176
     1
 90
        6
176
     1
 90
        2
176
     1
 62
     7
176
     1
 90
        5
176
     1
 90
        0
176
     1
 90
        0
176
     1
290
     0
176
     1
 90
        1
176
     1
 40
-50.0
176
     1
 90
        0
176
     1
290
     0
176
     1
290
     1
176
     1
290
     1
176
     1
290
     0
176
     1
290
     0
176
     1
290
     0
176
     1
290
     0
176
     1
290
     0
176
     1
290
     0
176
     1
 90
       50
176
     1
 40
0.0
176
     1
 40
1.0
176
     1
 90
        0
176
     1
 62
    18
420
        0
176
     1
 90
       50
176
     1
 90
        3
176
     1
 62
     5
420
      255
176
     1
290
     0
176
     1
 90
       50
176
     1
 90
       50
176
     1
 90
       50
176
     1
290
     0
176
     1
 90
       50
176
     1
 62
   256
176
     0
 40
1.0
176
     0
 90
        2
176
     1
  1
strokes_ogs.tif
176
     1
290
     0
176
     1
 40
1.0
176
     1
 40
1.0
176
     1
  0
VISUALSTYLE
  5
175
102
{ACAD_REACTORS
330
99
102
}
330
99
100
AcDbVisualStyle
  2
EdgeColorOff
 70
    22
177
     3
291
     1
 70
    58
 90
        2
176
     0
 90
        2
176
     0
 90
        0
176
     0
 90
        0
176
     0
 40
0.6
176
     0
 40
30.0
176
     0
 62
     7
420
 16777215
176
     0
 90
        1
176
     0
 90
        4
176
     0
 62
     7
176
     0
 62
   257
176
     0
 90
        1
176
     0
 90
        1
176
     0
 40
1.0
176
     0
 90
        8
176
     2
 62
     7
176
     0
 40
1.0
176
     0
 90
        1
176
     0
 90
        6
176
     0
 90
        2
176
     0
 62
     7
176
     0
 90
        5
176
     0
 90
        0
176
     0
 90
        0
176
     0
290
     0
176
     0
 90
        1
176
     0
 40
0.0
176
     0
 90
        0
176
     0
290
     0
176
     1
290
     1
176
     1
290
     1
176
     1
290
     0
176
     1
290
     0
176
     1
290
     0
176
     1
290
     0
176
     1
290
     0
176
     1
290
     0
176
     1
 90
       50
176
     1
 40
0.0
176
     1
 40
1.0
176
     1
 90
        0
176
     1
 62
    18
420
        0
176
     1
 90
       50
176
     1
 90
        3
176
     1
 62
     5
420
      255
176
     1
290
     0
176
     1
 90
       50
176
     1
 90
       50
176
     1
 90
       50
176
     1
290
     0
176
     1
 90
       50
176
     1
 62
   256
176
     0
 40
1.0
176
     0
 90
        2
176
     1
  1
strokes_ogs.tif
176
     1
290
     0
176
     1
 40
1.0
176
     1
 40
1.0
176
     1
  0
VISUALSTYLE
  5
A8
102
{ACAD_REACTORS
330
99
102
}
330
99
100
AcDbVisualStyle
  2
Facepattern
 70
    15
177
     3
291
     1
 70
    58
 90
        2
176
     1
 90
        2
176
     1
 90
        1
176
     1
 90
        0
176
     1
 40
0.6
176
     1
 40
30.0
176
     1
 62
     7
420
 16777215
176
     1
 90
        1
176
     1
 90
        4
176
     1
 62
     7
176
     1
 62
   257
176
     1
 90
        1
176
     1
 90
        1
176
     1
 40
1.0
176
     1
 90
        8
176
     1
 62
     7
176
     1
 40
1.0
176
     1
 90
        1
176
     1
 90
        6
176
     1
 90
        2
176
     1
 62
     7
176
     1
 90
        5
176
     1
 90
        0
176
     1
 90
        0
176
     1
290
     0
176
     1
 90
        1
176
     1
 40
0.0
176
     1
 90
        0
176
     1
290
     0
176
     1
290
     1
176
     1
290
     1
176
     1
290
     0
176
     1
290
     0
176
     1
290
     0
176
     1
290
     0
176
     1
290
     0
176
     1
290
     0
176
     1
 90
       50
176
     1
 40
0.0
176
     1
 40
1.0
176
     1
 90
        0
176
     1
 62
    18
420
        0
176
     1
 90
       50
176
     1
 90
        3
176
     1
 62
     5
420
      255
176
     1
290
     0
176
     1
 90
       50
176
     1
 90
       50
176
     1
 90
       50
176
     1
290
     0
176
     1
 90
       50
176
     1
 62
   256
176
     0
 40
1.0
176
     0
 90
        2
176
     1
  1
strokes_ogs.tif
176
     1
290
     0
176
     1
 40
1.0
176
     1
 40
1.0
176
     1
  0
VISUALSTYLE
  5
9A
102
{ACAD_REACTORS
330
99
102
}
330
99
100
AcDbVisualStyle
  2
Flat
 70
     0
177
     3
291
     1
 70
    58
 90
        2
176
     1
 90
        1
176
     1
 90
        1
176
     1
 90
        2
176
     1
 40
0.6
176
     1
 40
30.0
176
     1
 62
     7
420
 16777215
176
     1
 90
        0
176
     1
 90
        0
176
     1
 62
     7
176
     1
 62
   257
176
     1
 90
        1
176
     1
 90
        1
176
     1
 40
1.0
176
     1
 90
        8
176
     1
 62
     7
176
     1
 40
1.0
176
     1
 90
        1
176
     1
 90
        6
176
     1
 90
        2
176
     1
 62
     7
176
     1
 90
        5
176
     1
 90
        0
176
     1
 90
        0
176
     1
290
     0
176
     1
 90
       13
176
     1
 40
0.0
176
     1
 90
        0
176
     1
290
     0
176
     1
290
     1
176
     1
290
     1
176
     1
290
     0
176
     1
290
     0
176
     1
290
     0
176
     1
290
     0
176
     1
290
     0
176
     1
290
     0
176
     1
 90
       50
176
     1
 40
0.0
176
     1
 40
1.0
176
     1
 90
        0
176
     1
 62
    18
420
        0
176
     1
 90
       50
176
     1
 90
        3
176
     1
 62
     5
420
      255
176
     1
290
     0
176
     1
 90
       50
176
     1
 90
       50
176
     1
 90
       50
176
     1
290
     0
176
     1
 90
       50
176
     1
 62
   256
176
     0
 40
1.0
176
     0
 90
        2
176
     1
  1
strokes_ogs.tif
176
     1
290
     0
176
     1
 40
1.0
176
     1
 40
1.0
176
     1
  0
VISUALSTYLE
  5
9B
102
{ACAD_REACTORS
330
99
102
}
330
99
100
AcDbVisualStyle
  2
FlatWithEdges
 70
     1
177
     3
291
     1
 70
    58
 90
        2
176
     1
 90
        1
176
     1
 90
        1
176
     1
 90
        2
176
     1
 40
0.6
176
     1
 40
30.0
176
     1
 62
     7
420
 16777215
176
     1
 90
        1
176
     1
 90
        0
176
     1
 62
     7
176
     1
 62
   257
176
     1
 90
        1
176
     1
 90
        1
176
     1
 40
1.0
176
     1
 90
        0
176
     1
 62
   257
176
     1
 40
1.0
176
     1
 90
        1
176
     1
 90
        6
176
     1
 90
        2
176
     1
 62
     7
176
     1
 90
        5
176
     1
 90
        0
176
     1
 90
        0
176
     1
290
     0
176
     1
 90
       13
176
     1
 40
0.0
176
     1
 90
        0
176
     1
290
     0
176
     1
290
     1
176
     1
290
     1
176
     1
290
     0
176
     1
290
     0
176
     1
290
     0
176
     1
290
     0
176
     1
290
     0
176
     1
290
     0
176
     1
 90
       50
176
     1
 40
0.0
176
     1
 40
1.0
176
     1
 90
        0
176
     1
 62
    18
420
        0
176
     1
 90
       50
176
     1
 90
        3
176
     1
 62
     5
420
      255
176
     1
290
     0
176
     1
 90
       50
176
     1
 90
       50
176
     1
 90
       50
176
     1
290
     0
176
     1
 90
       50
176
     1
 62
   256
176
     0
 40
1.0
176
     0
 90
        2
176
     1
  1
strokes_ogs.tif
176
     1
290
     0
176
     1
 40
1.0
176
     1
 40
1.0
176
     1
  0
VISUALSTYLE
  5
9C
102
{ACAD_REACTORS
330
99
102
}
330
99
100
AcDbVisualStyle
  2
Gouraud
 70
     2
177
     3
291
     1
 70
    58
 90
        2
176
     1
 90
        2
176
     1
 90
        1
176
     1
 90
        2
176
     1
 40
0.6
176
     1
 40
30.0
176
     1
 62
     7
420
 16777215
176
     1
 90
        0
176
     1
 90
        0
176
     1
 62
     7
176
     1
 62
   257
176
     1
 90
        1
176
     1
 90
        1
176
     1
 40
1.0
176
     1
 90
        0
176
     1
 62
     7
176
     1
 40
1.0
176
     1
 90
        1
176
     1
 90
        6
176
     1
 90
        2
176
     1
 62
     7
176
     1
 90
        5
176
     1
 90
        0
176
     1
 90
        0
176
     1
290
     0
176
     1
 90
       13
176
     1
 40
0.0
176
     1
 90
        0
176
     1
290
     0
176
     1
290
     1
176
     1
290
     1
176
     1
290
     0
176
     1
290
     0
176
     1
290
     0
176
     1
290
     0
176
     1
290
     0
176
     1
290
     0
176
     1
 90
       50
176
     1
 40
0.0
176
     1
 40
1.0
176
     1
 90
        0
176
     1
 62
    18
420
        0
176
     1
 90
       50
176
     1
 90
        3
176
     1
 62
     5
420
      255
176
     1
290
     0
176
     1
 90
       50
176
     1
 90
       50
176
     1
 90
       50
176
     1
290
     0
176
     1
 90
       50
176
     1
 62
   256
176
     0
 40
1.0
176
     0
 90
        2
176
     1
  1
strokes_ogs.tif
176
     1
290
     0
176
     1
 40
1.0
176
     1
 40
1.0
176
     1
  0
VISUALSTYLE
  5
9D
102
{ACAD_REACTORS
330
99
102
}
330
99
100
AcDbVisualStyle
  2
GouraudWithEdges
 70
     3
177
     3
291
     1
 70
    58
 90
        2
176
     1
 90
        2
176
     1
 90
        1
176
     1
 90
        2
176
     1
 40
0.6
176
     1
 40
30.0
176
     1
 62
     7
420
 16777215
176
     1
 90
        1
176
     1
 90
        0
176
     1
 62
     7
176
     1
 62
   257
176
     1
 90
        1
176
     1
 90
        1
176
     1
 40
1.0
176
     1
 90
        0
176
     1
 62
   257
176
     1
 40
1.0
176
     1
 90
        1
176
     1
 90
        6
176
     1
 90
        2
176
     1
 62
     7
176
     1
 90
        5
176
     1
 90
        0
176
     1
 90
        0
176
     1
290
     0
176
     1
 90
       13
176
     1
 40
0.0
176
     1
 90
        0
176
     1
290
     0
176
     1
290
     1
176
     1
290
     1
176
     1
290
     0
176
     1
290
     0
176
     1
290
     0
176
     1
290
     0
176
     1
290
     0
176
     1
290
     0
176
     1
 90
       50
176
     1
 40
0.0
176
     1
 40
1.0
176
     1
 90
        0
176
     1
 62
    18
420
        0
176
     1
 90
       50
176
     1
 90
        3
176
     1
 62
     5
420
      255
176
     1
290
     0
176
     1
 90
       50
176
     1
 90
       50
176
     1
 90
       50
176
     1
290
     0
176
     1
 90
       50
176
     1
 62
   256
176
     0
 40
1.0
176
     0
 90
        2
176
     1
  1
strokes_ogs.tif
176
     1
290
     0
176
     1
 40
1.0
176
     1
 40
1.0
176
     1
  0
VISUALSTYLE
  5
A1
102
{ACAD_REACTORS
330
99
102
}
330
99
100
AcDbVisualStyle
  2
Hidden
 70
     6
177
     3
291
     0
 70
    58
 90
        1
176
     1
 90
        2
176
     1
 90
        2
176
     1
 90
        0
176
     1
 40
0.6
176
     1
 40
30.0
176
     1
 62
     7
420
 16777215
176
     1
 90
        2
176
     1
 90
        2
176
     1
 62
     7
176
     1
 62
   257
176
     1
 90
        2
176
     1
 90
        1
176
     1
 40
40.0
176
     1
 90
        0
176
     1
 62
   257
176
     1
 40
1.0
176
     1
 90
        1
176
     1
 90
        6
176
     1
 90
        2
176
     1
 62
     7
176
     1
 90
        3
176
     1
 90
        0
176
     1
 90
        0
176
     1
290
     0
176
     1
 90
        1
176
     1
 40
0.0
176
     1
 90
        0
176
     1
290
     0
176
     1
290
     1
176
     1
290
     1
176
     1
290
     0
176
     1
290
     0
176
     1
290
     0
176
     1
290
     0
176
     1
290
     0
176
     1
290
     0
176
     1
 90
       50
176
     1
 40
0.0
176
     1
 40
1.0
176
     1
 90
        0
176
     1
 62
    18
420
        0
176
     1
 90
       50
176
     1
 90
        3
176
     1
 62
     5
420
      255
176
     1
290
     0
176
     1
 90
       50
176
     1
 90
       50
176
     1
 90
       50
176
     1
290
     0
176
     1
 90
       50
176
     1
 62
   256
176
     0
 40
1.0
176
     0
 90
        2
176
     1
  1
strokes_ogs.tif
176
     1
290
     0
176
     1
 40
1.0
176
     1
 40
1.0
176
     1
  0
VISUALSTYLE
  5
173
102
{ACAD_REACTORS
330
99
102
}
330
99
100
AcDbVisualStyle
  2
JitterOff
 70
    20
177
     3
291
     1
 70
    58
 90
        2
176
     0
 90
        2
176
     0
 90
        0
176
     0
 90
        0
176
     0
 40
0.6
176
     0
 40
30.0
176
     0
 62
     7
420
 16777215
176
     0
 90
        1
176
     0
 90
        4
176
     0
 62
     7
176
     0
 62
   257
176
     0
 90
        1
176
     0
 90
        1
176
     0
 40
1.0
176
     0
 90
       10
176
     2
 62
     7
176
     0
 40
1.0
176
     0
 90
        1
176
     0
 90
        6
176
     0
 90
        2
176
     0
 62
     7
176
     0
 90
        5
176
     0
 90
        0
176
     0
 90
        0
176
     0
290
     0
176
     0
 90
        1
176
     0
 40
0.0
176
     0
 90
        0
176
     0
290
     0
176
     1
290
     1
176
     1
290
     1
176
     1
290
     0
176
     1
290
     0
176
     1
290
     0
176
     1
290
     0
176
     1
290
     0
176
     1
290
     0
176
     1
 90
       50
176
     1
 40
0.0
176
     1
 40
1.0
176
     1
 90
        0
176
     1
 62
    18
420
        0
176
     1
 90
       50
176
     1
 90
        3
176
     1
 62
     5
420
      255
176
     1
290
     0
176
     1
 90
       50
176
     1
 90
       50
176
     1
 90
       50
176
     1
290
     0
176
     1
 90
       50
176
     1
 62
   256
176
     0
 40
1.0
176
     0
 90
        2
176
     1
  1
strokes_ogs.tif
176
     1
290
     0
176
     1
 40
1.0
176
     1
 40
1.0
176
     1
  0
VISUALSTYLE
  5
A7
102
{ACAD_REACTORS
330
99
102
}
330
99
100
AcDbVisualStyle
  2
Linepattern
 70
    14
177
     3
291
     1
 70
    58
 90
        2
176
     1
 90
        2
176
     1
 90
        1
176
     1
 90
        0
176
     1
 40
0.6
176
     1
 40
30.0
176
     1
 62
     7
420
 16777215
176
     1
 90
        1
176
     1
 90
        4
176
     1
 62
     7
176
     1
 62
   257
176
     1
 90
        7
176
     1
 90
        7
176
     1
 40
1.0
176
     1
 90
        8
176
     1
 62
     7
176
     1
 40
1.0
176
     1
 90
        1
176
     1
 90
        6
176
     1
 90
        2
176
     1
 62
     7
176
     1
 90
        5
176
     1
 90
        0
176
     1
 90
        0
176
     1
290
     0
176
     1
 90
        1
176
     1
 40
0.0
176
     1
 90
        0
176
     1
290
     0
176
     1
290
     1
176
     1
290
     1
176
     1
290
     0
176
     1
290
     0
176
     1
290
     0
176
     1
290
     0
176
     1
290
     0
176
     1
290
     0
176
     1
 90
       50
176
     1
 40
0.0
176
     1
 40
1.0
176
     1
 90
        0
176
     1
 62
    18
420
        0
176
     1
 90
       50
176
     1
 90
        3
176
     1
 62
     5
420
      255
176
     1
290
     0
176
     1
 90
       50
176
     1
 90
       50
176
     1
 90
       50
176
     1
290
     0
176
     1
 90
       50
176
     1
 62
   256
176
     0
 40
1.0
176
     0
 90
        2
176
     1
  1
strokes_ogs.tif
176
     1
290
     0
176
     1
 40
1.0
176
     1
 40
1.0
176
     1
  0
VISUALSTYLE
  5
174
102
{ACAD_REACTORS
330
99
102
}
330
99
100
AcDbVisualStyle
  2
OverhangOff
 70
    21
177
     3
291
     1
 70
    58
 90
        2
176
     0
 90
        2
176
     0
 90
        0
176
     0
 90
        0
176
     0
 40
0.6
176
     0
 40
30.0
176
     0
 62
     7
420
 16777215
176
     0
 90
        1
176
     0
 90
        4
176
     0
 62
     7
176
     0
 62
   257
176
     0
 90
        1
176
     0
 90
        1
176
     0
 40
1.0
176
     0
 90
        9
176
     2
 62
     7
176
     0
 40
1.0
176
     0
 90
        1
176
     0
 90
        6
176
     0
 90
        2
176
     0
 62
     7
176
     0
 90
        5
176
     0
 90
        0
176
     0
 90
        0
176
     0
290
     0
176
     0
 90
        1
176
     0
 40
0.0
176
     0
 90
        0
176
     0
290
     0
176
     1
290
     1
176
     1
290
     1
176
     1
290
     0
176
     1
290
     0
176
     1
290
     0
176
     1
290
     0
176
     1
290
     0
176
     1
290
     0
176
     1
 90
       50
176
     1
 40
0.0
176
     1
 40
1.0
176
     1
 90
        0
176
     1
 62
    18
420
        0
176
     1
 90
       50
176
     1
 90
        3
176
     1
 62
     5
420
      255
176
     1
290
     0
176
     1
 90
       50
176
     1
 90
       50
176
     1
 90
       50
176
     1
290
     0
176
     1
 90
       50
176
     1
 62
   256
176
     0
 40
1.0
176
     0
 90
        2
176
     1
  1
strokes_ogs.tif
176
     1
290
     0
176
     1
 40
1.0
176
     1
 40
1.0
176
     1
  0
VISUALSTYLE
  5
A3
102
{ACAD_REACTORS
330
99
102
}
330
99
100
AcDbVisualStyle
  2
Realistic
 70
     8
177
     3
291
     0
 70
    58
 90
        2
176
     1
 90
        2
176
     1
 90
        0
176
     1
 90
        2
176
     1
 40
0.6
176
     1
 40
30.0
176
     1
 62
     7
420
 16777215
176
     1
 90
        0
176
     1
 90
        0
176
     1
 62
     7
176
     1
 62
   257
176
     1
 90
        1
176
     1
 90
        1
176
     1
 40
1.0
176
     1
 90
        8
176
     1
 62
   257
176
     1
 40
1.0
176
     1
 90
        1
176
     1
 90
        6
176
     1
 90
        2
176
     1
 62
     7
176
     1
 90
        3
176
     1
 90
        0
176
     1
 90
        0
176
     1
290
     0
176
     1
 90
       13
176
     1
 40
0.0
176
     1
 90
        0
176
     1
290
     0
176
     1
290
     1
176
     1
290
     1
176
     1
290
     0
176
     1
290
     0
176
     1
290
     0
176
     1
290
     0
176
     1
290
     0
176
     1
290
     0
176
     1
 90
       50
176
     1
 40
0.0
176
     1
 40
1.0
176
     1
 90
        0
176
     1
 62
    18
420
        0
176
     1
 90
       50
176
     1
 90
        3
176
     1
 62
     5
420
      255
176
     1
290
     0
176
     1
 90
       50
176
     1
 90
       50
176
     1
 90
       50
176
     1
290
     0
176
     1
 90
       50
176
     1
 62
   256
176
     0
 40
1.0
176
     0
 90
        2
176
     1
  1
strokes_ogs.tif
176
     1
290
     0
176
     1
 40
1.0
176
     1
 40
1.0
176
     1
  0
VISUALSTYLE
  5
182
102
{ACAD_REACTORS
330
99
102
}
330
99
100
AcDbVisualStyle
  2
Shaded
 70
    27
177
     3
291
     0
 70
    58
 90
        2
176
     1
 90
        2
176
     1
 90
        1
176
     1
 90
        2
176
     1
 40
0.6
176
     1
 40
30.0
176
     1
 62
     7
420
 16777215
176
     1
 90
        0
176
     1
 90
        4
176
     1
 62
     7
176
     1
 62
   257
176
     1
 90
        1
176
     1
 90
        1
176
     1
 40
1.0
176
     1
 90
        8
176
     1
 62
   257
176
     1
 40
1.0
176
     1
 90
        1
176
     1
 90
        6
176
     1
 90
        2
176
     1
 62
     8
420
  7895160
176
     1
 90
        3
176
     1
 90
        0
176
     1
 90
        0
176
     1
290
     0
176
     1
 90
        5
176
     1
 40
0.0
176
     1
 90
        0
176
     1
290
     0
176
     1
290
     1
176
     1
290
     1
176
     1
290
     0
176
     1
290
     0
176
     1
290
     0
176
     1
290
     0
176
     1
290
     0
176
     1
290
     0
176
     1
 90
       50
176
     1
 40
0.0
176
     1
 40
1.0
176
     1
 90
        0
176
     1
 62
    18
420
        0
176
     1
 90
       50
176
     1
 90
        3
176
     1
 62
     5
420
      255
176
     1
290
     0
176
     1
 90
       50
176
     1
 90
       50
176
     1
 90
       50
176
     1
290
     0
176
     1
 90
       50
176
     1
 62
   256
176
     0
 40
1.0
176
     0
 90
        2
176
     1
  1
strokes_ogs.tif
176
     1
290
     0
176
     1
 40
1.0
176
     1
 40
1.0
176
     1
  0
VISUALSTYLE
  5
181
102
{ACAD_REACTORS
330
99
102
}
330
99
100
AcDbVisualStyle
  2
Shaded with edges
 70
    26
177
     3
291
     0
 70
    58
 90
        2
176
     1
 90
        2
176
     1
 90
        1
176
     1
 90
        2
176
     1
 40
0.6
176
     1
 40
30.0
176
     1
 62
     7
420
 16777215
176
     1
 90
        1
176
     1
 90
        2
176
     1
 62
     7
176
     1
 62
   257
176
     1
 90
        2
176
     1
 90
        1
176
     1
 40
1.0
176
     1
 90
        8
176
     1
 62
   257
176
     1
 40
1.0
176
     1
 90
        1
176
     1
 90
        6
176
     1
 90
        2
176
     1
 62
     7
176
     1
 90
        3
176
     1
 90
        0
176
     1
 90
        0
176
     1
290
     0
176
     1
 90
        5
176
     1
 40
0.0
176
     1
 90
        0
176
     1
290
     0
176
     1
290
     1
176
     1
290
     1
176
     1
290
     0
176
     1
290
     0
176
     1
290
     0
176
     1
290
     0
176
     1
290
     0
176
     1
290
     0
176
     1
 90
       50
176
     1
 40
0.0
176
     1
 40
1.0
176
     1
 90
        0
176
     1
 62
    18
420
        0
176
     1
 90
       50
176
     1
 90
        3
176
     1
 62
     5
420
      255
176
     1
290
     0
176
     1
 90
       50
176
     1
 90
       50
176
     1
 90
       50
176
     1
290
     0
176
     1
 90
       50
176
     1
 62
   256
176
     0
 40
1.0
176
     0
 90
        2
176
     1
  1
strokes_ogs.tif
176
     1
290
     0
176
     1
 40
1.0
176
     1
 40
1.0
176
     1
  0
VISUALSTYLE
  5
17E
102
{ACAD_REACTORS
330
99
102
}
330
99
100
AcDbVisualStyle
  2
Shades of Gray
 70
    23
177
     3
291
     0
 70
    58
 90
        2
176
     1
 90
        2
176
     1
 90
        3
176
     1
 90
        0
176
     1
 40
0.6
176
     1
 40
30.0
176
     1
 62
     7
420
 16777215
176
     1
 90
        2
176
     1
 90
        2
176
     1
 62
     7
176
     1
 62
     7
176
     1
 90
        1
176
     1
 90
        1
176
     1
 40
40.0
176
     1
 90
        8
176
     1
 62
     7
176
     1
 40
1.0
176
     1
 90
        1
176
     1
 90
        6
176
     1
 90
        2
176
     1
 62
     7
176
     1
 90
        3
176
     1
 90
        0
176
     1
 90
        0
176
     1
290
     0
176
     1
 90
        1
176
     1
 40
0.0
176
     1
 90
        0
176
     1
290
     0
176
     1
290
     1
176
     1
290
     1
176
     1
290
     0
176
     1
290
     0
176
     1
290
     0
176
     1
290
     0
176
     1
290
     0
176
     1
290
     0
176
     1
 90
       50
176
     1
 40
0.0
176
     1
 40
1.0
176
     1
 90
        0
176
     1
 62
    18
420
        0
176
     1
 90
       50
176
     1
 90
        3
176
     1
 62
     5
420
      255
176
     1
290
     0
176
     1
 90
       50
176
     1
 90
       50
176
     1
 90
       50
176
     1
290
     0
176
     1
 90
       50
176
     1
 62
   256
176
     0
 40
1.0
176
     0
 90
        2
176
     1
  1
strokes_ogs.tif
176
     1
290
     0
176
     1
 40
1.0
176
     1
 40
1.0
176
     1
  0
VISUALSTYLE
  5
17F
102
{ACAD_REACTORS
330
99
102
}
330
99
100
AcDbVisualStyle
  2
Sketchy
 70
    24
177
     3
291
     0
 70
    58
 90
        1
176
     1
 90
        2
176
     1
 90
        2
176
     1
 90
        0
176
     1
 40
0.6
176
     1
 40
30.0
176
     1
 62
     7
420
 16777215
176
     1
 90
        2
176
     1
 90
        2
176
     1
 62
     7
176
     1
 62
     7
176
     1
 90
        1
176
     1
 90
        1
176
     1
 40
40.0
176
     1
 90
       11
176
     1
 62
     7
176
     1
 40
1.0
176
     1
 90
        1
176
     1
 90
        6
176
     1
 90
        2
176
     1
 62
     7
176
     1
 90
        6
176
     1
 90
        0
176
     1
 90
        0
176
     1
290
     0
176
     1
 90
        1
176
     1
 40
0.0
176
     1
 90
        0
176
     1
290
     0
176
     1
290
     1
176
     1
290
     1
176
     1
290
     0
176
     1
290
     0
176
     1
290
     0
176
     1
290
     0
176
     1
290
     0
176
     1
290
     0
176
     1
 90
       50
176
     1
 40
0.0
176
     1
 40
1.0
176
     1
 90
        0
176
     1
 62
    18
420
        0
176
     1
 90
       50
176
     1
 90
        3
176
     1
 62
     5
420
      255
176
     1
290
     0
176
     1
 90
       50
176
     1
 90
       50
176
     1
 90
       50
176
     1
290
     0
176
     1
 90
       50
176
     1
 62
   256
176
     0
 40
1.0
176
     0
 90
        2
176
     1
  1
strokes_ogs.tif
176
     1
290
     0
176
     1
 40
1.0
176
     1
 40
1.0
176
     1
  0
VISUALSTYLE
  5
A6
102
{ACAD_REACTORS
330
99
102
}
330
99
100
AcDbVisualStyle
  2
Thicken
 70
    13
177
     3
291
     1
 70
    58
 90
        2
176
     1
 90
        2
176
     1
 90
        1
176
     1
 90
        0
176
     1
 40
0.6
176
     1
 40
30.0
176
     1
 62
     7
420
 16777215
176
     1
 90
        1
176
     1
 90
        4
176
     1
 62
     7
176
     1
 62
   257
176
     1
 90
        1
176
     1
 90
        1
176
     1
 40
1.0
176
     1
 90
       12
176
     1
 62
     7
176
     1
 40
1.0
176
     1
 90
        1
176
     1
 90
        6
176
     1
 90
        2
176
     1
 62
     7
176
     1
 90
        5
176
     1
 90
        0
176
     1
 90
        0
176
     1
290
     0
176
     1
 90
        1
176
     1
 40
0.0
176
     1
 90
        0
176
     1
290
     0
176
     1
290
     1
176
     1
290
     1
176
     1
290
     0
176
     1
290
     0
176
     1
290
     0
176
     1
290
     0
176
     1
290
     0
176
     1
290
     0
176
     1
 90
       50
176
     1
 40
0.0
176
     1
 40
1.0
176
     1
 90
        0
176
     1
 62
    18
420
        0
176
     1
 90
       50
176
     1
 90
        3
176
     1
 62
     5
420
      255
176
     1
290
     0
176
     1
 90
       50
176
     1
 90
       50
176
     1
 90
       50
176
     1
290
     0
176
     1
 90
       50
176
     1
 62
   256
176
     0
 40
1.0
176
     0
 90
        2
176
     1
  1
strokes_ogs.tif
176
     1
290
     0
176
     1
 40
1.0
176
     1
 40
1.0
176
     1
  0
VISUALSTYLE
  5
A0
102
{ACAD_REACTORS
330
99
102
}
330
99
100
AcDbVisualStyle
  2
Wireframe
 70
     5
177
     3
291
     0
 70
    58
 90
        0
176
     1
 90
        2
176
     1
 90
        0
176
     1
 90
        0
176
     1
 40
0.6
176
     1
 40
30.0
176
     1
 62
     7
420
 16777215
176
     1
 90
        1
176
     1
 90
        4
176
     1
 62
     7
176
     1
 62
   257
176
     1
 90
        1
176
     1
 90
        1
176
     1
 40
1.0
176
     1
 90
        0
176
     1
 62
   257
176
     1
 40
1.0
176
     1
 90
        1
176
     1
 90
        6
176
     1
 90
        2
176
     1
 62
     7
176
     1
 90
        3
176
     1
 90
        0
176
     1
 90
        0
176
     1
290
     0
176
     1
 90
        1
176
     1
 40
0.0
176
     1
 90
        0
176
     1
290
     0
176
     1
290
     1
176
     1
290
     1
176
     1
290
     0
176
     1
290
     0
176
     1
290
     0
176
     1
290
     0
176
     1
290
     0
176
     1
290
     0
176
     1
 90
       50
176
     1
 40
0.0
176
     1
 40
1.0
176
     1
 90
        0
176
     1
 62
    18
420
        0
176
     1
 90
       50
176
     1
 90
        3
176
     1
 62
     5
420
      255
176
     1
290
     0
176
     1
 90
       50
176
     1
 90
       50
176
     1
 90
       50
176
     1
290
     0
176
     1
 90
       50
176
     1
 62
   256
176
     0
 40
1.0
176
     0
 90
        2
176
     1
  1
strokes_ogs.tif
176
     1
290
     0
176
     1
 40
1.0
176
     1
 40
1.0
176
     1
  0
VISUALSTYLE
  5
180
102
{ACAD_REACTORS
330
99
102
}
330
99
100
AcDbVisualStyle
  2
X-Ray
 70
    25
177
     3
291
     0
 70
    58
 90
        2
176
     1
 90
        2
176
     1
 90
        1
176
     1
 90
        1
176
     1
 40
0.5
176
     1
 40
30.0
176
     1
 62
     7
420
 16777215
176
     1
 90
        1
176
     1
 90
        0
176
     1
 62
     7
176
     1
 62
   257
176
     1
 90
        1
176
     1
 90
        1
176
     1
 40
1.0
176
     1
 90
        8
176
     1
 62
     7
176
     1
 40
1.0
176
     1
 90
        1
176
     1
 90
        6
176
     1
 90
        2
176
     1
 62
     7
176
     1
 90
        3
176
     1
 90
        0
176
     1
 90
        0
176
     1
290
     0
176
     1
 90
       13
176
     1
 40
0.0
176
     1
 90
        0
176
     1
290
     0
176
     1
290
     1
176
     1
290
     1
176
     1
290
     0
176
     1
290
     0
176
     1
290
     0
176
     1
290
     0
176
     1
290
     0
176
     1
290
     0
176
     1
 90
       50
176
     1
 40
0.0
176
     1
 40
1.0
176
     1
 90
        0
176
     1
 62
    18
420
        0
176
     1
 90
       50
176
     1
 90
        3
176
     1
 62
     5
420
      255
176
     1
290
     0
176
     1
 90
       50
176
     1
 90
       50
176
     1
 90
       50
176
     1
290
     0
176
     1
 90
       50
176
     1
 62
   256
176
     0
 40
1.0
176
     0
 90
        2
176
     1
  1
strokes_ogs.tif
176
     1
290
     0
176
     1
 40
1.0
176
     1
 40
1.0
176
     1
  0
DICTIONARYVAR
  5
F0
102
{ACAD_REACTORS
330
66
102
}
330
66
100
DictionaryVariables
280
     0
  1
1:1
  0
DICTIONARYVAR
  5
EF
102
{ACAD_REACTORS
330
66
102
}
330
66
100
DictionaryVariables
280
     0
  1
STANDARD
  0
DICTIONARYVAR
  5
89
102
{ACAD_REACTORS
330
66
102
}
330
66
100
DictionaryVariables
280
     0
  1
STANDARD
  0
DICTIONARYVAR
  5
1B7
102
{ACAD_REACTORS
330
66
102
}
330
66
100
DictionaryVariables
280
     0
  1
Imperial24
  0
DICTIONARYVAR
  5
1B8
102
{ACAD_REACTORS
330
66
102
}
330
66
100
DictionaryVariables
280
     0
  1
Imperial24
  0
DICTIONARYVAR
  5
67
102
{ACAD_REACTORS
330
66
102
}
330
66
100
DictionaryVariables
280
     0
  1
2
  0
DICTIONARYVAR
  5
6B
102
{ACAD_REACTORS
330
66
102
}
330
66
100
DictionaryVariables
280
     0
  1
1
  0
DICTIONARYVAR
  5
14D
102
{ACAD_REACTORS
330
66
102
}
330
66
100
DictionaryVariables
280
     0
  1
0
  0
DICTIONARYVAR
  5
14E
102
{ACAD_REACTORS
330
66
102
}
330
66
100
DictionaryVariables
280
     0
  1
0
  0
DICTIONARY
  5
194
330
22
100
AcDbDictionary
280
     1
281
     1
  0
DICTIONARY
  5
188
330
97
100
AcDbDictionary
280
     1
281
     1
  3
FBXASSET
360
189
  0
DICTIONARY
  5
186
330
96
100
AcDbDictionary
280
     1
281
     1
  3
FBXASSET
360
187
  0
DICTIONARY
  5
110
330
98
100
AcDbDictionary
280
     1
281
     1
  3
BUMPTILE
360
112
  3
DIFFUSETILE
360
111
  3
FBXASSET
360
18A
  3
OPACITYTILE
360
113
  3
REFLECTIONTILE
360
114
  0
DICTIONARY
  5
104
330
87
100
AcDbDictionary
280
     1
281
     1
  3
ACAD_ROUNDTRIP_2008_TABLESTYLE_CELLSTYLEMAP
360
B464
  0
XRECORD
  5
189
102
{ACAD_REACTORS
330
188
102
}
330
188
100
AcDbXrecord
280
     1
 70
     1
 90
429727718
  1
508B35C9-AEE7-456F-BE74-D52651303AC6
310
504B03040A0000080000B670623B3DEE336E79000000790000001B0000006175746F6465736B2D64657369676E2D7061636B6167652E786D6C3C3F786D6C2076657273696F6E3D22312E302220656E636F64696E673D227574662D3822203F3E3C666F726D6174733E3C666F726D61743E687474703A2F2F736368656D612E
310
6175746F6465736B2E636F6D2F64657369676E2D7061636B6167652F323030393C2F666F726D61743E3C2F666F726D6174733E504B0304140006080800B670623BD486FD9CA0000000F4000000130000005B436F6E74656E745F54797065735D2E786D6C7D8EC10E82300C865F65E91D8A1E8C310C0EEA1BF002731658846E
310
D98AC1B77784ABF1D8FE5FBFBF75BBCE937A534CCEB38643598122B6FEE978D0B0485F9C41B54DDD7D022595594E1A469170414C76A4D9A4D207E29CF43ECE46F218070CC6BECC4078ACAA135ACF422C856C0E68EA1BF5669944DDD7BCDE7B1F8E415D77AECB980613C2E4AC91FC167A2B244592486606FC29C8FD7F045B9A
310
EF7053A7E60B504B0304140006080800B670623B28ED286BEB0000007C01000008000000636F72652E786D6C8D90416EC3201045AF82665B6183218D6D61A254764FD00B204C5C94182C03558F5F9C3852BBEB6A467FFE9B197D71FA9E6FE8CBACC17AD7012D0820E3B41FAD9B3A48F1826B40272956EFE32F1B20A766D3C1
310
268314D3EAD3B24BDABB685CCCAAF3A3D94515828980F42D371D04FD696655A814B3235C8B45E9AB9A4C419F5D8653B2237A1CB163DE672FD6AC209BF3C08E0D1B30EB19C3FC9D72FCC6EB231EFA33EDE96BDD341517E5064B11EDFCBCAF57A3A2194156843498524CAA0FCA5B7268F9E185D42D21A2DCEC7FA0B48CFF8492
310
759155FBBB0F2C80A4F991FB408A72CB22977B50B96EB9C91F504B0304140006080800B670623B55019EA25F0000007C00000007000000636E782E786D6C4DCB3B0E80201045D1AD90E915ED2CF8AC45050C11660C8261F98AB1B07AC9C97D42D718D865D3E909258CFD00CCE24AC6E326A164D74DC0B4128928FF32603847
310
2BA13128B1252AC747C6BAB984FC68F0B87FE8960A5C09FE86CFB69FBA01504B0304140006080800B670623B7BC41AC871010000D40300000C0000006662782F636F72652E786D6CC553ED6E8320147D15C2DF4501B56B6D90A64BBB27D80B50A5CE54C120983EFEAE1F4DD7A56BBA5FF3879273EEE59E7310BE393735EA95
310
ED2AA333CC428A91D2B9292A5D66D8BB63B0C26823B835C67D2BC348CB46657880B1E0A535BE9DA1DC68A7B403549B42CDA0EC3AE530CA6B5864B8CB3F552343E91D5474A7B095F949962A6421D0502778E72C0840D390E18DC5F170E664C205F7BE2A66B62A605A75AC94C522DDEEE3651AEF837817C741F2CE92E02D592D
310
83FD6ECB76EC7595A651C2C9D02CB8AB9A8BBADC2AE954814544691A3016D0E883256BBA58278B17BA5A53CAC9507ED3E4DBE2C9265F691747B3DCA9ADC382819091F8E1162272A8933DE82182932144F88C09DF060D8140C84E1EEA8B8F1340BDCA9DB1093085F157AA97B557309586747CD0EF0B4EA64E983A6E0EAEEFCE
310
889E9EF17847386AA94B30211D2C0FDE0D3AF9A4610EAD5536E8DD1969631B593F67E381C33F5157F17725E5A636F6BF1491F980C8FC7B90E13E8A2F504B0304140006080800B670623B70102A487D0000009D0000000B0000006662782F636E782E786D6C4DCCD10A83201886E15B91FFDC95A5C30335ACCDFB886521330D
310
A76397BF1A1DECE883878F57749FD5A3B74D2F17830472A901D9F088930B8B849267CC01754AA418F3DF0D5018572BE160506249B16C274D761E8BCFBB7A179E27F65CB39A0F14D396184C9921B81F34C3ACA1B4B99ABB6E6F062A25AA5F69DF23ACBE504B0304140006080800B670623B3610CA3329010000120200003100
310
00006662782F42384135303843342D343331462D343546312D424341352D3532343432364645413344462F636F72652E786D6C8D515B6EC32010BC0AE22B55850D0E446E848992B43E412FE000495162B07854397EA176A4F62F3F2C9A9D991D58BEBB8F37F0AD7D30CE76905418026DA553C65E3A98E219B510EC04F7CEC5
310
3F3408EC30EA0E16180A7EF12E4D0B249D8DDAC68C5AA7F4020E21E80881BCE54B0783FCD2E3500D296646B856D320AFC34557A4CAEDCC133C449F0380794839A138B47B86DB2345744D7A44594FD0E1B867883594369BFE63BF7EEF793D0B054FC9A8456E548E63CE46FB674D8A58F068C6477CE9F510B582A2C1F80D1182
310
70F349E816B32D65AFB8DD62CCEB42FF274A937A52948C8DEB66893BCB021484D7734370E5D2E9F608A3EF93F3119479ABA0E50B14B8C298119A43CCC4FCFCECB8A18B6388CEE7EF5D5D4F994BD86CBBA182D76543B9FCAE2FD7B24DF103504B0304140006080800B670623B1B8617914E0100003303000030000000666278
310
2F42384135303843342D343331462D343546312D424341352D3532343432364645413344462F636E782E786D6CD593C16EC32010447F0571AD6CE3D489D20813A9877E410FBD62D82434182CC055F3F75D1292E692438FBD206B7698593D61BEFD1E2DF982108D773D6D6B460938E5B571FB9ECE6957AD29D90A1EBC4F7736
310
4A9C1CA1A759A682EF839FA72269D8C9D92654AD71C72206887E0E0A22CAF926B15E498B01E0AA19451807D01A34B919F16B070157417138917400F2F6FA41FCF0092A45DEE414C19BDC21783E4BD39D891265658C3D8DEA00A3ACE59CBC8678ACB54CB26EEB6BD7839D7E9348BE70AD9C8321B9BCA7F9A4A26C542347DEE0
310
50F09802D22BA6749A800A394DD62899107273365E3C82CFC6A55557BC06C10774B7ABE7AEC3B0F34CF06446280E154026D0542C187BA9DAB6628BF7B6DBB0E5A65B3EB1F58631DE64BBE083F7B65CC218087E22CABB042E51D1F2268F1FE12B3EA24D40D63E9CFE00120194D60B9D5BC67FE6D39CDF37E20AF817881F504B
310
0304140006080800B670623BBFEF2E3B690500003C100000340000006662782F42384135303843342D343331462D343546312D424341352D3532343432364645413344462F6F626A656374732E786D6CAD575D739B3814FD2B0CFB0C98D84E931D4227B6938EA793B6534F3BFB90198F0099B001899144EAECAFDF231018B0
310
D37A3FFC609090EEE7B94757C1FB7D915B2F54C88CB31BDB7727B64559CC938CA53776A576CE956DBD0F03C1B9EA2DB32D460A7A63EB693B0C52C1ABD24C257447AA5C8D66EF177F5832A68CDA569C13296F6C193FD182B8A4523CA1F2D94D88226EBADBBBBEDB2C1C8A4D05299F46424B222853B014F30C52ACC6287F389C
310
D85E1878FA7B18E87FB36AFAF62AAFF667A83F635211161F291B8999FAB3D5DDC5FCDA99CF6653677679E13B8BFBC5CAF1DF4D27CBCBE5F2FAF6EE1A8AA51290642C117467871F101B91C581D77CEA2C36869F3229E68CD1B8F61F1ED6361B89092D294B90C78C4A68EB793D190E7D1D9BDEE7A91E1B95FDE9F3BCEAEFE809
310
6A6D6F9F7D4B79F4275C90E7A04248AA51D5C4C738DAE06F72885AC4796EBE65D22A88A22223B995679120E2D50EB1542F098381188D4EA111AE3DB043FF20AF6F2B4AE3D7D83D65E5AECA730D4D3BAC91BD05FEA992B565D95F549CD6069B90AB2A63EACA38A45E4B6A87D781574F86817E4C2FCCC72690D62E2729520E37
310
9BAF234797BAF6D62B3BFC781FED37BA1E4F2B2F052FA9501A3E80569BB8F6A9A364D4FA67654E6F803383981F82F21591FF84F23D9882BC896C3FDBCF8C162508933B2E0AE4C69DD43F6BD2BE38DDDBF10BF86CB4FA784D37F3AF16075E67EC9030DECA1FC0A55373F5DFF3378C591FA9BDF485C10B0A8C8BA909E5262639
310
A8E72163488806A595734C81CB77D1DE0ED7604A303B76913CEC0272F412782FF88EFF4636D8AA56DF7B322474C4B767303F625997056C7B032C473C592B36CEBD15F3F9FF5233B7ABCDC74D257624A60F8658567497B14CE1EC3C80B76FD02011038F9EE9EB0F2E12387A9C844D3F09855125116D1D731DF8B43D2CF4E0A0
310
79A020C6BE946BCE0B7EA1E1219331CD73C228AF5A2DDD31A4B1DA918CE91350854D40A71723140BFA92E94E62B0626016CEFA5864A50E5977E8753CEDBEE1CBB7F52780D20E17AF0BA0F5F9B02A3AD07DCC732EB6D1EBB661421BE0C39E21BABF0FE16D22EA6929407C8DE596724C88B749B6DB5512BC7B228ADFD7CB7EA6
310
3A22397E690BA8D5D8D4E40CEC8CDA23C2C0B7D5898640101CEC9C6D331CE328CB93CAFBBAC70A642DF70DF95155945B52F08AA973C23469FD69ADEF84F7BB18F983A8F8C90E37F5D35980B2139A1C523540813E824EF83448CF7C72B598CE97D7CEEDDDDD3B6736BFBC771677EF66CE6A7E7139F7A793E9EDF2B2B3A8B624
310
0CDA13AA5F8388264EC4A0129909F3B7F5A16CEDF08128E97D680ACA4B9BE7B7B58BB638F0B00700EF36AE8B32A705658A68F83EE897FC2B41573190D1CCAF0B92D233A47CFEB019D9809933F67DD1A5467F8CF69AD9A5AE859342D45355448C64F968A371DC2D596ADC6E43D93D1B466F877A64E2893E54F23C4B40388995
310
525E5005DA3983ED45412510D3EFCA13737B3863F74BD30F2A12E5B4B5E489A025CE25500DB855B11ACE5BBFA185D35DD48D8DC3CE7DC69F2944DB42AA6F6CF09BCA622ADD08C7A36E7C6AE18000BAB08E040135C2D21C9D75B3A91B77BB746C403F38018DFE6EC939DD92F16B40BC05294B9CDA035AAD6D330AE27FE4786B
310
8E45145EA34A75BE1C263A676A35A8ACC6297337400BF16C54EF515F3F77CB77EB3583889C754FFA29081AA98E2222ADEF05DA3E63D2EDEA8B8756C05A7FB6CABC4A91CBF325398202CC952E70A008A830324BA200D5E5EF8F5F04C75DB4B0EE3340E071C98B823333B83577596BF3849B69F2085AA0FAFA212F26BEFF5877
310
FDE622B28D88A42E49E43326DA82D31E8CB006401E1DA726059ECEC168F97A6599036306A135688F9AD2E61A6EA178F4CD51974A9F2CCB9F36FE5EBD14601068D9C3BF01504B0304140006080000B670623B000000000000000000000000350000006662782F42384135303843342D343331462D343546312D424341352D35
310
32343432364645413344462F76657274696365732E62696E504B0304140006080800B670623BF270F1330600000004000000360000006662782F42384135303843342D343331462D343546312D424341352D3532343432364645413344462F747269616E676C65732E62696E636660600000504B0304140006080000B67062
310
3B000000000000000000000000370000006662782F42384135303843342D343331462D343546312D424341352D3532343432364645413344462F617474726962757465732E62696E504B0304140006080800B670623B08DA0BD19000000041010000360000006662782F42384135303843342D343331462D343546312D4243
310
41352D3532343432364645413344462F6469726563746F72792E786D6C858F410AC3201045AF22B36F53E9A60B35CBEEBAE80D244E44489C6234F4F835464A48035D0DF398FF9F8AF63D0E6CC63039F212F8F9020C7D47C6792B21C5FE7403D62A1188E2E60C98D7234A5830286103A55745067B9D86B8A3CF9C7F90C11DE6
310
07FB144396D7B6A82D282E9A152AD114D5EF2CB866EEE831B8EEA07A7BB5A8D7D61A2BAAEB7FD5F70921FF497D00504B0304140006080800B670623B3B4606F3FE000000A00100003B0000006662782F42384135303843342D343331462D343546312D424341352D3532343432364645413344462F7265736F75726365732F
310
636F72652E786D6C8D504B6E833010BD0A9A6D65B08134808CA354A427E8052C332156828DFCA97AFC9A40A576D7CDCCE87D344F8F9FBEE647F689CE6B6B7A6039850C8DB2A336530F315C4903D94970676DF82583CCC8197B5861107C72362E3BA4AC096842428D1D7107A5F71820538F74F4E0D50D6799CB1892C2DFF345
310
AABB9C306779A2934E701F5C0A906D4FD609C2A1B7D129F4BCD858C163D4E3AED163FAA9AF1A1D88F67CA98E6D35906AA82A52BFB39ABCD5CD915C86331BD86BD3B665CD8BD52C78D0F34F46E550061C419494B6843142CB0F5677F4D0D58717DA7494F26295FF31C565FCA7296A13AA728FBBD93C0896823C09C18BB5AFB4
310
9E65A6BD762BBE01504B010214000A0000080000B670623B3DEE336E79000000790000001B00000000000000000000000000000000006175746F6465736B2D64657369676E2D7061636B6167652E786D6C504B01021400140006080800B670623BD486FD9CA0000000F40000001300000000000000000000000000B2000000
310
5B436F6E74656E745F54797065735D2E786D6C504B01021400140006080800B670623B28ED286BEB0000007C010000080000000000000000000000000083010000636F72652E786D6C504B01021400140006080800B670623B55019EA25F0000007C000000070000000000000000000000000094020000636E782E786D6C50
310
4B01021400140006080800B670623B7BC41AC871010000D40300000C00000000000000000000000000180300006662782F636F72652E786D6C504B01021400140006080800B670623B70102A487D0000009D0000000B00000000000000000000000000B30400006662782F636E782E786D6C504B01021400140006080800B6
310
70623B3610CA3329010000120200003100000000000000000000000000590500006662782F42384135303843342D343331462D343546312D424341352D3532343432364645413344462F636F72652E786D6C504B01021400140006080800B670623B1B8617914E010000330300003000000000000000000000000000D10600
310
006662782F42384135303843342D343331462D343546312D424341352D3532343432364645413344462F636E782E786D6C504B01021400140006080800B670623BBFEF2E3B690500003C10000034000000000000000000000000006D0800006662782F42384135303843342D343331462D343546312D424341352D35323434
310
32364645413344462F6F626A656374732E786D6C504B01021400140006080000B670623B0000000000000000000000003500000000000000000000000000280E00006662782F42384135303843342D343331462D343546312D424341352D3532343432364645413344462F76657274696365732E62696E504B010214001400
310
06080800B670623BF270F133060000000400000036000000000000000000000000007B0E00006662782F42384135303843342D343331462D343546312D424341352D3532343432364645413344462F747269616E676C65732E62696E504B01021400140006080000B670623B00000000000000000000000037000000000000
310
00000000000000D50E00006662782F42384135303843342D343331462D343546312D424341352D3532343432364645413344462F617474726962757465732E62696E504B01021400140006080800B670623B08DA0BD1900000004101000036000000000000000000000000002A0F00006662782F42384135303843342D3433
310
31462D343546312D424341352D3532343432364645413344462F6469726563746F72792E786D6C504B01021400140006080800B670623B3B4606F3FE000000A00100003B000000000000000000000000000E1000006662782F42384135303843342D343331462D343546312D424341352D3532343432364645413344462F72
310
65736F75726365732F636F72652E786D6C504B0506000000000E000E0080040000651100000000
  0
XRECORD
  5
187
102
{ACAD_REACTORS
330
186
102
}
330
186
100
AcDbXrecord
280
     1
 70
     1
 90
429727718
  1
887D55A9-D0DD-414E-B741-A7DCD4DA2B4C
310
504B03040A0000080000B670623B3DEE336E79000000790000001B0000006175746F6465736B2D64657369676E2D7061636B6167652E786D6C3C3F786D6C2076657273696F6E3D22312E302220656E636F64696E673D227574662D3822203F3E3C666F726D6174733E3C666F726D61743E687474703A2F2F736368656D612E
310
6175746F6465736B2E636F6D2F64657369676E2D7061636B6167652F323030393C2F666F726D61743E3C2F666F726D6174733E504B0304140006080800B670623BD486FD9CA0000000F4000000130000005B436F6E74656E745F54797065735D2E786D6C7D8EC10E82300C865F65E91D8A1E8C310C0EEA1BF002731658846E
310
D98AC1B77784ABF1D8FE5FBFBF75BBCE937A534CCEB38643598122B6FEE978D0B0485F9C41B54DDD7D022595594E1A469170414C76A4D9A4D207E29CF43ECE46F218070CC6BECC4078ACAA135ACF422C856C0E68EA1BF5669944DDD7BCDE7B1F8E415D77AECB980613C2E4AC91FC167A2B244592486606FC29C8FD7F045B9A
310
EF7053A7E60B504B0304140006080800B670623BBC1638F5EC0000007C01000008000000636F72652E786D6C8D90416EC3201045AF82665B61836BE2D8C24471DB9CA01740401C94182C03558F5F9C3852BBEB6A467FFE9B197D7EF89E6EE8CB2CC17AD7032D0820E394D7D68D3DA478C67B4007C117EFE32F1B202727D3C3
310
2A83E0E3E2D3BC49CABB685CCCAAF3DA6CA20CC14440EA969B1E82BA98491632C5EC08D76296EA2A4753D06797E194AC468F2356E77DF66CCD02825543D50CACC62D39ED70FDC68EB8FD68F6F8787A6784342D1DDA1D2F5758F068A7E77DB518198D065111D2624A31A93E69DD11D6D5EC85EC3B4278B9DAFF4069D6FF8492
310
75F1B5DADE7D600104CD8FDC0782976B16B9DC83CA75CD4DFC00504B0304140006080800B670623B55019EA25F0000007C00000007000000636E782E786D6C4DCB3B0E80201045D1AD90E915ED2CF8AC45050C11660C8261F98AB1B07AC9C97D42D718D865D3E909258CFD00CCE24AC6E326A164D74DC0B4128928FF326038
310
472BA13128B1252AC747C6BAB984FC68F0B87FE8960A5C09FE86CFB69FBA01504B0304140006080800B670623B3586FFB671010000D40300000C0000006662782F636F72652E786D6CC553ED6E8320147D15C2DF4541A76D6D90A6DDD627D80B50A4CE54C120983EFEAE1F4DD7A55BBA5FF3879273EEE59E7310B6393735EA
310
95ED2AA3731C851423A5A5292A5DE6D8BB63B0C268C39935C67D29C3488B46E578803167A535BE9D2169B453DA01AA4DA16650749D7218C91A1639EEE4876A4428BC838AEE14B6429E44A9C228041AEA38EB9C0501681A32BC313F1ECE8C4C3867DE57C5CC56054CAB8E95B298A7F12E5EEED224C8E87E11242FE936C8DE96
310
AB60BB7F4D295D66D12E5B30323473E6AAE6A24E5A259C2A308F29CD82280A68FC1E256B9AAE93F489AED694323294DF34F9B678B0C957DA3DC7B3DCA9ADC33C022123F1CD2D44E450277AD04338234388F01913BE0D1A0281909D38D4171F27807A259DB1093085F157AA17B557309586747CD0CF0B46A64E983A6E0EAEEF
310
CE881F9EF1FB8E70D44297604238581EBC1B74B249C31C5AAB6CD0BB33D2C636A27ECCC62F0EFF445DC5DF95244D6DEC7F2922F30191F9F720C37DE49F504B0304140006080800B670623B4220A0FF7D0000009D0000000B0000006662782F636E782E786D6C4DCCD10A83201886E15B91FFDCE542CB0335D0EC3E6259C84A
310
C3E9D8E5AF46073BFAE0E1E315DD675BD1DBA5978F41C2FD4600B9F088930F8B849267CC01754AA418F3DF0D50183727E164506249B1EC174D6E1ECB9A0F5D7D785E68DB8151CD286E5A5363CA6B8A39E90D36D40E96B086F55A43A544F52B1D7B86D517504B0304140006080800B670623B2FA3FEDE290100001202000031
310
0000006662782F45374635344235342D363743322D343832342D383044432D4334454645303536354442422F636F72652E786D6C8D515B6EC32010BC0AE22B55850D2E386E848994D7097A0117488A1283C5A3CAF10BB523B57FF961D1ECCCECC0F2ED7DBC816FED8371B687A4C210682B9D32F6D2C314CFA883602BB8772E
310
FEA141608751F7B0C050F08B77695A20E96CD43666D43AA5177008414708E42D5F7A18E4971E876A483133C2B59A06791D2EBA22556E679EE021FA1C00CC43CA09C5717D6274C7286AD7FB06D1AEA1A8C3873DDAD3E3E98859CB0EBB1DAF67A1E02919B5C88DCA71CCD968FFAC49110B1ECDF8882FBD1EA256503418BF2342
310
106E3E08DD60B6A1EC15771B8C795DE8FF4469524F8A92B1F1AD59E2CEB20005E1F5DC105CB9F4797B84D1F7C9F908CABC55D0F2050A5C61CC1AD2F27A26E6E767C7962E8E213A9FBF7775FDCC5CC266DB960A5E970DE5F2BBBE5CCB36C50F504B0304140006080800B670623B1B8617914E01000033030000300000006662
310
782F45374635344235342D363743322D343832342D383044432D4334454645303536354442422F636E782E786D6CD593C16EC32010447F0571AD6CE3D489D20813A9877E410FBD62D82434182CC055F3F75D1292E692438FBD206B7698593D61BEFD1E2DF982108D773D6D6B460938E5B571FB9ECE6957AD29D90A1EBC4F77
310
364A9C1CA1A759A682EF839FA72269D8C9D92654AD71C72206887E0E0A22CAF926B15E498B01E0AA19451807D01A34B919F16B070157417138917400F2F6FA41FCF0092A45DEE414C19BDC21783E4BD39D891265658C3D8DEA00A3ACE59CBC8678ACB54CB26EEB6BD7839D7E9348BE70AD9C8321B9BCA7F9A4A26C542347DE
310
E050F09802D22BA6749A800A394DD62899107273365E3C82CFC6A55557BC06C10774B7ABE7AEC3B0F34CF06446280E154026D0542C187BA9DAB6628BF7B6DBB0E5A65B3EB1F58631DE64BBE083F7B65CC218087E22CABB042E51D1F2268F1FE12B3EA24D40D63E9CFE00120194D60B9D5BC67FE6D39CDF37E20AF817881F50
310
4B0304140006080800B670623B29652116630500003C100000340000006662782F45374635344235342D363743322D343832342D383044432D4334454645303536354442422F6F626A656374732E786D6CAD575D739B3814FD2B0CFB0C989834C90EA1639B24E3E9A6EDD4D3CE3E64C623834CD8006224913AFDF57B040203
310
B65BEF871F0C12D2FD3CF7E8CA7FBFCB33E3957291B2E2D674ED8969D02262715A24B76625B7D6B569BC0F7CCE98EC2D338D82E4F4D654D366E0279C55A59E8AE99654991CCDDECFFF3444440B6A1A514684B83545F44C7362934AB2988A173B2692D8C97667BB76B3702836E1A47C1E092D09A78584A5982F20C5688C7287
310
C389E904BEA3BE07BEFAD7ABA6A75739B53F43FD69212429A20365233153D70BEF2E2E6FAC4BCF9B5ADEBB0BD79ADFCF43CBBD9A4E16EF168B9BD9DD0D140BC921495BC2E9D60C1E101B9E46BED37CEA2CD6861F3329624541A3DA7F7858DBAC25C6B4A4458C3CA654405BCFEBC970E8AAD8F43E4FD558ABEC4F9FE7557F47
310
4F506B7BFBEC5BCA367FC105710E2AB8A00A554D7CB4A30DFE26FBA86D18CBF4B75418399194A72433B274C3097F33032C554B027F2046A1932B842B0FCCC0DDCBEBDB8AD2F835768F59B9ADB24C41D30C6A64AF817F2A456D59FA83F2E3DA60137255A585BCD60EC9B7929AC18DEFD49381AF1ED30BFDB109A4B1CD488294
310
C3CDE6EBC8D185AABD6568061FEE37BB95AAC7E3CA4BCE4ACAA5820FA0D526AE7DAA2869B5EE5999531BE0CC20E6FBA07C41E43FA27CF7A6206F3CDD793B4F6B919C1462CB788EDCD893FA674CDA17AB7B3B7C019F8D561FAEE966FED562DFE98C1D12C6A9FC015C2A35D7FF3D7FC398F591DA4B5FE0BFA2C0189FEA50AE22
310
92817A1ED3020951A03432862970F976B33383259812CC8E5D240BBA801CBCF8CE2BBEE3BF910DB6AAD5F79E05123AE2DB33981FB1ACCB02B69D00CB014FD68AB573A7627EF9BFD4CC2C5C7D58557C4B22FAA88925A4DBB44825CECE3D78FB060D1231F0E885BE7D673C86A3874958F593906B5502D1563157814FDAC3420D
310
F69A070A22EC4B98E23CFF171A1E5311D12C23056555ABA53B8614563B92D17D02AAB009E8F46284624E5F53D5490C560CCCC2591FF1B45421EB0EBD8EA7ED13BE7C5D7E0428CD60FEF60779EB13E6664FF711CB185F6FDED60D139A001FF60CD1FD6D086F1D51474901E26B2CB794A343BC8ED3EDB612E0DD2351FCB65CF4
310
33D511C9E14B5B40ADC6A6263DB0336A8F700DDF56271A024E70B0B3629DE21847591E55DED73D56206AB927E46FAABC5C939C55853C274C93D69FD6FA4E78BF8B11DF898C9ECD60553FAD39283BA6F18984AA23E8884F83F45C5F5F859797B31B2B9C84A1E5B9DE9D35BFF25C6B76152E422F9C5DCC3D847F5801ED09D5AF
310
41441327A25FF15487F9EB725FB666F048A4701E9A827292E6F97569A32DF61DEC01C0BB8DCBBCCC684E0B49147C1FD54BF685A0AB18C868E6973949E819523E3DAC463660E68C7D9F55A9D1EFA3BD7A76A16AE1A810F95CE59B82A4D968A376DC2E8B44BBDD86B27B368CDE0ED548C7137DA860591A83706223A12CA712B4
310
7306DBF39C0A20A6DF95C7FAF670C6EED7A61F946493D1D6926782963813403548A78AE470DEF80D2D9CEAA26E4D1C76F60BFE74219A06527D6B82DF641A51616F703CAAC6A7160E08A00BEB4810A0274592A1B36E3675E36E978A0DE80727A0D6DF2D39A75BD27E0D8837276589537B40ABB56D5A41F48F1C6FCD3188C4EB
310
A6929D2FFB89CE995A4D00AE813BDD032DC48B56BD437DFDDC2DD7AED70C2272D63DE9A72068A45A92F0A4BE17A8A06B9366E16707AD80B1FC649459952097E74BB23805982B55E0401150A165964402AA8BDF9F3E7386BB686EDCA780C0D382E5392BF460A6EFB2C6EA1937D3F809B440D5F5435C4C5CF7A9EEFAF54564BD
310
2182DA24162F98680B4E7930C21A0079709CEAEB99A372305ABE0C0D7D6078105A83F6A0296DAEE1068A47DD1C55A9F4C9B2FC69E3EFD44B81028E963DF81B504B0304140006080000B670623B000000000000000000000000350000006662782F45374635344235342D363743322D343832342D383044432D433445464530
310
3536354442422F76657274696365732E62696E504B0304140006080800B670623BF270F1330600000004000000360000006662782F45374635344235342D363743322D343832342D383044432D4334454645303536354442422F747269616E676C65732E62696E636660600000504B0304140006080000B670623B00000000
310
0000000000000000370000006662782F45374635344235342D363743322D343832342D383044432D4334454645303536354442422F617474726962757465732E62696E504B0304140006080800B670623B08DA0BD19000000041010000360000006662782F45374635344235342D363743322D343832342D383044432D4334
310
454645303536354442422F6469726563746F72792E786D6C858F410AC3201045AF22B36F53E9A60B35CBEEBAE80D244E44489C6234F4F835464A48035D0DF398FF9F8AF63D0E6CC63039F212F8F9020C7D47C6792B21C5FE7403D62A1188E2E60C98D7234A5830286103A55745067B9D86B8A3CF9C7F90C11DE607FB144396
310
D7B6A82D282E9A152AD114D5EF2CB866EEE831B8EEA07A7BB5A8D7D61A2BAAEB7FD5F70921FF497D00504B0304140006080800B670623B6378F24DFF000000A00100003B0000006662782F45374635344235342D363743322D343832342D383044432D4334454645303536354442422F7265736F75726365732F636F72652E
310
786D6C8D504B6E833010BD0A9A6D65B0094E42641C85B639412F6099496225D8C89FAAC7AF09546A77DDCC8CDE47F3F4C4F16B7C149FE88371B603565228D06A37187BED20C50BD9437194C23B177FC9A0B06AC40E6618A4B87A97A615D2CE46B431A3D60DB8822A048C50E8473E3A08FA86A32A558A5911EEE5A4F45D5DB1
310
6465A6B34E8A107D0E502C4FE609D26370C96B0CA25A58295232C3AA3143FE692E063D485EF7F5AEE71BD2D2F39634AFFC44DAF7DD9E9CCE6F9CD25DCBFA762BAAD92C4534E34F46ED51451C40D694B6843142EB0FD61C283F34FC85EE0F948A6A96FF31A569F8A729191B37F51A77B105902C0779125254735F793DCBCC7B
310
EE567E03504B010214000A0000080000B670623B3DEE336E79000000790000001B00000000000000000000000000000000006175746F6465736B2D64657369676E2D7061636B6167652E786D6C504B01021400140006080800B670623BD486FD9CA0000000F40000001300000000000000000000000000B20000005B436F6E
310
74656E745F54797065735D2E786D6C504B01021400140006080800B670623BBC1638F5EC0000007C010000080000000000000000000000000083010000636F72652E786D6C504B01021400140006080800B670623B55019EA25F0000007C000000070000000000000000000000000095020000636E782E786D6C504B010214
310
00140006080800B670623B3586FFB671010000D40300000C00000000000000000000000000190300006662782F636F72652E786D6C504B01021400140006080800B670623B4220A0FF7D0000009D0000000B00000000000000000000000000B40400006662782F636E782E786D6C504B01021400140006080800B670623B2F
310
A3FEDE290100001202000031000000000000000000000000005A0500006662782F45374635344235342D363743322D343832342D383044432D4334454645303536354442422F636F72652E786D6C504B01021400140006080800B670623B1B8617914E010000330300003000000000000000000000000000D2060000666278
310
2F45374635344235342D363743322D343832342D383044432D4334454645303536354442422F636E782E786D6C504B01021400140006080800B670623B29652116630500003C10000034000000000000000000000000006E0800006662782F45374635344235342D363743322D343832342D383044432D4334454645303536
310
354442422F6F626A656374732E786D6C504B01021400140006080000B670623B0000000000000000000000003500000000000000000000000000230E00006662782F45374635344235342D363743322D343832342D383044432D4334454645303536354442422F76657274696365732E62696E504B01021400140006080800
310
B670623BF270F13306000000040000003600000000000000000000000000760E00006662782F45374635344235342D363743322D343832342D383044432D4334454645303536354442422F747269616E676C65732E62696E504B01021400140006080000B670623B0000000000000000000000003700000000000000000000
310
000000D00E00006662782F45374635344235342D363743322D343832342D383044432D4334454645303536354442422F617474726962757465732E62696E504B01021400140006080800B670623B08DA0BD190000000410100003600000000000000000000000000250F00006662782F45374635344235342D363743322D34
310
3832342D383044432D4334454645303536354442422F6469726563746F72792E786D6C504B01021400140006080800B670623B6378F24DFF000000A00100003B00000000000000000000000000091000006662782F45374635344235342D363743322D343832342D383044432D4334454645303536354442422F7265736F75
310
726365732F636F72652E786D6C504B0506000000000E000E0080040000611100000000
  0
XRECORD
  5
112
102
{ACAD_REACTORS
330
110
102
}
330
110
100
AcDbXrecord
280
     1
270
     1
271
     1
  0
XRECORD
  5
111
102
{ACAD_REACTORS
330
110
102
}
330
110
100
AcDbXrecord
280
     1
270
     1
271
     1
  0
XRECORD
  5
18A
102
{ACAD_REACTORS
330
110
102
}
330
110
100
AcDbXrecord
280
     1
 70
     0
 90
1778669749
  1
9BF507EE-FAF7-4A99-A33D-4EE51894BC40
310
504B03040A0000080000B670623B3DEE336E79000000790000001B0000006175746F6465736B2D64657369676E2D7061636B6167652E786D6C3C3F786D6C2076657273696F6E3D22312E302220656E636F64696E673D227574662D3822203F3E3C666F726D6174733E3C666F726D61743E687474703A2F2F736368656D612E
310
6175746F6465736B2E636F6D2F64657369676E2D7061636B6167652F323030393C2F666F726D61743E3C2F666F726D6174733E504B0304140006080800B670623BD486FD9CA0000000F4000000130000005B436F6E74656E745F54797065735D2E786D6C7D8EC10E82300C865F65E91D8A1E8C310C0EEA1BF002731658846E
310
D98AC1B77784ABF1D8FE5FBFBF75BBCE937A534CCEB38643598122B6FEE978D0B0485F9C41B54DDD7D022595594E1A469170414C76A4D9A4D207E29CF43ECE46F218070CC6BECC4078ACAA135ACF422C856C0E68EA1BF5669944DDD7BCDE7B1F8E415D77AECB980613C2E4AC91FC167A2B244592486606FC29C8FD7F045B9A
310
EF7053A7E60B504B0304140006080800B670623BCA089DFFEC0000007C01000008000000636F72652E786D6C8D90416E83301045AF62CDB632D8402020E32882F604BD80653BC44AB011B6AB1EBF262152BBEB6A467FFE9B197D76FA9EEFE84BAFDE38DB03CD08206DA553C64E3DC470C1474027CE56E7C22F1B202B66DDC3
310
260367D3EAE2B24BD2D9A06D48AA754AEFA2F05E0740F29E9A1EBCBCEA59642286E4F0B76C11F226269DD15797E0188D42CF2346A57DE662F40ABCAEC77628C6120F654571D50C04B7F5B9C1E3997CD4F550BE3745C3F20DE62C98F9755FAE5A04AD801784B498524C8A4F5A75E4D055873772EC0861F966FF03C545FD138A
310
C686B2D8DF7D621E384D8F3C069CE55B16A93C824A75CB8DFF00504B0304140006080800B670623B55019EA25F0000007C00000007000000636E782E786D6C4DCB3B0E80201045D1AD90E915ED2CF8AC45050C11660C8261F98AB1B07AC9C97D42D718D865D3E909258CFD00CCE24AC6E326A164D74DC0B4128928FF326038
310
472BA13128B1252AC747C6BAB984FC68F0B87FE8960A5C09FE86CFB69FBA01504B0304140006080800B670623B68FC0B7272010000D40300000C0000006662782F636F72652E786D6CC5535B6E833010BC8AE5DF0A6C1E8124328E22D29EA01770C0A128602363A31CBFCB234A53A555FA553EC09AD9F5CE8C31DB5DDA060D
310
D2F4B556190E7C8A9154852E6B5565D8D993B7C668C799D1DA7E29C3488956667884316795D1AE5BA0422B2B950554E9522EA0E87B69312A1A5864B82F3E642B7CE12C54F467BF13C55954D20F7CA0A18EB3DE1A1080E621E31BF3D3F1C2C88C73E65C5D2E6C5DC2B4FA544B8379921C36797888BC3C8A032F4E73EA6D927D
310
EA1DF6F42D49F2E8350D5346C666CE6CDD5ED515460A2B4BCC434A375E1078347C0FE22D5D6DE3D50B5D6F2965642CBF6B725DF96493AB958DC245EEDCD6631E809089F8E61622B2A81703E8219C913144F84C09DF070D8140C8561C9BAB8F3340832CAC363130A576376A108D933095FA747AD0CF0B46E64E983A6D0EAE1F
310
CE089F9EF1FB8E70D44255604258581E9D1D75B259C3125A278D37D80B52DAB4A279CEC62F0EFF44DDC43F9454E8469BFF5244960322CBEF41C6FBC83F01504B0304140006080800B670623B0F71DDB67E0000009D0000000B0000006662782F636E782E786D6C4DCCD10A83201886E15B91FFDCA54DB73F502386BB8F5816
310
32D3703976F9ABD1C18E3E78F87855FB990379BBFCF2296AE02706C4C5471A7C9C349475A408A4352AA7B4FEDD80C47E761A7606A3A69CCA72D0E0C6BE8475D3E0E3F3409428EA6B27A84079A782899AA2EC1A7AE3ECCC2FD858CB2D544655BFD2B67BD87C01504B0304140006080800B670623BE134B4FB28010000120200
310
00310000006662782F38353834323741342D343835462D343034322D383541392D4331303331363839454531452F636F72652E786D6C8D515B6EC32010BC0AE22B55850D0EA424C24451959EA0172086A42831583CAA1CBF503B52FB971F16CDCECC0EACD8DFC71BF836215AEF7A481A0C817183D7D65D7A98D3197108F652
310
04EFD31F1A044E8DA6871586525C82CFD3020DDE25E352419DD76601558C264130DCCAA58771F832A36A544E8511AFCDA486ABBA988634A55D7852C4144A00300FA927949C71DABD1D28A29C7D208A6987383B6CD13BC16BB2E1DBE3911C453B0BA5C8D9EA456E758963CFD684674DAA588A64C747FC2118958C86B2C3788B
310
0841B8FB247487D98EB257CC77188BB6D2FF89F2A49F1465EBD2BA5BE2CEB2082511EDDC9042FB7CBA3DC298FBE4430275DE2A9AE1054ADC60CC08E3A29D89E5F9C5714317C7987C28DFBBBA9E0A97B0D97643A568EB864AF95D5FA9759BF207504B0304140006080800B670623B1B8617914E010000330300003000000066
310
62782F38353834323741342D343835462D343034322D383541392D4331303331363839454531452F636E782E786D6CD593C16EC32010447F0571AD6CE3D489D20813A9877E410FBD62D82434182CC055F3F75D1292E692438FBD206B7698593D61BEFD1E2DF982108D773D6D6B460938E5B571FB9ECE6957AD29D90A1EBC4F
310
77364A9C1CA1A759A682EF839FA72269D8C9D92654AD71C72206887E0E0A22CAF926B15E498B01E0AA19451807D01A34B919F16B070157417138917400F2F6FA41FCF0092A45DEE414C19BDC21783E4BD39D891265658C3D8DEA00A3ACE59CBC8678ACB54CB26EEB6BD7839D7E9348BE70AD9C8321B9BCA7F9A4A26C542347
310
DEE050F09802D22BA6749A800A394DD62899107273365E3C82CFC6A55557BC06C10774B7ABE7AEC3B0F34CF06446280E154026D0542C187BA9DAB6628BF7B6DBB0E5A65B3EB1F58631DE64BBE083F7B65CC218087E22CABB042E51D1F2268F1FE12B3EA24D40D63E9CFE00120194D60B9D5BC67FE6D39CDF37E20AF817881F
310
504B0304140006080800B670623B5933D422630500003B100000340000006662782F38353834323741342D343835462D343034322D383541392D4331303331363839454531452F6F626A656374732E786D6CAD575B6FA33814FE2B887D0642934E9B156594264D158D3A534DD4D13E548A0C38942D60649B4EBABF7E3F8321
310
40924EF6928780CDF1B97EE762EFF32E4B8D37CA45C2F21BD3B547A641F39045491EDF98A5DC5AD7A6F1D9F73863B243661A39C9E88DA9B64DDF8B392B0BBD15D12D295339D85DDEFE618890E6D434C2940871638AF08566C426A5641115AF764424B1E3EDCE76ED9AB0CF36E6A47819302D08A7B984A6D8CFC1C5A89572FB
310
CB91E9F89EA3BEFB9EFAD754E3D3544E654F5F7E920B49F2F040D880CDD89D2CEE2E2EA7D6E56432B6269F2E5CEB7679BBB0DCABF168FE693E9FCEEEA6102C240727AD09A75BD3BF876F78127A4EFDA9D5582B7E4CA590E5390D2BFB6161A5B3E618D182E611E2985001691DAB47FDA5AB7CD3F93C566B2DB2BB7D9E55DD13
310
1D468DEECDB3AB290BFE8409E21C54704115AA6AFF68436BFC8DF65E0B184BF5B74418199194272435D224E084BF9B3E481589EFF5D828747285706581E9BB7B7E5D5D911ABFC6EE312DB7659A2A689A7E85EC0DF04FA5A8344BFEA2FCB834E8845895492EAFB541F2BDA0A63FF59C6AD3F7D4637CA13FD68E34B629891172
310
98597F1D183A57B9B75A98FE9765B05BAB7C3C2EBCE0ACA05C2AF8005A4DE09AA7F29216EB9E15397500C6F47CBE77CA7778FE2BD277AF0AE2C693DD6437D1522427B9D8329E2136F6A8FA19A3E6C56ADF0E5F50CF06D48734EDCEBF22F69C56D97EC138153F804B85E6FABFC7AFEFB32E523BE1F3BD372418E363EDCA7548
310
52949E8724474014288D94610BB57C1BEC4C7F854A89CA8E5324F55B871CBC78CE1BBEE3BFE68D6A5589EF3C730474506FCFA8FCF0659516D0ED04580EEA6425581B77CAE797FF4BCECC16EB2FEB926F49481F746159D06D922712BD730FDEAE42BD40F42C7AA5EF3F198F60E86110D6DD20645A9480B795CF95E3E3A659A8
310
C55E724F408873315335CFFB8584874484344D494E59D94869DB90C26A5B64F49C802CAC1D3ABE18A098D3B7444D123D8A9E5AE8F5214F0AE5B2B6E9B575DA3E61CBD3EA2B4009FA940524DD1305FB6A1FB294F14DF0BEA90BA109ECE1481FDC3FFAE8D60E75141700BE82725371B4873751B2DD960265F788137FACE6DD40
310
B575E4F0A5C99F46629D92131467A41EE11ABD8D4CCC039CA0AFB37C93A08B232B8F0AEFCA1E0A1015DF13FC83322B362463652ECF71D3A8B1A7D1BE65DE1D62C44F22C317D35F574FEB16153BA2D13E543D10A80E74C4A65E78A6B7CBCBD1D5DD9DB59C2DAFACC96C3AB566E3F1C29ADCDD5DBAD7D3C9ED7C822ED74F80A6
310
41755310DE4443F44A9E68373FADF6596BFA0F440AE7BECE2727AE9F4F2B1B53B1E7E00CF0DD1E5C65454A339A4BA2D0FBA05ED2EF0443458F47BDBFCA484CCFE0F2ED7E3DD0013B679C7B5499467F0ECEEADDB9CA85A34CE44B99053949D2C1416DB85DE4B136BB7165FBAC0B7AB3542BED4F8CA182A549847A1319316519
310
95A83A67147B9E5101C47487F2485F1ECE38FD568F839204296D3479219888530154036E6528FBFBC66F98E0D4107563A2D7D9AFF8D389681A08F58D89F22693900A3B407754734FC51C10C010D6D640809EE4718AC1BA3ED4AEDB53CA37283F68805A7E4B72CEB0A4EDEAD5DD8C14059A76AFAA56BA6901E13F32BC51C720
310
12AF41295B5BF61BAD3195181FB506E6B40F4C10AF5AF40EF9F5B159AE5DD1F43C72D635E94310D45C2D49785C5D0B94D3B54AB3C5A38349C0587D338AB48C11CBF339599C02CCA54A70A008A8D03C0B2201D5F9EFCF8F9CE12A9A19CB0410789EB32C63B95ECCF455D658BFE0621A3DA32C5075FB101723D77DAE867E7D0F
310
D90444509B44E2151B4DC2290B065803200FBAA9BE9D392A0603F2D5C2D00D6302A615680F66D2FA166E2079D4C551A54AB758161FCEFD4E450A14704CECFEDF504B0304140006080000B670623B000000000000000000000000350000006662782F38353834323741342D343835462D343034322D383541392D4331303331
310
363839454531452F76657274696365732E62696E504B0304140006080800B670623BF270F1330600000004000000360000006662782F38353834323741342D343835462D343034322D383541392D4331303331363839454531452F747269616E676C65732E62696E636660600000504B0304140006080000B670623B000000
310
000000000000000000370000006662782F38353834323741342D343835462D343034322D383541392D4331303331363839454531452F617474726962757465732E62696E504B0304140006080800B670623B08DA0BD19000000041010000360000006662782F38353834323741342D343835462D343034322D383541392D43
310
31303331363839454531452F6469726563746F72792E786D6C858F410AC3201045AF22B36F53E9A60B35CBEEBAE80D244E44489C6234F4F835464A48035D0DF398FF9F8AF63D0E6CC63039F212F8F9020C7D47C6792B21C5FE7403D62A1188E2E60C98D7234A5830286103A55745067B9D86B8A3CF9C7F90C11DE607FB1443
310
96D7B6A82D282E9A152AD114D5EF2CB866EEE831B8EEA07A7BB5A8D7D61A2BAAEB7FD5F70921FF497D00504B0304140006080800B670623BD9A3B367FE000000A00100003B0000006662782F38353834323741342D343835462D343034322D383541392D4331303331363839454531452F7265736F75726365732F636F7265
310
2E786D6C8D504B6E833010BD0A9A6D65B01D0201194711694FD00B586642AD043BF2A7EAF16B122AB5BB6E6646EFA3797AE2F8B5DC8A4FF4C1383B002B291468B59B8C9D0748F1420E501CA5F0CEC55F3228AC5A708015062966EFD27D83B4B3116DCCA875136EA00A012314FA968F0182FEC045952AC5AC08D7F2AEF455CD
310
58B232D3592745883E07289E4FD609D26370C96B0CA27AB252A464A64D63A6FCD35C0C7A904D73EE467EE664DCD58CD4ED4849D79C5A723ED1B7A61977AF2D6F45B59AA58866F9C9A83DAA8813484E6947182394BFB3BAA7FBBEDEBFD0434FA9A856F91F53BA4FFF342563E38E6F719FB60092E5200F428A6AED2BAF479979
310
AFDDCA6F504B010214000A0000080000B670623B3DEE336E79000000790000001B00000000000000000000000000000000006175746F6465736B2D64657369676E2D7061636B6167652E786D6C504B01021400140006080800B670623BD486FD9CA0000000F40000001300000000000000000000000000B20000005B436F6E
310
74656E745F54797065735D2E786D6C504B01021400140006080800B670623BCA089DFFEC0000007C010000080000000000000000000000000083010000636F72652E786D6C504B01021400140006080800B670623B55019EA25F0000007C000000070000000000000000000000000095020000636E782E786D6C504B010214
310
00140006080800B670623B68FC0B7272010000D40300000C00000000000000000000000000190300006662782F636F72652E786D6C504B01021400140006080800B670623B0F71DDB67E0000009D0000000B00000000000000000000000000B50400006662782F636E782E786D6C504B01021400140006080800B670623BE1
310
34B4FB280100001202000031000000000000000000000000005C0500006662782F38353834323741342D343835462D343034322D383541392D4331303331363839454531452F636F72652E786D6C504B01021400140006080800B670623B1B8617914E010000330300003000000000000000000000000000D3060000666278
310
2F38353834323741342D343835462D343034322D383541392D4331303331363839454531452F636E782E786D6C504B01021400140006080800B670623B5933D422630500003B10000034000000000000000000000000006F0800006662782F38353834323741342D343835462D343034322D383541392D4331303331363839
310
454531452F6F626A656374732E786D6C504B01021400140006080000B670623B0000000000000000000000003500000000000000000000000000240E00006662782F38353834323741342D343835462D343034322D383541392D4331303331363839454531452F76657274696365732E62696E504B01021400140006080800
310
B670623BF270F13306000000040000003600000000000000000000000000770E00006662782F38353834323741342D343835462D343034322D383541392D4331303331363839454531452F747269616E676C65732E62696E504B01021400140006080000B670623B0000000000000000000000003700000000000000000000
310
000000D10E00006662782F38353834323741342D343835462D343034322D383541392D4331303331363839454531452F617474726962757465732E62696E504B01021400140006080800B670623B08DA0BD190000000410100003600000000000000000000000000260F00006662782F38353834323741342D343835462D34
310
3034322D383541392D4331303331363839454531452F6469726563746F72792E786D6C504B01021400140006080800B670623BD9A3B367FE000000A00100003B000000000000000000000000000A1000006662782F38353834323741342D343835462D343034322D383541392D4331303331363839454531452F7265736F75
310
726365732F636F72652E786D6C504B0506000000000E000E0080040000611100000000
  0
XRECORD
  5
113
102
{ACAD_REACTORS
330
110
102
}
330
110
100
AcDbXrecord
280
     1
270
     1
271
     1
  0
XRECORD
  5
114
102
{ACAD_REACTORS
330
110
102
}
330
110
100
AcDbXrecord
280
     1
270
     1
271
     1
  0
CELLSTYLEMAP
  5
B464
102
{ACAD_REACTORS
330
104
102
}
330
104
100
AcDbCellStyleMap
 90
        3
300
CELLSTYLE
  1
TABLEFORMAT_BEGIN
 90
        5
170
     1
 91
        0
 92
    32768
 62
   257
 93
        1
300
CONTENTFORMAT
  1
CONTENTFORMAT_BEGIN
 90
        0
 91
        0
 92
      512
 93
        0
300

 40
0.0
140
1.0
 94
        5
 62
     0
340
11
144
0.25
309
CONTENTFORMAT_END
171
     1
301
MARGIN
  1
CELLMARGIN_BEGIN
 40
0.06
 40
0.06
 40
0.06
 40
0.06
 40
0.18
 40
0.18
309
CELLMARGIN_END
 94
        6
 95
        1
302
GRIDFORMAT
  1
GRIDFORMAT_BEGIN
 90
        0
 91
        1
 62
     0
 92
       -2
340
0
 93
        0
 40
0.045
309
GRIDFORMAT_END
 95
        2
302
GRIDFORMAT
  1
GRIDFORMAT_BEGIN
 90
        0
 91
        1
 62
     0
 92
       -2
340
0
 93
        0
 40
0.045
309
GRIDFORMAT_END
 95
        4
302
GRIDFORMAT
  1
GRIDFORMAT_BEGIN
 90
        0
 91
        1
 62
     0
 92
       -2
340
0
 93
        0
 40
0.045
309
GRIDFORMAT_END
 95
        8
302
GRIDFORMAT
  1
GRIDFORMAT_BEGIN
 90
        0
 91
        1
 62
     0
 92
       -2
340
0
 93
        0
 40
0.045
309
GRIDFORMAT_END
 95
       16
302
GRIDFORMAT
  1
GRIDFORMAT_BEGIN
 90
        0
 91
        1
 62
     0
 92
       -2
340
0
 93
        0
 40
0.045
309
GRIDFORMAT_END
 95
       32
302
GRIDFORMAT
  1
GRIDFORMAT_BEGIN
 90
        0
 91
        1
 62
     0
 92
       -2
340
0
 93
        0
 40
0.045
309
GRIDFORMAT_END
309
TABLEFORMAT_END
  1
CELLSTYLE_BEGIN
 90
        1
 91
        1
300
_TITLE
309
CELLSTYLE_END
300
CELLSTYLE
  1
TABLEFORMAT_BEGIN
 90
        5
170
     1
 91
        0
 92
        0
 62
   257
 93
        1
300
CONTENTFORMAT
  1
CONTENTFORMAT_BEGIN
 90
        0
 91
        0
 92
      512
 93
        0
300

 40
0.0
140
1.0
 94
        5
 62
     0
340
11
144
0.18
309
CONTENTFORMAT_END
171
     1
301
MARGIN
  1
CELLMARGIN_BEGIN
 40
0.06
 40
0.06
 40
0.06
 40
0.06
 40
0.18
 40
0.18
309
CELLMARGIN_END
 94
        6
 95
        1
302
GRIDFORMAT
  1
GRIDFORMAT_BEGIN
 90
        0
 91
        1
 62
     0
 92
       -2
340
0
 93
        0
 40
0.045
309
GRIDFORMAT_END
 95
        2
302
GRIDFORMAT
  1
GRIDFORMAT_BEGIN
 90
        0
 91
        1
 62
     0
 92
       -2
340
0
 93
        0
 40
0.045
309
GRIDFORMAT_END
 95
        4
302
GRIDFORMAT
  1
GRIDFORMAT_BEGIN
 90
        0
 91
        1
 62
     0
 92
       -2
340
0
 93
        0
 40
0.045
309
GRIDFORMAT_END
 95
        8
302
GRIDFORMAT
  1
GRIDFORMAT_BEGIN
 90
        0
 91
        1
 62
     0
 92
       -2
340
0
 93
        0
 40
0.045
309
GRIDFORMAT_END
 95
       16
302
GRIDFORMAT
  1
GRIDFORMAT_BEGIN
 90
        0
 91
        1
 62
     0
 92
       -2
340
0
 93
        0
 40
0.045
309
GRIDFORMAT_END
 95
       32
302
GRIDFORMAT
  1
GRIDFORMAT_BEGIN
 90
        0
 91
        1
 62
     0
 92
       -2
340
0
 93
        0
 40
0.045
309
GRIDFORMAT_END
309
TABLEFORMAT_END
  1
CELLSTYLE_BEGIN
 90
        2
 91
        1
300
_HEADER
309
CELLSTYLE_END
300
CELLSTYLE
  1
TABLEFORMAT_BEGIN
 90
        5
170
     1
 91
        0
 92
        0
 62
   257
 93
        1
300
CONTENTFORMAT
  1
CONTENTFORMAT_BEGIN
 90
        0
 91
        0
 92
      512
 93
        0
300

 40
0.0
140
1.0
 94
        2
 62
     0
340
11
144
0.18
309
CONTENTFORMAT_END
171
     1
301
MARGIN
  1
CELLMARGIN_BEGIN
 40
0.06
 40
0.06
 40
0.06
 40
0.06
 40
0.18
 40
0.18
309
CELLMARGIN_END
 94
        6
 95
        1
302
GRIDFORMAT
  1
GRIDFORMAT_BEGIN
 90
        0
 91
        1
 62
     0
 92
       -2
340
0
 93
        0
 40
0.045
309
GRIDFORMAT_END
 95
        2
302
GRIDFORMAT
  1
GRIDFORMAT_BEGIN
 90
        0
 91
        1
 62
     0
 92
       -2
340
0
 93
        0
 40
0.045
309
GRIDFORMAT_END
 95
        4
302
GRIDFORMAT
  1
GRIDFORMAT_BEGIN
 90
        0
 91
        1
 62
     0
 92
       -2
340
0
 93
        0
 40
0.045
309
GRIDFORMAT_END
 95
        8
302
GRIDFORMAT
  1
GRIDFORMAT_BEGIN
 90
        0
 91
        1
 62
     0
 92
       -2
340
0
 93
        0
 40
0.045
309
GRIDFORMAT_END
 95
       16
302
GRIDFORMAT
  1
GRIDFORMAT_BEGIN
 90
        0
 91
        1
 62
     0
 92
       -2
340
0
 93
        0
 40
0.045
309
GRIDFORMAT_END
 95
       32
302
GRIDFORMAT
  1
GRIDFORMAT_BEGIN
 90
        0
 91
        1
 62
     0
 92
       -2
340
0
 93
        0
 40
0.045
309
GRIDFORMAT_END
309
TABLEFORMAT_END
  1
CELLSTYLE_BEGIN
 90
        3
 91
        2
300
_DATA
309
CELLSTYLE_END
  0
ENDSEC
  0
SECTION
  2
ACDSDATA
 70
     2
 71
     8
  0
ACDSSCHEMA
 90
        0
  1
AcDb_Thumbnail_Schema
  2
AcDbDs::ID
280
    10
 91
        8
  2
Thumbnail_Data
280
    15
 91
        0
101
ACDSRECORD
 95
        0
 90
        1
  2
AcDbDs::TreatedAsObjectData
280
     1
291
     1
101
ACDSRECORD
 95
        0
 90
        2
  2
AcDbDs::Legacy
280
     1
291
     1
101
ACDSRECORD
  1
AcDbDs::ID
 90
        3
  2
AcDs:Indexable
280
     1
291
     1
101
ACDSRECORD
  1
AcDbDs::ID
 90
        4
  2
AcDbDs::HandleAttribute
280
     7
282
     1
  0
ACDSSCHEMA
 90
        1
  1
AcDbDs::TreatedAsObjectDataSchema
  2
AcDbDs::TreatedAsObjectData
280
     1
 91
        0
  0
ACDSSCHEMA
 90
        2
  1
AcDbDs::LegacySchema
  2
AcDbDs::Legacy
280
     1
 91
        0
  0
ACDSSCHEMA
 90
        3
  1
AcDbDs::IndexedPropertySchema
  2
AcDs:Indexable
280
     1
 91
        0
  0
ACDSSCHEMA
 90
        4
  1
AcDbDs::HandleAttributeSchema
  2
AcDbDs::HandleAttribute
280
     7
 91
        1
284
     1
  0
ACDSRECORD
 90
        0
  2
AcDbDs::ID
280
    10
320
22
  2
Thumbnail_Data
280
    15
 94
     1299
310
89504E470D0A1A0A0000000D49484452000001000000006D080300000079B14F6400000300504C5445212830FFFFFF2128300000000000000000000000000000000000000000000000000000330000660000990000CC0000FF0033000033330033660033990033CC0033FF0066000066330066660066990066CC0066FF0099
310
000099330099660099990099CC0099FF00CC0000CC3300CC6600CC9900CCCC00CCFF00FF0000FF3300FF6600FF9900FFCC00FFFF3300003300333300663300993300CC3300FF3333003333333333663333993333CC3333FF3366003366333366663366993366CC3366FF3399003399333399663399993399CC3399FF33CC00
310
33CC3333CC6633CC9933CCCC33CCFF33FF0033FF3333FF6633FF9933FFCC33FFFF6600006600336600666600996600CC6600FF6633006633336633666633996633CC6633FF6666006666336666666666996666CC6666FF6699006699336699666699996699CC6699FF66CC0066CC3366CC6666CC9966CCCC66CCFF66FF0066
310
FF3366FF6666FF9966FFCC66FFFF9900009900339900669900999900CC9900FF9933009933339933669933999933CC9933FF9966009966339966669966999966CC9966FF9999009999339999669999999999CC9999FF99CC0099CC3399CC6699CC9999CCCC99CCFF99FF0099FF3399FF6699FF9999FFCC99FFFFCC0000CC00
310
33CC0066CC0099CC00CCCC00FFCC3300CC3333CC3366CC3399CC33CCCC33FFCC6600CC6633CC6666CC6699CC66CCCC66FFCC9900CC9933CC9966CC9999CC99CCCC99FFCCCC00CCCC33CCCC66CCCC99CCCCCCCCCCFFCCFF00CCFF33CCFF66CCFF99CCFFCCCCFFFFFF0000FF0033FF0066FF0099FF00CCFF00FFFF3300FF3333
310
FF3366FF3399FF33CCFF33FFFF6600FF6633FF6666FF6699FF66CCFF66FFFF9900FF9933FF9966FF9999FF99CCFF99FFFFCC00FFCC33FFCC66FFCC99FFCCCCFFCCFFFFFF00FFFF33FFFF66FFFF99FFFFCCFFFFFF0000000D0D0D1A1A1A2828283535354343435050505D5D5D6B6B6B787878868686939393A1A1A1AEAEAEBB
310
BBBBC9C9C9D6D6D6E4E4E4F1F1F1FFFFFF0000000000000000000000000000000000000000000000000000000000002E4550F1000001CE4944415478DAEDDD4B6EC3300C4551EE7FBF77DEC09628F9934E5BE03EA301D25974405114632B557F79F1B9CA7B9DA3F71230078F76FC9FD73109D006C07883760270848015600C
310
DEBA124C803203F47228CE814706B0AE0267FC6B016A25006B2DC856109B6340BD19C2BC1FEC9D903C0568EB801100DA6290AE839CA9600C99510EE952010DC0D817954A608CFFFCEB14806AFEB327807201CC5EF0EC0852BE08D8016A02A842801506AB25620690258131F1B7B54F0750DD0D470BC0BD26F0085CEA7E841B
310
E32B4017823801BA0C10B5475F01D0F447EF9BFFFD5F0F00B7354104F0BC296203F102142280FB8AD76D11C922B00ABF3D26640D81CB924FC92AE147BE637587CD00B6EF06F6CDA0F18E49F6F59FEE0F8A00E0BD1A16A680D285FFDB78B5003801A800A8012837001580009801F86D390C40006465300108804E200072002A
310
00013003500108C02B80E70E29D61373DB65AA04E7F741D286E82AFF718E3F003DEE00D8018A002801EE73400CA09D03098100C8016EE7C805A0A4027A00F5919AD8018A0004C0F6CCF41700F3C1CA7A00F30C08C0769C5800AC00970D410002600550FFC44400ECC7EA220E803E4E523BFEE751123600106F06B787E7C519
310
D0FE435BFFE263FC0075AD78B87100E8910000000049454E44AE426082
  0
ENDSEC
  0
EOF
