  0
SECTION
  2
HEADER
  9
$ACADVER
  1
AC1032
  9
$ACADMAINTVER
 90
      197
  9
$DWGCODEPAGE
  3
ANSI_1252
  9
$LASTSAVEDBY
  1
gregb
  9
$REQUIREDVERSIONS
160
                 0
  9
$INSBASE
 10
0.0
 20
0.0
 30
0.0
  9
$EXTMIN
 10
10424.07395333069
 20
29693.0134799897
 30
0.0
  9
$EXTMAX
 10
10424.64365051267
 20
29694.62025888424
 30
0.0
  9
$LIMMIN
 10
0.0
 20
0.0
  9
$LIMMAX
 10
12.0
 20
9.0
  9
$ORTHOMODE
 70
     1
  9
$REGENMODE
 70
     1
  9
$FILLMODE
 70
     1
  9
$QTEXTMODE
 70
     0
  9
$MIRRTEXT
 70
     0
  9
$LTSCALE
 40
1.0
  9
$ATTMODE
 70
     1
  9
$TEXTSIZE
 40
0.2
  9
$TRACEWID
 40
0.05
  9
$TEXTSTYLE
  7
Standard
  9
$CLAYER
  8
freecads.com
  9
$CELTYPE
  6
ByLayer
  9
$CECOLOR
 62
   256
  9
$CELTSCALE
 40
1.0
  9
$DISPSILH
 70
     1
  9
$DIMSCALE
 40
1.0
  9
$DIMASZ
 40
0.18
  9
$DIMEXO
 40
0.0625
  9
$DIMDLI
 40
0.38
  9
$DIMRND
 40
0.0
  9
$DIMDLE
 40
0.0
  9
$DIMEXE
 40
0.18
  9
$DIMTP
 40
0.0
  9
$DIMTM
 40
0.0
  9
$DIMTXT
 40
0.18
  9
$DIMCEN
 40
0.09
  9
$DIMTSZ
 40
0.0
  9
$DIMTOL
 70
     0
  9
$DIMLIM
 70
     0
  9
$DIMTIH
 70
     1
  9
$DIMTOH
 70
     1
  9
$DIMSE1
 70
     0
  9
$DIMSE2
 70
     0
  9
$DIMTAD
 70
     0
  9
$DIMZIN
 70
     0
  9
$DIMBLK
  1

  9
$DIMASO
 70
     1
  9
$DIMSHO
 70
     1
  9
$DIMPOST
  1

  9
$DIMAPOST
  1

  9
$DIMALT
 70
     0
  9
$DIMALTD
 70
     2
  9
$DIMALTF
 40
25.4
  9
$DIMLFAC
 40
1.0
  9
$DIMTOFL
 70
     0
  9
$DIMTVP
 40
0.0
  9
$DIMTIX
 70
     0
  9
$DIMSOXD
 70
     0
  9
$DIMSAH
 70
     0
  9
$DIMBLK1
  1

  9
$DIMBLK2
  1

  9
$DIMSTYLE
  2
Standard
  9
$DIMCLRD
 70
     0
  9
$DIMCLRE
 70
     0
  9
$DIMCLRT
 70
     0
  9
$DIMTFAC
 40
1.0
  9
$DIMGAP
 40
0.09
  9
$DIMJUST
 70
     0
  9
$DIMSD1
 70
     0
  9
$DIMSD2
 70
     0
  9
$DIMTOLJ
 70
     1
  9
$DIMTZIN
 70
     0
  9
$DIMALTZ
 70
     0
  9
$DIMALTTZ
 70
     0
  9
$DIMUPT
 70
     0
  9
$DIMDEC
 70
     4
  9
$DIMTDEC
 70
     4
  9
$DIMALTU
 70
     2
  9
$DIMALTTD
 70
     2
  9
$DIMTXSTY
  7
Standard
  9
$DIMAUNIT
 70
     0
  9
$DIMADEC
 70
     0
  9
$DIMALTRND
 40
0.0
  9
$DIMAZIN
 70
     0
  9
$DIMDSEP
 70
    46
  9
$DIMATFIT
 70
     3
  9
$DIMFRAC
 70
     0
  9
$DIMLDRBLK
  1

  9
$DIMLUNIT
 70
     2
  9
$DIMLWD
 70
    -2
  9
$DIMLWE
 70
    -2
  9
$DIMTMOVE
 70
     0
  9
$DIMFXL
 40
1.0
  9
$DIMFXLON
 70
     0
  9
$DIMJOGANG
 40
0.7853981633974483
  9
$DIMTFILL
 70
     0
  9
$DIMTFILLCLR
 70
     0
  9
$DIMARCSYM
 70
     0
  9
$DIMLTYPE
  6

  9
$DIMLTEX1
  6

  9
$DIMLTEX2
  6

  9
$DIMTXTDIRECTION
 70
     0
  9
$LUNITS
 70
     2
  9
$LUPREC
 70
     4
  9
$SKETCHINC
 40
0.1
  9
$FILLETRAD
 40
0.0
  9
$AUNITS
 70
     0
  9
$AUPREC
 70
     0
  9
$MENU
  1
.
  9
$ELEVATION
 40
0.0
  9
$PELEVATION
 40
0.0
  9
$THICKNESS
 40
0.0
  9
$LIMCHECK
 70
     0
  9
$CHAMFERA
 40
0.0
  9
$CHAMFERB
 40
0.0
  9
$CHAMFERC
 40
0.0
  9
$CHAMFERD
 40
0.0
  9
$SKPOLY
 70
     0
  9
$TDCREATE
 40
2458157.371250000
  9
$TDUCREATE
 40
2458157.287916667
  9
$TDUPDATE
 40
2461016.542951389
  9
$TDUUPDATE
 40
2461016.459618056
  9
$TDINDWG
 40
0.1127314815
  9
$TDUSRTIMER
 40
0.1127314815
  9
$USRTIMER
 70
     1
  9
$ANGBASE
 50
0.0
  9
$ANGDIR
 70
     0
  9
$PDMODE
 70
     0
  9
$PDSIZE
 40
0.0
  9
$PLINEWID
 40
0.0
  9
$SPLFRAME
 70
     0
  9
$SPLINETYPE
 70
     6
  9
$SPLINESEGS
 70
     8
  9
$HANDSEED
  5
B42F
  9
$SURFTAB1
 70
     6
  9
$SURFTAB2
 70
     6
  9
$SURFTYPE
 70
     6
  9
$SURFU
 70
     6
  9
$SURFV
 70
     6
  9
$UCSBASE
  2

  9
$UCSNAME
  2

  9
$UCSORG
 10
0.0
 20
0.0
 30
0.0
  9
$UCSXDIR
 10
1.0
 20
0.0
 30
0.0
  9
$UCSYDIR
 10
0.0
 20
1.0
 30
0.0
  9
$UCSORTHOREF
  2

  9
$UCSORTHOVIEW
 70
     0
  9
$UCSORGTOP
 10
0.0
 20
0.0
 30
0.0
  9
$UCSORGBOTTOM
 10
0.0
 20
0.0
 30
0.0
  9
$UCSORGLEFT
 10
0.0
 20
0.0
 30
0.0
  9
$UCSORGRIGHT
 10
0.0
 20
0.0
 30
0.0
  9
$UCSORGFRONT
 10
0.0
 20
0.0
 30
0.0
  9
$UCSORGBACK
 10
0.0
 20
0.0
 30
0.0
  9
$PUCSBASE
  2

  9
$PUCSNAME
  2

  9
$PUCSORG
 10
0.0
 20
0.0
 30
0.0
  9
$PUCSXDIR
 10
1.0
 20
0.0
 30
0.0
  9
$PUCSYDIR
 10
0.0
 20
1.0
 30
0.0
  9
$PUCSORTHOREF
  2

  9
$PUCSORTHOVIEW
 70
     0
  9
$PUCSORGTOP
 10
0.0
 20
0.0
 30
0.0
  9
$PUCSORGBOTTOM
 10
0.0
 20
0.0
 30
0.0
  9
$PUCSORGLEFT
 10
0.0
 20
0.0
 30
0.0
  9
$PUCSORGRIGHT
 10
0.0
 20
0.0
 30
0.0
  9
$PUCSORGFRONT
 10
0.0
 20
0.0
 30
0.0
  9
$PUCSORGBACK
 10
0.0
 20
0.0
 30
0.0
  9
$USERI1
 70
     0
  9
$USERI2
 70
     0
  9
$USERI3
 70
     0
  9
$USERI4
 70
     0
  9
$USERI5
 70
     0
  9
$USERR1
 40
0.0
  9
$USERR2
 40
0.0
  9
$USERR3
 40
0.0
  9
$USERR4
 40
0.0
  9
$USERR5
 40
0.0
  9
$WORLDVIEW
 70
     1
  9
$SHADEDGE
 70
     3
  9
$SHADEDIF
 70
    70
  9
$TILEMODE
 70
     1
  9
$MAXACTVP
 70
    64
  9
$PINSBASE
 10
0.0
 20
0.0
 30
0.0
  9
$PLIMCHECK
 70
     0
  9
$PEXTMIN
 10
0.0
 20
0.0
 30
0.0
  9
$PEXTMAX
 10
0.0
 20
0.0
 30
0.0
  9
$PLIMMIN
 10
0.0
 20
0.0
  9
$PLIMMAX
 10
12.0
 20
9.0
  9
$UNITMODE
 70
     0
  9
$VISRETAIN
 70
     1
  9
$PLINEGEN
 70
     0
  9
$PSLTSCALE
 70
     1
  9
$TREEDEPTH
 70
  3020
  9
$CMLSTYLE
  2
Standard
  9
$CMLJUST
 70
     0
  9
$CMLSCALE
 40
1.0
  9
$PROXYGRAPHICS
 70
     1
  9
$MEASUREMENT
 70
     0
  9
$CELWEIGHT
370
    -1
  9
$ENDCAPS
280
     0
  9
$JOINSTYLE
280
     0
  9
$LWDISPLAY
290
     0
  9
$INSUNITS
 70
     1
  9
$HYPERLINKBASE
  1

  9
$STYLESHEET
  1
monochrome.ctb
  9
$XEDIT
290
     1
  9
$CEPSNTYPE
380
     0
  9
$PSTYLEMODE
290
     1
  9
$FINGERPRINTGUID
  2
{358EB121-6EE0-9143-8A3E-6E8E8869FDA6}
  9
$VERSIONGUID
  2
{61108337-C37B-CB4F-8CE4-08EE0D44B7C9}
  9
$EXTNAMES
290
     1
  9
$PSVPSCALE
 40
0.0
  9
$OLESTARTUP
290
     0
  9
$SORTENTS
280
   127
  9
$INDEXCTL
280
     0
  9
$HIDETEXT
280
     1
  9
$XCLIPFRAME
280
     2
  9
$HALOGAP
280
     0
  9
$OBSCOLOR
 70
   257
  9
$OBSLTYPE
280
     0
  9
$INTERSECTIONDISPLAY
280
     0
  9
$INTERSECTIONCOLOR
 70
   257
  9
$DIMASSOC
280
     2
  9
$PROJECTNAME
  1

  9
$CAMERADISPLAY
290
     0
  9
$LENSLENGTH
 40
50.0
  9
$CAMERAHEIGHT
 40
0.0
  9
$STEPSPERSEC
 40
2.0
  9
$STEPSIZE
 40
6.0
  9
$3DDWFPREC
 40
2.0
  9
$PSOLWIDTH
 40
0.25
  9
$PSOLHEIGHT
 40
4.0
  9
$LOFTANG1
 40
1.570796326794896
  9
$LOFTANG2
 40
1.570796326794896
  9
$LOFTMAG1
 40
0.0
  9
$LOFTMAG2
 40
0.0
  9
$LOFTPARAM
 70
     7
  9
$LOFTNORMALS
280
     1
  9
$LATITUDE
 40
37.795
  9
$LONGITUDE
 40
-122.394
  9
$NORTHDIRECTION
 40
0.0
  9
$TIMEZONE
 70
 -8000
  9
$LIGHTGLYPHDISPLAY
280
     1
  9
$TILEMODELIGHTSYNCH
280
     1
  9
$CMATERIAL
347
96
  9
$SOLIDHIST
280
     0
  9
$SHOWHIST
280
     1
  9
$DWFFRAME
280
     2
  9
$DGNFRAME
280
     0
  9
$REALWORLDSCALE
290
     1
  9
$INTERFERECOLOR
 62
     1
  9
$INTERFEREOBJVS
345
A3
  9
$INTERFEREVPVS
346
A0
  9
$CSHADOW
280
     0
  9
$SHADOWPLANELOCATION
 40
0.0
  0
ENDSEC
  0
SECTION
  2
CLASSES
  0
CLASS
  1
ACDBDICTIONARYWDFLT
  2
AcDbDictionaryWithDefault
  3
ObjectDBX Classes
 90
        0
 91
        1
280
     0
281
     0
  0
CLASS
  1
DICTIONARYVAR
  2
AcDbDictionaryVar
  3
ObjectDBX Classes
 90
        0
 91
        9
280
     0
281
     0
  0
CLASS
  1
TABLESTYLE
  2
AcDbTableStyle
  3
ObjectDBX Classes
 90
     4095
 91
        1
280
     0
281
     0
  0
CLASS
  1
MATERIAL
  2
AcDbMaterial
  3
ObjectDBX Classes
 90
     1153
 91
        3
280
     0
281
     0
  0
CLASS
  1
VISUALSTYLE
  2
AcDbVisualStyle
  3
ObjectDBX Classes
 90
     4095
 91
       25
280
     0
281
     0
  0
CLASS
  1
SCALE
  2
AcDbScale
  3
ObjectDBX Classes
 90
     1153
 91
       35
280
     0
281
     0
  0
CLASS
  1
MLEADERSTYLE
  2
AcDbMLeaderStyle
  3
ACDB_MLEADERSTYLE_CLASS
 90
     4095
 91
        1
280
     0
281
     0
  0
CLASS
  1
CELLSTYLEMAP
  2
AcDbCellStyleMap
  3
ObjectDBX Classes
 90
     1152
 91
        1
280
     0
281
     0
  0
CLASS
  1
EXACXREFPANELOBJECT
  2
ExAcXREFPanelObject
  3
EXAC_ESW
 90
     1025
 91
        0
280
     0
281
     0
  0
CLASS
  1
NPOCOLLECTION
  2
AcDbImpNonPersistentObjectsCollection
  3
ObjectDBX Classes
 90
     1153
 91
        0
280
     0
281
     0
  0
CLASS
  1
LAYER_INDEX
  2
AcDbLayerIndex
  3
ObjectDBX Classes
 90
        0
 91
        0
280
     0
281
     0
  0
CLASS
  1
SPATIAL_INDEX
  2
AcDbSpatialIndex
  3
ObjectDBX Classes
 90
        0
 91
        0
280
     0
281
     0
  0
CLASS
  1
IDBUFFER
  2
AcDbIdBuffer
  3
ObjectDBX Classes
 90
        0
 91
        0
280
     0
281
     0
  0
CLASS
  1
ACDBSECTIONVIEWSTYLE
  2
AcDbSectionViewStyle
  3
ObjectDBX Classes
 90
     1025
 91
        2
280
     0
281
     0
  0
CLASS
  1
ACDBDETAILVIEWSTYLE
  2
AcDbDetailViewStyle
  3
ObjectDBX Classes
 90
     1025
 91
        2
280
     0
281
     0
  0
CLASS
  1
SORTENTSTABLE
  2
AcDbSortentsTable
  3
ObjectDBX Classes
 90
        0
 91
        1
280
     0
281
     0
  0
CLASS
  1
SPATIAL_FILTER
  2
AcDbSpatialFilter
  3
ObjectDBX Classes
 90
        0
 91
        0
280
     0
281
     0
  0
CLASS
  1
SOLID_BACKGROUND
  2
AcDbSolidBackground
  3
SCENEOE
 90
     4095
 91
        0
280
     0
281
     0
  0
ENDSEC
  0
SECTION
  2
TABLES
  0
TABLE
  2
VPORT
  5
8
330
0
100
AcDbSymbolTable
 70
     1
  0
VPORT
  5
94
330
8
100
AcDbSymbolTableRecord
100
AcDbViewportTableRecord
  2
*Active
 70
     0
 10
0.0
 20
0.0
 11
1.0
 21
1.0
 12
10424.35880192168
 22
29693.9426885387
 13
0.0
 23
0.0
 14
0.5
 24
0.5
 15
0.5
 25
0.5
 16
0.0
 26
0.0
 36
1.0
 17
0.0
 27
0.0
 37
0.0
 40
1.802463295991358
 41
2.066284779050736
 42
50.0
 43
0.0
 44
0.0
 50
0.0
 51
0.0
 71
     0
 72
  1000
 73
     1
 74
     3
 75
     0
 76
     0
 77
     0
 78
     0
281
     0
 65
     1
110
0.0
120
0.0
130
0.0
111
1.0
121
0.0
131
0.0
112
0.0
122
1.0
132
0.0
 79
     0
146
0.0
348
9F
 60
     3
 61
     5
292
     1
282
     1
141
0.0
142
0.0
 63
   250
421
  3355443
1001
ACAD_NAV_VCDISPLAY
1070
     3
  0
ENDTAB
  0
TABLE
  2
LTYPE
  5
5
330
0
100
AcDbSymbolTable
 70
     1
  0
LTYPE
  5
14
330
5
100
AcDbSymbolTableRecord
100
AcDbLinetypeTableRecord
  2
ByBlock
 70
     0
  3

 72
    65
 73
     0
 40
0.0
  0
LTYPE
  5
15
330
5
100
AcDbSymbolTableRecord
100
AcDbLinetypeTableRecord
  2
ByLayer
 70
     0
  3

 72
    65
 73
     0
 40
0.0
  0
LTYPE
  5
16
330
5
100
AcDbSymbolTableRecord
100
AcDbLinetypeTableRecord
  2
Continuous
 70
     0
  3
Solid line
 72
    65
 73
     0
 40
0.0
  0
ENDTAB
  0
TABLE
  2
LAYER
  5
2
102
{ACAD_XDICTIONARY
360
18E
102
}
330
0
100
AcDbSymbolTable
 70
     2
  0
LAYER
  5
10
102
{ACAD_XDICTIONARY
360
E6
102
}
330
2
100
AcDbSymbolTableRecord
100
AcDbLayerTableRecord
  2
0
 70
     0
 62
     7
  6
Continuous
370
    -3
390
F
347
98
348
0
  0
LAYER
  5
204
330
2
100
AcDbSymbolTableRecord
100
AcDbLayerTableRecord
  2
freecads.com
 70
     0
 62
     7
  6
Continuous
370
    -3
390
F
347
98
348
0
1001
AcAecLayerStandard
1000

1000

1001
AcCmTransparency
1071
        0
  0
ENDTAB
  0
TABLE
  2
STYLE
  5
3
330
0
100
AcDbSymbolTable
 70
     1
  0
STYLE
  5
11
330
3
100
AcDbSymbolTableRecord
100
AcDbTextStyleTableRecord
  2
Standard
 70
     0
 40
0.0
 41
1.0
 50
0.0
 71
     0
 42
0.2
  3
arial.ttf
  4

1001
ACAD
1000
Arial
1071
       34
  0
ENDTAB
  0
TABLE
  2
VIEW
  5
6
330
0
100
AcDbSymbolTable
 70
     0
  0
ENDTAB
  0
TABLE
  2
UCS
  5
7
330
0
100
AcDbSymbolTable
 70
     0
  0
ENDTAB
  0
TABLE
  2
APPID
  5
9
330
0
100
AcDbSymbolTable
 70
    23
  0
APPID
  5
12
330
9
100
AcDbSymbolTableRecord
100
AcDbRegAppTableRecord
  2
ACAD
 70
     0
  0
APPID
  5
DD
330
9
100
AcDbSymbolTableRecord
100
AcDbRegAppTableRecord
  2
AcadAnnoPO
 70
     0
  0
APPID
  5
DE
330
9
100
AcDbSymbolTableRecord
100
AcDbRegAppTableRecord
  2
AcadAnnotative
 70
     0
  0
APPID
  5
DF
330
9
100
AcDbSymbolTableRecord
100
AcDbRegAppTableRecord
  2
ACAD_DSTYLE_DIMJAG
 70
     0
  0
APPID
  5
E0
330
9
100
AcDbSymbolTableRecord
100
AcDbRegAppTableRecord
  2
ACAD_DSTYLE_DIMTALN
 70
     0
  0
APPID
  5
107
330
9
100
AcDbSymbolTableRecord
100
AcDbRegAppTableRecord
  2
ACAD_MLEADERVER
 70
     0
  0
APPID
  5
1A6
330
9
100
AcDbSymbolTableRecord
100
AcDbRegAppTableRecord
  2
ACAD_NAV_VCDISPLAY
 70
     0
  0
APPID
  5
205
330
9
100
AcDbSymbolTableRecord
100
AcDbRegAppTableRecord
  2
AcAecLayerStandard
 70
     0
  0
APPID
  5
206
330
9
100
AcDbSymbolTableRecord
100
AcDbRegAppTableRecord
  2
AcCmTransparency
 70
     0
  0
APPID
  5
222
330
9
100
AcDbSymbolTableRecord
100
AcDbRegAppTableRecord
  2
ACAD_PSEXT
 70
     0
  0
APPID
  5
2DA
330
9
100
AcDbSymbolTableRecord
100
AcDbRegAppTableRecord
  2
GradientColor1ACI
 70
     0
  0
APPID
  5
2DB
330
9
100
AcDbSymbolTableRecord
100
AcDbRegAppTableRecord
  2
GradientColor2ACI
 70
     0
  0
APPID
  5
2F3
330
9
100
AcDbSymbolTableRecord
100
AcDbRegAppTableRecord
  2
ACAD_EXEMPT_FROM_CAD_STANDARDS
 70
     0
  0
APPID
  5
A1A
330
9
100
AcDbSymbolTableRecord
100
AcDbRegAppTableRecord
  2
AcDbBlockRepETag
 70
     0
  0
APPID
  5
228C
330
9
100
AcDbSymbolTableRecord
100
AcDbRegAppTableRecord
  2
RAK
 70
     0
  0
APPID
  5
2683
330
9
100
AcDbSymbolTableRecord
100
AcDbRegAppTableRecord
  2
ACAD_DSTYLE_DIMJOGGED_JOGANGLE_SYMBOL
 70
     0
  0
APPID
  5
47CF
330
9
100
AcDbSymbolTableRecord
100
AcDbRegAppTableRecord
  2
ACAD_DSTYLE_DIMBREAK
 70
     0
  0
APPID
  5
47D0
330
9
100
AcDbSymbolTableRecord
100
AcDbRegAppTableRecord
  2
AcDbDynamicBlockGUID
 70
     0
  0
APPID
  5
8BD5
330
9
100
AcDbSymbolTableRecord
100
AcDbRegAppTableRecord
  2
AcLayerTools
 70
     0
  0
APPID
  5
92D9
330
9
100
AcDbSymbolTableRecord
100
AcDbRegAppTableRecord
  2
AutoGrph01
 70
     0
  0
APPID
  5
92DA
330
9
100
AcDbSymbolTableRecord
100
AcDbRegAppTableRecord
  2
AutoGrphVars
 70
     0
  0
APPID
  5
92DB
330
9
100
AcDbSymbolTableRecord
100
AcDbRegAppTableRecord
  2
AutoGrphZ
 70
     0
  0
APPID
  5
92DC
330
9
100
AcDbSymbolTableRecord
100
AcDbRegAppTableRecord
  2
AutoGrph05
 70
     0
  0
ENDTAB
  0
TABLE
  2
DIMSTYLE
  5
A
330
0
100
AcDbSymbolTable
 70
     1
100
AcDbDimStyleTable
 71
     1
340
27
  0
DIMSTYLE
105
27
330
A
100
AcDbSymbolTableRecord
100
AcDbDimStyleTableRecord
  2
Standard
 70
     0
340
11
  0
ENDTAB
  0
TABLE
  2
BLOCK_RECORD
  5
1
330
0
100
AcDbSymbolTable
 70
     1
  0
BLOCK_RECORD
  5
1F
102
{ACAD_XDICTIONARY
360
15D
102
}
330
1
100
AcDbSymbolTableRecord
100
AcDbBlockTableRecord
  2
*Model_Space
340
22
 70
     0
280
     1
281
     0
  0
BLOCK_RECORD
  5
58
330
1
100
AcDbSymbolTableRecord
100
AcDbBlockTableRecord
  2
*Paper_Space
340
59
 70
     0
280
     1
281
     0
  0
BLOCK_RECORD
  5
5D
330
1
100
AcDbSymbolTableRecord
100
AcDbBlockTableRecord
  2
*Paper_Space0
340
5E
 70
     0
280
     1
281
     0
  0
ENDTAB
  0
ENDSEC
  0
SECTION
  2
BLOCKS
  0
BLOCK
  5
20
330
1F
100
AcDbEntity
  8
0
100
AcDbBlockBegin
  2
*Model_Space
 70
     0
 10
0.0
 20
0.0
 30
0.0
  3
*Model_Space
  1

  0
ENDBLK
  5
21
330
1F
100
AcDbEntity
  8
0
100
AcDbBlockEnd
  0
BLOCK
  5
5A
330
58
100
AcDbEntity
 67
     1
  8
0
100
AcDbBlockBegin
  2
*Paper_Space
 70
     0
 10
0.0
 20
0.0
 30
0.0
  3
*Paper_Space
  1

  0
ENDBLK
  5
5B
330
58
100
AcDbEntity
 67
     1
  8
0
100
AcDbBlockEnd
  0
BLOCK
  5
5F
330
5D
100
AcDbEntity
 67
     1
  8
0
100
AcDbBlockBegin
  2
*Paper_Space0
 70
     0
 10
0.0
 20
0.0
 30
0.0
  3
*Paper_Space0
  1

  0
ENDBLK
  5
60
330
5D
100
AcDbEntity
 67
     1
  8
0
100
AcDbBlockEnd
  0
ENDSEC
  0
SECTION
  2
ENTITIES
  0
ELLIPSE
  5
B2B9
330
1F
100
AcDbEntity
  8
freecads.com
 48
5.0
100
AcDbEllipse
 10
10424.24364823408
 20
29693.95964754418
 30
0.0
 11
0.0291400764743452
 21
0.0040527366848542
 31
0.0
210
0.0
220
0.0
230
1.0
 40
0.8116832302218776
 41
-0.0000000023683868
 42
6.283185304811199
1001
AcDbBlockRepETag
1070
     1
1071
       26
1005
B2B9
  0
ARC
  5
B2BA
330
1F
100
AcDbEntity
  8
freecads.com
 48
5.0
100
AcDbCircle
 10
10424.116282391
 20
29694.52170229435
 30
0.0
 40
0.006328196945477
100
AcDbArc
 50
145.0438876515388
 51
293.1777820516095
1001
AcDbBlockRepETag
1070
     1
1071
        0
1005
0
  0
ARC
  5
B2BB
330
1F
100
AcDbEntity
  8
freecads.com
 48
5.0
100
AcDbCircle
 10
10424.17032732512
 20
29694.52792847674
 30
0.0
 40
0.0592885248727702
100
AcDbArc
 50
141.3742705179642
 51
182.5138522818741
1001
AcDbBlockRepETag
1070
     1
1071
        0
1005
0
  0
ARC
  5
B2BC
330
1F
100
AcDbEntity
  8
freecads.com
 48
5.0
100
AcDbCircle
 10
10424.35324884343
 20
29694.40668770775
 30
0.0
 40
0.2785574187199575
100
AcDbArc
 50
134.6265499561177
 51
145.3816601190473
1001
AcDbBlockRepETag
1070
     1
1071
        0
1005
0
  0
ARC
  5
B2BD
330
1F
100
AcDbEntity
  8
freecads.com
 48
5.0
100
AcDbCircle
 10
10424.16867942702
 20
29694.70489600919
 30
0.0
 40
0.100574604739094
100
AcDbArc
 50
263.6564807769844
 51
289.625294789325
1001
AcDbBlockRepETag
1070
     1
1071
        0
1005
0
  0
ARC
  5
B2BE
330
1F
100
AcDbEntity
  8
freecads.com
 48
5.0
100
AcDbCircle
 10
10424.42116318528
 20
29693.99682857841
 30
0.0
 40
0.651161741809918
100
AcDbArc
 50
108.2216444019876
 51
109.6252948298044
1001
AcDbBlockRepETag
1070
     1
1071
        0
1005
0
  0
ARC
  5
B2BF
330
1F
100
AcDbEntity
  8
freecads.com
 48
5.0
100
AcDbCircle
 10
10424.2536807546
 20
29694.50558146799
 30
0.0
 40
0.1155500660197603
100
AcDbArc
 50
97.04605810502473
 51
108.2216443825755
1001
AcDbBlockRepETag
1070
     1
1071
        0
1005
0
  0
ARC
  5
B2C0
330
1F
100
AcDbEntity
  8
freecads.com
 48
5.0
100
AcDbCircle
 10
10424.23494877027
 20
29694.5687612327
 30
0.0
 40
0.0516989507477991
100
AcDbArc
 50
36.38851490432717
 51
84.94223309796563
1001
AcDbBlockRepETag
1070
     1
1071
        0
1005
0
  0
ARC
  5
B2C1
330
1F
100
AcDbEntity
  8
freecads.com
 48
5.0
100
AcDbCircle
 10
10424.21487743627
 20
29694.51883776267
 30
0.0
 40
0.1014940770825426
100
AcDbArc
 50
11.16570907051219
 51
52.56830171576861
1001
AcDbBlockRepETag
1070
     1
1071
        0
1005
0
  0
ARC
  5
B2C2
330
1F
100
AcDbEntity
  8
freecads.com
 48
5.0
100
AcDbCircle
 10
10424.40379516294
 20
29694.53459903642
 30
0.0
 40
0.0894295722003151
100
AcDbArc
 50
177.5051883647389
 51
204.0687204585898
1001
AcDbBlockRepETag
1070
     1
1071
        0
1005
0
  0
ARC
  5
B2C3
330
1F
100
AcDbEntity
  8
freecads.com
 48
5.0
100
AcDbCircle
 10
10424.29253177602
 20
29694.47229853681
 30
0.0
 40
0.0392911833516054
100
AcDbArc
 50
350.3700175338219
 51
41.0984559507056
1001
AcDbBlockRepETag
1070
     1
1071
        0
1005
0
  0
ARC
  5
B2C4
330
1F
100
AcDbEntity
  8
freecads.com
 48
5.0
100
AcDbCircle
 10
10424.28352704309
 20
29694.48083429778
 30
0.0
 40
0.0500758568060202
100
AcDbArc
 50
289.5617860405836
 51
342.4394362147319
1001
AcDbBlockRepETag
1070
     1
1071
        0
1005
0
  0
ARC
  5
B2C5
330
1F
100
AcDbEntity
  8
freecads.com
 48
5.0
100
AcDbCircle
 10
10424.04526099683
 20
29694.59433853274
 30
0.0
 40
0.1260235896251157
100
AcDbArc
 50
327.2417006413138
 51
353.1339164376376
1001
AcDbBlockRepETag
1070
     1
1071
        1
1005
0
  0
ARC
  5
B2C6
330
1F
100
AcDbEntity
  8
freecads.com
 48
5.0
100
AcDbCircle
 10
10424.12523428644
 20
29694.53431004117
 30
0.0
 40
0.0272583852765661
100
AcDbArc
 50
303.7933107341985
 51
342.5756883141604
1001
AcDbBlockRepETag
1070
     1
1071
        1
1005
0
  0
ARC
  5
B2C7
330
1F
100
AcDbEntity
  8
freecads.com
 48
5.0
100
AcDbCircle
 10
9856.66696609584
 20
30305.63101784252
 30
0.0
 40
833.9622090651692
100
AcDbArc
 50
312.8778431391474
 51
312.8791780509315
1001
AcDbBlockRepETag
1070
     1
1071
        1
1005
0
  0
ARC
  5
B2C8
330
1F
100
AcDbEntity
  8
freecads.com
 48
5.0
100
AcDbCircle
 10
10424.12067437722
 20
29694.50640258235
 30
0.0
 40
0.0096710136461771
100
AcDbArc
 50
101.3380771834442
 51
304.5350857508814
1001
AcDbBlockRepETag
1070
     1
1071
        1
1005
0
  0
ARC
  5
B2C9
330
1F
100
AcDbEntity
  8
freecads.com
 48
5.0
100
AcDbCircle
 10
10424.15212068541
 20
29694.49691474231
 30
0.0
 40
0.0383657175010358
100
AcDbArc
 50
85.67955933854515
 51
150.3661889274371
1001
AcDbBlockRepETag
1070
     1
1071
        1
1005
0
  0
ARC
  5
B2CA
330
1F
100
AcDbEntity
  8
freecads.com
 48
5.0
100
AcDbCircle
 10
10424.2243228099
 20
29694.61481446277
 30
0.0
 40
0.0935720855039336
100
AcDbArc
 50
237.8370376968493
 51
267.95314543982
1001
AcDbBlockRepETag
1070
     1
1071
        2
1005
0
  0
ARC
  5
B2CB
330
1F
100
AcDbEntity
  8
freecads.com
 48
5.0
100
AcDbCircle
 10
10424.24302343816
 20
29694.49265274711
 30
0.0
 40
0.0361478324030168
100
AcDbArc
 50
57.74838521578035
 51
127.574585376664
1001
AcDbBlockRepETag
1070
     1
1071
        2
1005
0
  0
ARC
  5
B2CC
330
1F
100
AcDbEntity
  8
freecads.com
 48
5.0
100
AcDbCircle
 10
10424.23954995683
 20
29694.43374170833
 30
0.0
 40
0.0803559757443932
100
AcDbArc
 50
73.03489248985464
 51
102.7685945871176
1001
AcDbBlockRepETag
1070
     1
1071
        3
1005
0
  0
ARC
  5
B2CD
330
1F
100
AcDbEntity
  8
freecads.com
 48
5.0
100
AcDbCircle
 10
10424.22372262602
 20
29694.50764980603
 30
0.0
 40
0.0048613258158472
100
AcDbArc
 50
113.4230683939208
 51
226.1066116372981
1001
AcDbBlockRepETag
1070
     1
1071
        3
1005
0
  0
ARC
  5
B2CE
330
1F
100
AcDbEntity
  8
freecads.com
 48
5.0
100
AcDbCircle
 10
10424.52333786621
 20
29695.17317116353
 30
0.0
 40
0.7344346234436094
100
AcDbArc
 50
245.6353324548937
 51
248.1244603062839
1001
AcDbBlockRepETag
1070
     1
1071
        3
1005
0
  0
ARC
  5
B2CF
330
1F
100
AcDbEntity
  8
freecads.com
 48
5.0
100
AcDbCircle
 10
10424.24946665384
 20
29694.52058393899
 30
0.0
 40
0.0289656191194682
100
AcDbArc
 50
270.449042570291
 51
304.632356425594
1001
AcDbBlockRepETag
1070
     1
1071
        3
1005
0
  0
ARC
  5
B2D0
330
1F
100
AcDbEntity
  8
freecads.com
 48
5.0
100
AcDbCircle
 10
10424.27480533304
 20
29694.4617426555
 30
0.0
 40
0.0361159314959076
100
AcDbArc
 50
48.21423637984352
 51
104.2290763054958
1001
AcDbBlockRepETag
1070
     1
1071
        3
1005
0
  0
ARC
  5
B2D1
330
1F
100
AcDbEntity
  8
freecads.com
 48
5.0
100
AcDbCircle
 10
10424.20085568717
 20
29694.3921928402
 30
0.0
 40
0.0897211272781303
100
AcDbArc
 50
89.04910885272974
 51
108.5081725434643
1001
AcDbBlockRepETag
1070
     1
1071
        4
1005
0
  0
ARC
  5
B2D2
330
1F
100
AcDbEntity
  8
freecads.com
 48
5.0
100
AcDbCircle
 10
10424.18605169104
 20
29694.49082262345
 30
0.0
 40
0.0185753832266748
100
AcDbArc
 50
280.6231506515826
 51
331.2976218518155
1001
AcDbBlockRepETag
1070
     1
1071
        4
1005
0
  0
ARC
  5
B2D3
330
1F
100
AcDbEntity
  8
freecads.com
 48
5.0
100
AcDbCircle
 10
10424.19116220576
 20
29694.48316595956
 30
0.0
 40
0.0107336244202454
100
AcDbArc
 50
204.0194698352665
 51
260.9618314645325
1001
AcDbBlockRepETag
1070
     1
1071
        4
1005
0
  0
ARC
  5
B2D4
330
1F
100
AcDbEntity
  8
freecads.com
 48
5.0
100
AcDbCircle
 10
10424.1768716706
 20
29694.46621310677
 30
0.0
 40
0.0322054604144641
100
AcDbArc
 50
102.4742580147095
 51
125.222851366171
1001
AcDbBlockRepETag
1070
     1
1071
        5
1005
0
  0
ARC
  5
B2D5
330
1F
100
AcDbEntity
  8
freecads.com
 48
5.0
100
AcDbCircle
 10
10424.1706510633
 20
29694.66083858521
 30
0.0
 40
0.1631819463741508
100
AcDbArc
 50
269.7416469552828
 51
277.0077991719537
1001
AcDbBlockRepETag
1070
     1
1071
        5
1005
0
  0
ARC
  5
B2D6
330
1F
100
AcDbEntity
  8
freecads.com
 48
5.0
100
AcDbCircle
 10
10424.19338982808
 20
29694.49716596729
 30
0.0
 40
0.0033062248009635
100
AcDbArc
 50
309.2819049779964
 51
148.8607644665397
1001
AcDbBlockRepETag
1070
     1
1071
        5
1005
0
  0
ARC
  5
B2D7
330
1F
100
AcDbEntity
  8
freecads.com
 48
5.0
100
AcDbCircle
 10
10424.19504876697
 20
29694.45900875524
 30
0.0
 40
0.0356007109267321
100
AcDbArc
 50
89.30093574108839
 51
106.4140292515274
1001
AcDbBlockRepETag
1070
     1
1071
        5
1005
0
  0
ARC
  5
B2D8
330
1F
100
AcDbEntity
  8
freecads.com
 48
5.0
100
AcDbCircle
 10
10424.21905457642
 20
29694.18974878484
 30
0.0
 40
0.305316165571695
100
AcDbArc
 50
96.40612991916015
 51
100.3355369240098
1001
AcDbBlockRepETag
1070
     1
1071
        5
1005
0
  0
ARC
  5
B2D9
330
1F
100
AcDbEntity
  8
freecads.com
 48
5.0
100
AcDbCircle
 10
10424.16184535008
 20
29694.49270129447
 30
0.0
 40
0.0035529572743925
100
AcDbArc
 50
182.8888842051051
 51
313.1899795096856
1001
AcDbBlockRepETag
1070
     1
1071
        5
1005
0
  0
ARC
  5
B2DA
330
1F
100
AcDbEntity
  8
freecads.com
 48
5.0
100
AcDbCircle
 10
10424.1525209728
 20
29694.67571290808
 30
0.0
 40
0.2491773120542887
100
AcDbArc
 50
272.5337288575915
 51
276.2988994694731
1001
AcDbBlockRepETag
1070
     1
1071
        6
1005
0
  0
ARC
  5
B2DB
330
1F
100
AcDbEntity
  8
freecads.com
 48
5.0
100
AcDbCircle
 10
10424.1973956969
 20
29694.23637181869
 30
0.0
 40
0.1924685873919764
100
AcDbArc
 50
90.36620311927944
 51
95.22757769856616
1001
AcDbBlockRepETag
1070
     1
1071
        6
1005
0
  0
ARC
  5
B2DC
330
1F
100
AcDbEntity
  8
freecads.com
 48
5.0
100
AcDbCircle
 10
10423.99551658872
 20
29695.05453044493
 30
0.0
 40
0.6570791052885859
100
AcDbArc
 50
286.1255518712943
 51
287.7801247213414
1001
AcDbBlockRepETag
1070
     1
1071
        6
1005
0
  0
ARC
  5
B2DD
330
1F
100
AcDbEntity
  8
freecads.com
 48
5.0
100
AcDbCircle
 10
10424.18162892839
 20
29694.40836821625
 30
0.0
 40
0.0153664708106726
100
AcDbArc
 50
103.599418144921
 51
128.9030443891587
1001
AcDbBlockRepETag
1070
     1
1071
        6
1005
0
  0
ARC
  5
B2DE
330
1F
100
AcDbEntity
  8
freecads.com
 48
5.0
100
AcDbCircle
 10
10424.21470363104
 20
29694.48482165918
 30
0.0
 40
0.0773630199533693
100
AcDbArc
 50
236.4774364134289
 51
242.8635280190163
1001
AcDbBlockRepETag
1070
     1
1071
        6
1005
0
  0
ARC
  5
B2DF
330
1F
100
AcDbEntity
  8
freecads.com
 48
5.0
100
AcDbCircle
 10
10424.18756031553
 20
29694.49225450159
 30
0.0
 40
0.0767133369468017
100
AcDbArc
 50
263.9067790075379
 51
271.8967080702746
1001
AcDbBlockRepETag
1070
     1
1071
        6
1005
0
  0
ARC
  5
B2E0
330
1F
100
AcDbEntity
  8
freecads.com
 48
5.0
100
AcDbCircle
 10
10424.17812349205
 20
29694.42839506792
 30
0.0
 40
0.0175375423148627
100
AcDbArc
 50
262.9778460375312
 51
313.0683293930463
1001
AcDbBlockRepETag
1070
     1
1071
        6
1005
0
  0
ARC
  5
B2E1
330
1F
100
AcDbEntity
  8
freecads.com
 48
5.0
100
AcDbCircle
 10
10424.24240169236
 20
29694.47514863711
 30
0.0
 40
0.0344685595114621
100
AcDbArc
 50
320.2804503086432
 51
38.54025092869468
1001
AcDbBlockRepETag
1070
     1
1071
        7
1005
0
  0
ARC
  5
B2E2
330
1F
100
AcDbEntity
  8
freecads.com
 48
5.0
100
AcDbCircle
 10
10424.27710268436
 20
29694.45872452751
 30
0.0
 40
0.0124131689805994
100
AcDbArc
 50
329.1150676563516
 51
87.71703352473069
1001
AcDbBlockRepETag
1070
     1
1071
        8
1005
0
  0
ARC
  5
B2E3
330
1F
100
AcDbEntity
  8
freecads.com
 48
5.0
100
AcDbCircle
 10
10424.14752910183
 20
29694.50815916206
 30
0.0
 40
0.0281085754331889
100
AcDbArc
 50
202.3735161420115
 51
257.7254536700904
1001
AcDbBlockRepETag
1070
     1
1071
        9
1005
0
  0
ARC
  5
B2E4
330
1F
100
AcDbEntity
  8
freecads.com
 48
5.0
100
AcDbCircle
 10
10424.13220253166
 20
29694.46410091278
 30
0.0
 40
0.0190457204916887
100
AcDbArc
 50
346.2266740966978
 51
60.59594260512839
1001
AcDbBlockRepETag
1070
     1
1071
        9
1005
0
  0
ARC
  5
B2E5
330
1F
100
AcDbEntity
  8
freecads.com
 48
5.0
100
AcDbCircle
 10
10424.16799194018
 20
29694.45222934606
 30
0.0
 40
0.018783613332215
100
AcDbArc
 50
157.0073098244721
 51
224.9556120597446
1001
AcDbBlockRepETag
1070
     1
1071
        9
1005
0
  0
ARC
  5
B2E6
330
1F
100
AcDbEntity
  8
freecads.com
 48
5.0
100
AcDbCircle
 10
10424.15687382537
 20
29694.4876316315
 30
0.0
 40
0.0487225466827795
100
AcDbArc
 50
267.4423880251353
 51
303.65598040222
1001
AcDbBlockRepETag
1070
     1
1071
        9
1005
0
  0
ARC
  5
B2E7
330
1F
100
AcDbEntity
  8
freecads.com
 48
5.0
100
AcDbCircle
 10
10424.27200101142
 20
29694.60039654474
 30
0.0
 40
0.1768423115206598
100
AcDbArc
 50
240.1107710422919
 51
252.1221116412588
1001
AcDbBlockRepETag
1070
     1
1071
        9
1005
0
  0
ARC
  5
B2E8
330
1F
100
AcDbEntity
  8
freecads.com
 48
5.0
100
AcDbCircle
 10
10424.16643686443
 20
29694.4911701467
 30
0.0
 40
0.0365139541019852
100
AcDbArc
 50
188.7512386346229
 51
226.3014552373297
1001
AcDbBlockRepETag
1070
     1
1071
       10
1005
0
  0
ARC
  5
B2E9
330
1F
100
AcDbEntity
  8
freecads.com
 48
5.0
100
AcDbCircle
 10
10424.19432089046
 20
29694.45852056282
 30
0.0
 40
0.0534767539627863
100
AcDbArc
 50
173.2877215008246
 51
226.7673208255231
1001
AcDbBlockRepETag
1070
     1
1071
       10
1005
0
  0
ARC
  5
B2EA
330
1F
100
AcDbEntity
  8
freecads.com
 48
5.0
100
AcDbCircle
 10
10424.11625367198
 20
29694.36775442195
 30
0.0
 40
0.066338129709658
100
AcDbArc
 50
29.9247913102649
 51
51.34402754350814
1001
AcDbBlockRepETag
1070
     1
1071
       10
1005
0
  0
ARC
  5
B2EB
330
1F
100
AcDbEntity
  8
freecads.com
 48
5.0
100
AcDbCircle
 10
10424.19177892051
 20
29694.39811075266
 30
0.0
 40
0.0182378419364245
100
AcDbArc
 50
171.3679336809378
 51
233.8247739833002
1001
AcDbBlockRepETag
1070
     1
1071
       10
1005
0
  0
ARC
  5
B2EC
330
1F
100
AcDbEntity
  8
freecads.com
 48
5.0
100
AcDbCircle
 10
10424.19126480921
 20
29694.44478570721
 30
0.0
 40
0.0622466949646504
100
AcDbArc
 50
260.521250668604
 51
307.7347976228658
1001
AcDbBlockRepETag
1070
     1
1071
       10
1005
0
  0
ARC
  5
B2ED
330
1F
100
AcDbEntity
  8
freecads.com
 48
5.0
100
AcDbCircle
 10
10424.17389442283
 20
29694.45754970594
 30
0.0
 40
0.0831832698844005
100
AcDbArc
 50
311.8198478044941
 51
342.0148033356649
1001
AcDbBlockRepETag
1070
     1
1071
       10
1005
0
  0
ARC
  5
B2EE
330
1F
100
AcDbEntity
  8
freecads.com
 48
5.0
100
AcDbCircle
 10
10424.46338867764
 20
29694.46490264264
 30
0.0
 40
0.1700923853590039
100
AcDbArc
 50
187.7843991859297
 51
204.9170407760555
1001
AcDbBlockRepETag
1070
     1
1071
       11
1005
0
  0
ARC
  5
B2EF
330
1F
100
AcDbEntity
  8
freecads.com
 48
5.0
100
AcDbCircle
 10
10424.25129348902
 20
29694.42163509359
 30
0.0
 40
0.0720985409031667
100
AcDbArc
 50
228.8787605954295
 51
305.4568543724103
1001
AcDbBlockRepETag
1070
     1
1071
       12
1005
0
  0
ARC
  5
B2F0
330
1F
100
AcDbEntity
  8
freecads.com
 48
5.0
100
AcDbCircle
 10
10424.27012678008
 20
29694.42541002113
 30
0.0
 40
0.0665971310595056
100
AcDbArc
 50
290.1949242300501
 51
329.3177808136785
1001
AcDbBlockRepETag
1070
     1
1071
       12
1005
0
  0
ARC
  5
B2F1
330
1F
100
AcDbEntity
  8
freecads.com
 48
5.0
100
AcDbCircle
 10
10424.53811106929
 20
29694.06374027544
 30
0.0
 40
0.0267545862886117
100
AcDbArc
 50
81.02168589596281
 51
139.9882949288172
1001
AcDbBlockRepETag
1070
     1
1071
       13
1005
0
  0
ARC
  5
B2F2
330
1F
100
AcDbEntity
  8
freecads.com
 48
5.0
100
AcDbCircle
 10
10424.24837656842
 20
29693.96310523551
 30
0.0
 40
0.0753112235621201
100
AcDbArc
 50
341.5691975002492
 51
16.7825582404142
1001
AcDbBlockRepETag
1070
     1
1071
       14
1005
0
  0
ARC
  5
B2F3
330
1F
100
AcDbEntity
  8
freecads.com
 48
5.0
100
AcDbCircle
 10
10424.32775758591
 20
29693.94276151752
 30
0.0
 40
0.0086571716331741
100
AcDbArc
 50
203.6052093969893
 51
306.2294342968506
1001
AcDbBlockRepETag
1070
     1
1071
       14
1005
0
  0
ARC
  5
B2F4
330
1F
100
AcDbEntity
  8
freecads.com
 48
5.0
100
AcDbCircle
 10
10424.28912282491
 20
29693.96414230815
 30
0.0
 40
0.052141190411025
100
AcDbArc
 50
327.0444984484477
 51
21.44859947313451
1001
AcDbBlockRepETag
1070
     1
1071
       14
1005
0
  0
ARC
  5
B2F5
330
1F
100
AcDbEntity
  8
freecads.com
 48
5.0
100
AcDbCircle
 10
10424.32855275492
 20
29693.97865605691
 30
0.0
 40
0.0101754867400595
100
AcDbArc
 50
26.57711566710475
 51
142.4991159261891
1001
AcDbBlockRepETag
1070
     1
1071
       14
1005
0
  0
ARC
  5
B2F6
330
1F
100
AcDbEntity
  8
freecads.com
 48
5.0
100
AcDbCircle
 10
10425.03373955148
 20
29690.74366986796
 30
0.0
 40
3.276208944374838
100
AcDbArc
 50
100.8699226776395
 51
102.2921736623101
1001
AcDbBlockRepETag
1070
     1
1071
       15
1005
0
  0
ARC
  5
B2F7
330
1F
100
AcDbEntity
  8
freecads.com
 48
5.0
100
AcDbCircle
 10
10424.33617943769
 20
29693.98030117727
 30
0.0
 40
0.0820130574231062
100
AcDbArc
 50
346.4575684322848
 51
15.07524927875282
1001
AcDbBlockRepETag
1070
     1
1071
       15
1005
0
  0
ARC
  5
B2F8
330
1F
100
AcDbEntity
  8
freecads.com
 48
5.0
100
AcDbCircle
 10
10424.38672781924
 20
29693.91895888329
 30
0.0
 40
0.0373548911900895
100
AcDbArc
 50
172.2839865280787
 51
228.5939416967446
1001
AcDbBlockRepETag
1070
     1
1071
       16
1005
0
  0
ARC
  5
B2F9
330
1F
100
AcDbEntity
  8
freecads.com
 48
5.0
100
AcDbCircle
 10
10424.2996640925
 20
29693.48052620156
 30
0.0
 40
0.4151251795396394
100
AcDbArc
 50
75.9123501391915
 51
81.36068313286287
1001
AcDbBlockRepETag
1070
     1
1071
       16
1005
0
  0
ARC
  5
B2FA
330
1F
100
AcDbEntity
  8
freecads.com
 48
5.0
100
AcDbCircle
 10
10424.6041780542
 20
29693.73765497238
 30
0.0
 40
0.0265583279960502
100
AcDbArc
 50
270.5357046173307
 51
359.6262486726024
1001
AcDbBlockRepETag
1070
     1
1071
       17
1005
0
  0
ARC
  5
B2FB
330
1F
100
AcDbEntity
  8
freecads.com
 48
5.0
100
AcDbCircle
 10
10425.43535693421
 20
29693.67778394809
 30
0.0
 40
0.8068326759736761
100
AcDbArc
 50
173.30845973154
 51
175.7567912453025
1001
AcDbBlockRepETag
1070
     1
1071
       17
1005
0
  0
ARC
  5
B2FC
330
1F
100
AcDbEntity
  8
freecads.com
 48
5.0
100
AcDbCircle
 10
10423.48482770425
 20
29696.64327315824
 30
0.0
 40
2.986143053571169
100
AcDbArc
 50
285.5606514737336
 51
286.4913376607697
1001
AcDbBlockRepETag
1070
     1
1071
       18
1005
0
  0
ARC
  5
B2FD
330
1F
100
AcDbEntity
  8
freecads.com
 48
5.0
100
AcDbCircle
 10
10424.32251153549
 20
29693.6722218413
 30
0.0
 40
0.0802563160596042
100
AcDbArc
 50
88.69513943800201
 51
110.8668336122931
1001
AcDbBlockRepETag
1070
     1
1071
       19
1005
0
  0
ARC
  5
B2FE
330
1F
100
AcDbEntity
  8
freecads.com
 48
5.0
100
AcDbCircle
 10
10424.29041633253
 20
29693.70557870329
 30
0.0
 40
0.0417830410289734
100
AcDbArc
 50
32.07682619800912
 51
85.18373977680512
1001
AcDbBlockRepETag
1070
     1
1071
       19
1005
0
  0
ARC
  5
B2FF
330
1F
100
AcDbEntity
  8
freecads.com
 48
5.0
100
AcDbCircle
 10
10424.80739225052
 20
29694.24106449809
 30
0.0
 40
0.3396118663602068
100
AcDbArc
 50
200.2485255759716
 51
209.654488883727
1001
AcDbBlockRepETag
1070
     1
1071
       20
1005
0
  0
ARC
  5
B300
330
1F
100
AcDbEntity
  8
freecads.com
 48
5.0
100
AcDbCircle
 10
10424.86962612005
 20
29694.11815328188
 30
0.0
 40
0.3602018638118041
100
AcDbArc
 50
187.1956370199072
 51
207.2607720252492
1001
AcDbBlockRepETag
1070
     1
1071
       20
1005
0
  0
ARC
  5
B301
330
1F
100
AcDbEntity
  8
freecads.com
 48
5.0
100
AcDbCircle
 10
10424.16287648074
 20
29693.83753882092
 30
0.0
 40
0.4034779284191263
100
AcDbArc
 50
2.237983714603333
 51
16.65309610381541
1001
AcDbBlockRepETag
1070
     1
1071
       20
1005
0
  0
ARC
  5
B302
330
1F
100
AcDbEntity
  8
freecads.com
 48
5.0
100
AcDbCircle
 10
10424.46787373321
 20
29693.84777561955
 30
0.0
 40
0.098327937681432
100
AcDbArc
 50
338.6685792108045
 51
3.217685334941104
1001
AcDbBlockRepETag
1070
     1
1071
       20
1005
0
  0
ARC
  5
B303
330
1F
100
AcDbEntity
  8
freecads.com
 48
5.0
100
AcDbCircle
 10
10424.75149492257
 20
29693.79079171788
 30
0.0
 40
0.1931979542326756
100
AcDbArc
 50
173.6953815575235
 51
198.7728043707163
1001
AcDbBlockRepETag
1070
     1
1071
       20
1005
0
  0
ARC
  5
B304
330
1F
100
AcDbEntity
  8
freecads.com
 48
5.0
100
AcDbCircle
 10
10424.57299513367
 20
29693.73859595239
 30
0.0
 40
0.010913780250811
100
AcDbArc
 50
246.1067922972126
 51
336.0597311475227
1001
AcDbBlockRepETag
1070
     1
1071
       20
1005
0
  0
ARC
  5
B305
330
1F
100
AcDbEntity
  8
freecads.com
 48
5.0
100
AcDbCircle
 10
10424.47578588109
 20
29693.75912945419
 30
0.0
 40
0.1100524497424152
100
AcDbArc
 50
346.8900531591042
 51
13.49844611473104
1001
AcDbBlockRepETag
1070
     1
1071
       20
1005
0
  0
ARC
  5
B306
330
1F
100
AcDbEntity
  8
freecads.com
 48
5.0
100
AcDbCircle
 10
10424.49427276885
 20
29693.7235450812
 30
0.0
 40
0.1076620112060378
100
AcDbArc
 50
6.387532784077698
 51
34.68894890592576
1001
AcDbBlockRepETag
1070
     1
1071
       20
1005
0
  0
ARC
  5
B307
330
1F
100
AcDbEntity
  8
freecads.com
 48
5.0
100
AcDbCircle
 10
10424.6066079632
 20
29693.72290930431
 30
0.0
 40
0.0136978641258621
100
AcDbArc
 50
112.9516180588767
 51
238.0758455666534
1001
AcDbBlockRepETag
1070
     1
1071
       20
1005
0
  0
ARC
  5
B308
330
1F
100
AcDbEntity
  8
freecads.com
 48
5.0
100
AcDbCircle
 10
10424.59217496136
 20
29693.73379724093
 30
0.0
 40
0.0236340878743498
100
AcDbArc
 50
287.7103812805377
 51
18.02340581272686
1001
AcDbBlockRepETag
1070
     1
1071
       20
1005
0
  0
ARC
  5
B309
330
1F
100
AcDbEntity
  8
freecads.com
 48
5.0
100
AcDbCircle
 10
10424.59582159649
 20
29693.75356047422
 30
0.0
 40
0.0225721924906193
100
AcDbArc
 50
326.5234688679349
 51
38.0846991291121
1001
AcDbBlockRepETag
1070
     1
1071
       20
1005
0
  0
ARC
  5
B30A
330
1F
100
AcDbEntity
  8
freecads.com
 48
5.0
100
AcDbCircle
 10
10424.4442382588
 20
29693.66166355155
 30
0.0
 40
0.2346402315319774
100
AcDbArc
 50
111.0250253648167
 51
132.4055075652743
1001
AcDbBlockRepETag
1070
     1
1071
       21
1005
0
  0
ARC
  5
B30B
330
1F
100
AcDbEntity
  8
freecads.com
 48
5.0
100
AcDbCircle
 10
10873.94991878709
 20
32726.20307296608
 30
0.0
 40
3065.470620691602
100
AcDbArc
 50
261.566431975807
 51
261.5668355346925
1001
AcDbBlockRepETag
1070
     1
1071
       21
1005
0
  0
ARC
  5
B30C
330
1F
100
AcDbEntity
  8
freecads.com
 48
5.0
100
AcDbCircle
 10
10426.11226310942
 20
29693.20738004658
 30
0.0
 40
1.752260009871833
100
AcDbArc
 50
181.0856893456632
 51
184.2527872275214
1001
AcDbBlockRepETag
1070
     1
1071
       22
1005
0
  0
ARC
  5
B30D
330
1F
100
AcDbEntity
  8
freecads.com
 48
5.0
100
AcDbCircle
 10
10424.38333810191
 20
29693.07193071301
 30
0.0
 40
0.0193121152610675
100
AcDbArc
 50
163.4317710241994
 51
269.7370060865696
1001
AcDbBlockRepETag
1070
     1
1071
       22
1005
0
  0
ARC
  5
B30E
330
1F
100
AcDbEntity
  8
freecads.com
 48
5.0
100
AcDbCircle
 10
10424.39331769327
 20
29693.21750219235
 30
0.0
 40
0.1651905023078611
100
AcDbArc
 50
266.5056999886597
 51
276.0252217592533
1001
AcDbBlockRepETag
1070
     1
1071
       22
1005
0
  0
ARC
  5
B30F
330
1F
100
AcDbEntity
  8
freecads.com
 48
5.0
100
AcDbCircle
 10
10424.40298441542
 20
29693.07134362659
 30
0.0
 40
0.0196769571494253
100
AcDbArc
 50
292.950360725797
 51
352.8251562606144
1001
AcDbBlockRepETag
1070
     1
1071
       22
1005
0
  0
ARC
  5
B310
330
1F
100
AcDbEntity
  8
freecads.com
 48
5.0
100
AcDbCircle
 10
10424.19102456023
 20
29693.14247316307
 30
0.0
 40
0.2428977641428322
100
AcDbArc
 50
342.3648137082971
 51
353.1730449367133
1001
AcDbBlockRepETag
1070
     1
1071
       22
1005
0
  0
ARC
  5
B311
330
1F
100
AcDbEntity
  8
freecads.com
 48
5.0
100
AcDbCircle
 10
10424.37932123623
 20
29693.12881199817
 30
0.0
 40
0.0550235463178745
100
AcDbArc
 50
343.9503645394248
 51
35.25055366535018
1001
AcDbBlockRepETag
1070
     1
1071
       22
1005
0
  0
ARC
  5
B312
330
1F
100
AcDbEntity
  8
freecads.com
 48
5.0
100
AcDbCircle
 10
10424.26743612202
 20
29693.37861799169
 30
0.0
 40
0.1020363380446005
100
AcDbArc
 50
0.7041627713467572
 51
23.19375727335481
1001
AcDbBlockRepETag
1070
     1
1071
       23
1005
0
  0
ARC
  5
B313
330
1F
100
AcDbEntity
  8
freecads.com
 48
5.0
100
AcDbCircle
 10
10424.14357274793
 20
29693.34078114623
 30
0.0
 40
0.2292494100138262
100
AcDbArc
 50
359.6821011818518
 51
9.817858229700075
1001
AcDbBlockRepETag
1070
     1
1071
       23
1005
0
  0
ARC
  5
B314
330
1F
100
AcDbEntity
  8
freecads.com
 48
5.0
100
AcDbCircle
 10
10424.95259822199
 20
29693.36065580616
 30
0.0
 40
0.5801651105557337
100
AcDbArc
 50
182.0888541826452
 51
188.3380294470926
1001
AcDbBlockRepETag
1070
     1
1071
       23
1005
0
  0
ARC
  5
B315
330
1F
100
AcDbEntity
  8
freecads.com
 48
5.0
100
AcDbCircle
 10
10424.41680964532
 20
29693.27783856167
 30
0.0
 40
0.0382666213180336
100
AcDbArc
 50
181.9681298629227
 51
229.6685685363226
1001
AcDbBlockRepETag
1070
     1
1071
       23
1005
0
  0
ARC
  5
B316
330
1F
100
AcDbEntity
  8
freecads.com
 48
5.0
100
AcDbCircle
 10
10426.55395529251
 20
29693.7450806384
 30
0.0
 40
2.218172690578601
100
AcDbArc
 50
192.9319577993336
 51
194.3132024119322
1001
AcDbBlockRepETag
1070
     1
1071
       23
1005
0
  0
ARC
  5
B317
330
1F
100
AcDbEntity
  8
freecads.com
 48
5.0
100
AcDbCircle
 10
10424.34123580394
 20
29693.17809704475
 30
0.0
 40
0.0660741019591555
100
AcDbArc
 50
353.7135509485656
 51
16.35155446490877
1001
AcDbBlockRepETag
1070
     1
1071
       23
1005
0
  0
ARC
  5
B318
330
1F
100
AcDbEntity
  8
freecads.com
 48
5.0
100
AcDbCircle
 10
10424.20149793046
 20
29693.95710494475
 30
0.0
 40
0.0268340350397974
100
AcDbArc
 50
109.2196008428362
 51
213.1596489805645
1001
AcDbBlockRepETag
1070
     1
1071
       24
1005
0
  0
ARC
  5
B319
330
1F
100
AcDbEntity
  8
freecads.com
 48
5.0
100
AcDbCircle
 10
10424.17078741156
 20
29693.94811024152
 30
0.0
 40
0.0100148726780465
100
AcDbArc
 50
225.5524640233811
 51
325.4282983251038
1001
AcDbBlockRepETag
1070
     1
1071
       24
1005
0
  0
ARC
  5
B31A
330
1F
100
AcDbEntity
  8
freecads.com
 48
5.0
100
AcDbCircle
 10
10424.20589452724
 20
29693.94983671
 30
0.0
 40
0.0430451550622866
100
AcDbArc
 50
137.2335670285877
 51
191.8998834932416
1001
AcDbBlockRepETag
1070
     1
1071
       24
1005
0
  0
ARC
  5
B31B
330
1F
100
AcDbEntity
  8
freecads.com
 48
5.0
100
AcDbCircle
 10
10424.14797465313
 20
29694.17380980695
 30
0.0
 40
0.1965153861952305
100
AcDbArc
 50
277.6967291050795
 51
283.1447029285518
1001
AcDbBlockRepETag
1070
     1
1071
       24
1005
0
  0
ARC
  5
B31C
330
1F
100
AcDbEntity
  8
freecads.com
 48
5.0
100
AcDbCircle
 10
10424.18430484857
 20
29694.04317868266
 30
0.0
 40
0.0972728850744357
100
AcDbArc
 50
231.814470347497
 51
257.9718053230326
1001
AcDbBlockRepETag
1070
     1
1071
       25
1005
0
  0
ARC
  5
B31D
330
1F
100
AcDbEntity
  8
freecads.com
 48
5.0
100
AcDbCircle
 10
10424.12364519942
 20
29693.96612430356
 30
0.0
 40
0.1481849281526774
100
AcDbArc
 50
85.00012057935375
 51
103.2001930084715
1001
AcDbBlockRepETag
1070
     1
1071
       27
1005
0
  0
ARC
  5
B31E
330
1F
100
AcDbEntity
  8
freecads.com
 48
5.0
100
AcDbCircle
 10
10424.09429304354
 20
29694.08843584905
 30
0.0
 40
0.0102020136598305
100
AcDbArc
 50
269.01046580844
 51
54.87779632994881
1001
AcDbBlockRepETag
1070
     1
1071
       28
1005
0
  0
ARC
  5
B31F
330
1F
100
AcDbEntity
  8
freecads.com
 48
5.0
100
AcDbCircle
 10
10424.44268458085
 20
29693.95797199252
 30
0.0
 40
0.3687312501528306
100
AcDbArc
 50
160.9644640215504
 51
187.7107130549259
1001
AcDbBlockRepETag
1070
     1
1071
       28
1005
0
  0
ARC
  5
B320
330
1F
100
AcDbEntity
  8
freecads.com
 48
5.0
100
AcDbCircle
 10
10424.14844803977
 20
29693.95025364306
 30
0.0
 40
0.0256060109474289
100
AcDbArc
 50
183.9359008420142
 51
273.9313710233669
1001
AcDbBlockRepETag
1070
     1
1071
       29
1005
0
  0
ARC
  5
B321
330
1F
100
AcDbEntity
  8
freecads.com
 48
5.0
100
AcDbCircle
 10
10423.94523082678
 20
29693.30811301599
 30
0.0
 40
0.649771561822497
100
AcDbArc
 50
67.51398585032247
 51
71.61179856239785
1001
AcDbBlockRepETag
1070
     1
1071
       29
1005
0
  0
ARC
  5
B322
330
1F
100
AcDbEntity
  8
freecads.com
 48
5.0
100
AcDbCircle
 10
10424.15773627621
 20
29693.8993763229
 30
0.0
 40
0.0371389691120881
100
AcDbArc
 50
359.3313984706927
 51
14.19610988782389
1001
AcDbBlockRepETag
1070
     1
1071
       29
1005
0
  0
ARC
  5
B323
330
1F
100
AcDbEntity
  8
freecads.com
 48
5.0
100
AcDbCircle
 10
10424.15334589541
 20
29694.15690583055
 30
0.0
 40
0.2612839952167958
100
AcDbArc
 50
272.9056146540303
 51
279.1450073815686
1001
AcDbBlockRepETag
1070
     1
1071
       29
1005
0
  0
ARC
  5
B324
330
1F
100
AcDbEntity
  8
freecads.com
 48
5.0
100
AcDbCircle
 10
10424.16382689998
 20
29693.96699268157
 30
0.0
 40
0.0710886800379561
100
AcDbArc
 50
248.0576443662912
 51
272.2280315997965
1001
AcDbBlockRepETag
1070
     1
1071
       29
1005
0
  0
ARC
  5
B325
330
1F
100
AcDbEntity
  8
freecads.com
 48
5.0
100
AcDbCircle
 10
10424.1314128886
 20
29693.88784796614
 30
0.0
 40
0.0144434438668311
100
AcDbArc
 50
66.10689827860247
 51
156.0599650299534
1001
AcDbBlockRepETag
1070
     1
1071
       29
1005
0
  0
ARC
  5
B326
330
1F
100
AcDbEntity
  8
freecads.com
 48
5.0
100
AcDbCircle
 10
10424.09274982462
 20
29693.92798823151
 30
0.0
 40
0.0427012868743192
100
AcDbArc
 50
267.7501641539258
 51
306.6043637842449
1001
AcDbBlockRepETag
1070
     1
1071
       29
1005
0
  0
ARC
  5
B327
330
1F
100
AcDbEntity
  8
freecads.com
 48
5.0
100
AcDbCircle
 10
10424.09133439777
 20
29693.90116429491
 30
0.0
 40
0.0158465817535998
100
AcDbArc
 50
152.4292764937311
 51
269.0566489523373
1001
AcDbBlockRepETag
1070
     1
1071
       29
1005
0
  0
ARC
  5
B328
330
1F
100
AcDbEntity
  8
freecads.com
 48
5.0
100
AcDbCircle
 10
10424.20142277622
 20
29693.79175868228
 30
0.0
 40
0.0407411292847725
100
AcDbArc
 50
246.5748888867477
 51
307.0440813566309
1001
AcDbBlockRepETag
1070
     1
1071
       30
1005
0
  0
ARC
  5
B329
330
1F
100
AcDbEntity
  8
freecads.com
 48
5.0
100
AcDbCircle
 10
10424.25637928102
 20
29693.68262281838
 30
0.0
 40
0.0824328304794885
100
AcDbArc
 50
94.97352412566741
 51
111.6503241374459
1001
AcDbBlockRepETag
1070
     1
1071
       30
1005
0
  0
ARC
  5
B32A
330
1F
100
AcDbEntity
  8
freecads.com
 48
5.0
100
AcDbCircle
 10
10424.18896382839
 20
29693.85234304602
 30
0.0
 40
0.063890448377643
100
AcDbArc
 50
267.7687801341837
 51
300.9292867851839
1001
AcDbBlockRepETag
1070
     1
1071
       31
1005
0
  0
ARC
  5
B32B
330
1F
100
AcDbEntity
  8
freecads.com
 48
5.0
100
AcDbCircle
 10
10424.1926059959
 20
29693.77457961893
 30
0.0
 40
0.0351792715349717
100
AcDbArc
 50
90.94279551688641
 51
134.858469100312
1001
AcDbBlockRepETag
1070
     1
1071
       32
1005
0
  0
ARC
  5
B32C
330
1F
100
AcDbEntity
  8
freecads.com
 48
5.0
100
AcDbCircle
 10
10424.42443835417
 20
29693.87468546322
 30
0.0
 40
0.1813445874327888
100
AcDbArc
 50
172.348986821255
 51
196.1451213277919
1001
AcDbBlockRepETag
1070
     1
1071
       33
1005
0
  0
ARC
  5
B32D
330
1F
100
AcDbEntity
  8
freecads.com
 48
5.0
100
AcDbCircle
 10
10424.67063022543
 20
29693.11210724519
 30
0.0
 40
0.4493343828291629
100
AcDbArc
 50
176.5684345057759
 51
182.9333095078303
1001
AcDbBlockRepETag
1070
     1
1071
       34
1005
0
  0
ARC
  5
B32E
330
1F
100
AcDbEntity
  8
freecads.com
 48
5.0
100
AcDbCircle
 10
10423.78851464761
 20
29693.60432150637
 30
0.0
 40
0.3843349681763427
100
AcDbArc
 50
357.6089800641849
 51
16.89887624124505
1001
AcDbBlockRepETag
1070
     1
1071
       35
1005
0
  0
ARC
  5
B32F
330
1F
100
AcDbEntity
  8
freecads.com
 48
5.0
100
AcDbCircle
 10
10424.3441902282
 20
29693.58559515084
 30
0.0
 40
0.1716963308535388
100
AcDbArc
 50
179.101544049153
 51
205.3697387111905
1001
AcDbBlockRepETag
1070
     1
1071
       35
1005
0
  0
ARC
  5
B330
330
1F
100
AcDbEntity
  8
freecads.com
 48
5.0
100
AcDbCircle
 10
10425.04391183731
 20
29693.56573842119
 30
0.0
 40
0.8565453215009229
100
AcDbArc
 50
183.5949736040655
 51
188.816132374031
1001
AcDbBlockRepETag
1070
     1
1071
       35
1005
0
  0
ARC
  5
B331
330
1F
100
AcDbEntity
  8
freecads.com
 48
5.0
100
AcDbCircle
 10
10424.35608260394
 20
29693.41738300022
 30
0.0
 40
0.1595130602249051
100
AcDbArc
 50
173.8540182824674
 51
190.127397853185
1001
AcDbBlockRepETag
1070
     1
1071
       35
1005
0
  0
ARC
  5
B332
330
1F
100
AcDbEntity
  8
freecads.com
 48
5.0
100
AcDbCircle
 10
10424.18753327789
 20
29693.37436735742
 30
0.0
 40
0.0188882639729946
100
AcDbArc
 50
324.648448565588
 51
52.41139935228388
1001
AcDbBlockRepETag
1070
     1
1071
       35
1005
0
  0
ARC
  5
B333
330
1F
100
AcDbEntity
  8
freecads.com
 48
5.0
100
AcDbCircle
 10
10424.38642502104
 20
29693.34983175354
 30
0.0
 40
0.1839899918721348
100
AcDbArc
 50
175.7588088005232
 51
195.0484397187508
1001
AcDbBlockRepETag
1070
     1
1071
       35
1005
0
  0
ARC
  5
B334
330
1F
100
AcDbEntity
  8
freecads.com
 48
5.0
100
AcDbCircle
 10
10424.13691956024
 20
29693.2620011644
 30
0.0
 40
0.082241521001018
100
AcDbArc
 50
350.6242333460622
 51
29.15046678400212
1001
AcDbBlockRepETag
1070
     1
1071
       35
1005
0
  0
ARC
  5
B335
330
1F
100
AcDbEntity
  8
freecads.com
 48
5.0
100
AcDbCircle
 10
10424.14619618849
 20
29693.22943960573
 30
0.0
 40
0.0743774429578995
100
AcDbArc
 50
337.0510963168086
 51
14.93094866588799
1001
AcDbBlockRepETag
1070
     1
1071
       35
1005
0
  0
ARC
  5
B336
330
1F
100
AcDbEntity
  8
freecads.com
 48
5.0
100
AcDbCircle
 10
10424.26992724141
 20
29693.1992371332
 30
0.0
 40
0.0552534408150985
100
AcDbArc
 50
178.7535148625165
 51
214.0789656743355
1001
AcDbBlockRepETag
1070
     1
1071
       35
1005
0
  0
ARC
  5
B337
330
1F
100
AcDbEntity
  8
freecads.com
 48
5.0
100
AcDbCircle
 10
10424.26490278536
 20
29694.25917651608
 30
0.0
 40
0.3237817155483609
100
AcDbArc
 50
255.0191993435676
 51
279.9545934695189
1001
AcDbBlockRepETag
1070
     1
1071
       36
1005
0
  0
ARC
  5
B338
330
1F
100
AcDbEntity
  8
freecads.com
 48
5.0
100
AcDbCircle
 10
10424.75700041284
 20
29694.02914217599
 30
0.0
 40
0.3534963739960955
100
AcDbArc
 50
190.8945572292314
 51
201.8068790382069
1001
AcDbBlockRepETag
1070
     1
1071
       37
1005
0
  0
ARC
  5
B339
330
1F
100
AcDbEntity
  8
freecads.com
 48
5.0
100
AcDbCircle
 10
10425.993605876
 20
29693.80930517621
 30
0.0
 40
1.56730785354902
100
AcDbArc
 50
176.7622530049214
 51
180.9732989240643
1001
AcDbBlockRepETag
1070
     1
1071
       37
1005
0
  0
ARC
  5
B33A
330
1F
100
AcDbEntity
  8
freecads.com
 48
5.0
100
AcDbCircle
 10
10421.75221983488
 20
29693.95332500838
 30
0.0
 40
2.679743004115396
100
AcDbArc
 50
351.7469249071449
 51
356.3490028754424
1001
AcDbBlockRepETag
1070
     1
1071
       37
1005
0
  0
ARC
  5
B33B
330
1F
100
AcDbEntity
  8
freecads.com
 48
5.0
100
AcDbCircle
 10
10424.44711005397
 20
29693.55901613591
 30
0.0
 40
0.0439699496967575
100
AcDbArc
 50
167.3313055713994
 51
220.1591929959263
1001
AcDbBlockRepETag
1070
     1
1071
       37
1005
0
  0
ARC
  5
B33C
330
1F
100
AcDbEntity
  8
freecads.com
 48
5.0
100
AcDbCircle
 10
10424.3735360362
 20
29693.54538969554
 30
0.0
 40
0.0425977004280232
100
AcDbArc
 50
284.8962108483054
 51
339.7692318125363
1001
AcDbBlockRepETag
1070
     1
1071
       37
1005
0
  0
ARC
  5
B33D
330
1F
100
AcDbEntity
  8
freecads.com
 48
5.0
100
AcDbCircle
 10
10424.38906457479
 20
29693.49055088941
 30
0.0
 40
0.0144187483698651
100
AcDbArc
 50
275.6569314763497
 51
108.5119816581725
1001
AcDbBlockRepETag
1070
     1
1071
       37
1005
0
  0
ARC
  5
B33E
330
1F
100
AcDbEntity
  8
freecads.com
 48
5.0
100
AcDbCircle
 10
10424.38742371171
 20
29693.47324037143
 30
0.0
 40
0.0042602947077811
100
AcDbArc
 50
44.04751279224085
 51
160.6923204467165
1001
AcDbBlockRepETag
1070
     1
1071
       37
1005
0
  0
ARC
  5
B33F
330
1F
100
AcDbEntity
  8
freecads.com
 48
5.0
100
AcDbCircle
 10
10424.40066349755
 20
29693.51278521276
 30
0.0
 40
0.0418604171724053
100
AcDbArc
 50
245.6484713874742
 51
285.9550073244256
1001
AcDbBlockRepETag
1070
     1
1071
       37
1005
0
  0
ARC
  5
B340
330
1F
100
AcDbEntity
  8
freecads.com
 48
5.0
100
AcDbCircle
 10
10424.39410493585
 20
29693.45019031989
 30
0.0
 40
0.0287357464660551
100
AcDbArc
 50
334.7524265653846
 51
51.04805553041148
1001
AcDbBlockRepETag
1070
     1
1071
       37
1005
0
  0
ARC
  5
B341
330
1F
100
AcDbEntity
  8
freecads.com
 48
5.0
100
AcDbCircle
 10
10424.55951580395
 20
29693.38427992077
 30
0.0
 40
0.1493877581671869
100
AcDbArc
 50
158.9515378422456
 51
196.8519492641629
1001
AcDbBlockRepETag
1070
     1
1071
       37
1005
0
  0
ARC
  5
B342
330
1F
100
AcDbEntity
  8
freecads.com
 48
5.0
100
AcDbCircle
 10
10423.98267879304
 20
29693.2152962856
 30
0.0
 40
0.4516999252437147
100
AcDbArc
 50
357.7792564229361
 51
16.15455482611644
1001
AcDbBlockRepETag
1070
     1
1071
       37
1005
0
  0
ARC
  5
B343
330
1F
100
AcDbEntity
  8
freecads.com
 48
5.0
100
AcDbCircle
 10
10424.34422907552
 20
29693.20335881521
 30
0.0
 40
0.0899826882562776
100
AcDbArc
 50
327.4341268048686
 51
356.4538113934931
1001
AcDbBlockRepETag
1070
     1
1071
       37
1005
0
  0
ARC
  5
B344
330
1F
100
AcDbEntity
  8
freecads.com
 48
5.0
100
AcDbCircle
 10
10424.41422773612
 20
29693.22134387567
 30
0.0
 40
0.0666758702240193
100
AcDbArc
 50
238.1799441969939
 51
275.0216932921297
1001
AcDbBlockRepETag
1070
     1
1071
       37
1005
0
  0
ARC
  5
B345
330
1F
100
AcDbEntity
  8
freecads.com
 48
5.0
100
AcDbCircle
 10
10424.38970596422
 20
29693.20961838801
 30
0.0
 40
0.0461706729872702
100
AcDbArc
 50
177.7431793342005
 51
256.6850205016903
1001
AcDbBlockRepETag
1070
     1
1071
       37
1005
0
  0
ARC
  5
B346
330
1F
100
AcDbEntity
  8
freecads.com
 48
5.0
100
AcDbCircle
 10
10424.60849977536
 20
29693.35086603618
 30
0.0
 40
0.299379003746821
100
AcDbArc
 50
185.5963618516896
 51
207.7574162021853
1001
AcDbBlockRepETag
1070
     1
1071
       37
1005
0
  0
ARC
  5
B347
330
1F
100
AcDbEntity
  8
freecads.com
 48
5.0
100
AcDbCircle
 10
10424.45379011214
 20
29693.39524784123
 30
0.0
 40
0.1610340868209148
100
AcDbArc
 50
165.2646070753568
 51
207.1875235120448
1001
AcDbBlockRepETag
1070
     1
1071
       37
1005
0
  0
ARC
  5
B348
330
1F
100
AcDbEntity
  8
freecads.com
 48
5.0
100
AcDbCircle
 10
10423.57808211203
 20
29693.21093465594
 30
0.0
 40
0.7543905069756329
100
AcDbArc
 50
17.37449576551451
 51
21.72954297601624
1001
AcDbBlockRepETag
1070
     1
1071
       37
1005
0
  0
ARC
  5
B349
330
1F
100
AcDbEntity
  8
freecads.com
 48
5.0
100
AcDbCircle
 10
10424.31644429242
 20
29693.5028924715
 30
0.0
 40
0.0396535669043602
100
AcDbArc
 50
155.2651184228546
 51
198.6230529102828
1001
AcDbBlockRepETag
1070
     1
1071
       37
1005
0
  0
ARC
  5
B34A
330
1F
100
AcDbEntity
  8
freecads.com
 48
5.0
100
AcDbCircle
 10
10424.52526867183
 20
29693.55503613746
 30
0.0
 40
0.2474075503359217
100
AcDbArc
 50
165.1526884399099
 51
188.2618546182322
1001
AcDbBlockRepETag
1070
     1
1071
       37
1005
0
  0
ARC
  5
B34B
330
1F
100
AcDbEntity
  8
freecads.com
 48
5.0
100
AcDbCircle
 10
10423.90976179259
 20
29693.62266247185
 30
0.0
 40
0.3763835069650678
100
AcDbArc
 50
359.3561220858409
 51
15.00748694364491
1001
AcDbBlockRepETag
1070
     1
1071
       37
1005
0
  0
ARC
  5
B34C
330
1F
100
AcDbEntity
  8
freecads.com
 48
5.0
100
AcDbCircle
 10
10424.23704065332
 20
29693.74417743541
 30
0.0
 40
0.0435178387151769
100
AcDbArc
 50
326.4476712538402
 51
3.345912206930393
1001
AcDbBlockRepETag
1070
     1
1071
       37
1005
0
  0
ARC
  5
B34D
330
1F
100
AcDbEntity
  8
freecads.com
 48
5.0
100
AcDbCircle
 10
10424.62786954064
 20
29693.93834523801
 30
0.0
 40
0.3967338666579958
100
AcDbArc
 50
198.5997263538681
 51
208.8824229231309
1001
AcDbBlockRepETag
1070
     1
1071
       37
1005
0
  0
ARC
  5
B34E
330
1F
100
AcDbEntity
  8
freecads.com
 48
5.0
100
AcDbCircle
 10
10424.67515705672
 20
29693.27384344461
 30
0.0
 40
0.3577247159604198
100
AcDbArc
 50
178.9543529097296
 51
195.1885456842642
1001
AcDbBlockRepETag
1070
     1
1071
       38
1005
0
  0
ARC
  5
B34F
330
1F
100
AcDbEntity
  8
freecads.com
 48
5.0
100
AcDbCircle
 10
10424.3025484002
 20
29693.17951825855
 30
0.0
 40
0.0273862933008008
100
AcDbArc
 50
308.111563930792
 51
1.260928857989866
1001
AcDbBlockRepETag
1070
     1
1071
       38
1005
0
  0
ARC
  5
B350
330
1F
100
AcDbEntity
  8
freecads.com
 48
5.0
100
AcDbCircle
 10
10424.46351147271
 20
29693.14962014217
 30
0.0
 40
0.1443022023694848
100
AcDbArc
 50
176.682628438446
 51
202.3236093010694
1001
AcDbBlockRepETag
1070
     1
1071
       38
1005
0
  0
ARC
  5
B351
330
1F
100
AcDbEntity
  8
freecads.com
 48
5.0
100
AcDbCircle
 10
10424.3169621787
 20
29693.08714919987
 30
0.0
 40
0.0151422155237266
100
AcDbArc
 50
286.0787508244778
 51
30.38728319184862
1001
AcDbBlockRepETag
1070
     1
1071
       38
1005
0
  0
ARC
  5
B352
330
1F
100
AcDbEntity
  8
freecads.com
 48
5.0
100
AcDbCircle
 10
10424.30788676174
 20
29693.15450118203
 30
0.0
 40
0.0829697919136165
100
AcDbArc
 50
245.1887519368868
 51
279.2027076882235
1001
AcDbBlockRepETag
1070
     1
1071
       38
1005
0
  0
ARC
  5
B353
330
1F
100
AcDbEntity
  8
freecads.com
 48
5.0
100
AcDbCircle
 10
10424.22773699427
 20
29692.99026089013
 30
0.0
 40
0.0998171465274159
100
AcDbArc
 50
62.98898724921592
 51
102.3481389192681
1001
AcDbBlockRepETag
1070
     1
1071
       38
1005
0
  0
ARC
  5
B354
330
1F
100
AcDbEntity
  8
freecads.com
 48
5.0
100
AcDbCircle
 10
10424.90708888134
 20
29693.15084858294
 30
0.0
 40
0.7035315207872556
100
AcDbArc
 50
176.8473156068119
 51
185.1441337576208
1001
AcDbBlockRepETag
1070
     1
1071
       38
1005
0
  0
ARC
  5
B355
330
1F
100
AcDbEntity
  8
freecads.com
 48
5.0
100
AcDbCircle
 10
10424.12991727401
 20
29693.20806244375
 30
0.0
 40
0.0769666994213668
100
AcDbArc
 50
346.0753005695147
 51
21.5499234805231
1001
AcDbBlockRepETag
1070
     1
1071
       38
1005
0
  0
ARC
  5
B356
330
1F
100
AcDbEntity
  8
freecads.com
 48
5.0
100
AcDbCircle
 10
10423.02741306717
 20
29693.00142191428
 30
0.0
 40
1.197360621530354
100
AcDbArc
 50
11.31430336759662
 51
15.87265579563901
1001
AcDbBlockRepETag
1070
     1
1071
       38
1005
0
  0
ARC
  5
B357
330
1F
100
AcDbEntity
  8
freecads.com
 48
5.0
100
AcDbCircle
 10
10423.74940958133
 20
29693.33306610154
 30
0.0
 40
0.429731269222589
100
AcDbArc
 50
359.4445656202374
 51
11.14291045481957
1001
AcDbBlockRepETag
1070
     1
1071
       38
1005
0
  0
ARC
  5
B358
330
1F
100
AcDbEntity
  8
freecads.com
 48
5.0
100
AcDbCircle
 10
10431.66858039089
 20
29694.06302543885
 30
0.0
 40
7.525397722137693
100
AcDbArc
 50
184.1916431505172
 51
184.931442149105
1001
AcDbBlockRepETag
1070
     1
1071
       38
1005
0
  0
ARC
  5
B359
330
1F
100
AcDbEntity
  8
freecads.com
 48
5.0
100
AcDbCircle
 10
10424.8230505173
 20
29693.71572625593
 30
0.0
 40
0.6901909785880367
100
AcDbArc
 50
184.4565998601468
 51
197.0833879706444
1001
AcDbBlockRepETag
1070
     1
1071
       38
1005
0
  0
ARC
  5
B35A
330
1F
100
AcDbEntity
  8
freecads.com
 48
5.0
100
AcDbCircle
 10
10423.92974482722
 20
29693.66710027942
 30
0.0
 40
0.2052625369459577
100
AcDbArc
 50
358.6029133031276
 51
20.75573816708148
1001
AcDbBlockRepETag
1070
     1
1071
       38
1005
0
  0
ARC
  5
B35B
330
1F
100
AcDbEntity
  8
freecads.com
 48
5.0
100
AcDbCircle
 10
10424.28638155858
 20
29693.80014109685
 30
0.0
 40
0.1753871791632021
100
AcDbArc
 50
180.115032994158
 51
200.108840466821
1001
AcDbBlockRepETag
1070
     1
1071
       38
1005
0
  0
ARC
  5
B35C
330
1F
100
AcDbEntity
  8
freecads.com
 48
5.0
100
AcDbCircle
 10
10424.29697545513
 20
29693.87964540113
 30
0.0
 40
0.202400292490444
100
AcDbArc
 50
180.1088822373992
 51
203.2377250617022
1001
AcDbBlockRepETag
1070
     1
1071
       38
1005
0
  0
ARC
  5
B35D
330
1F
100
AcDbEntity
  8
freecads.com
 48
5.0
100
AcDbCircle
 10
10424.11661785731
 20
29693.13695425117
 30
0.0
 40
0.1052339286706952
100
AcDbArc
 50
294.8372771299929
 51
331.2698411759052
1001
AcDbBlockRepETag
1070
     1
1071
       39
1005
0
  0
ARC
  5
B35E
330
1F
100
AcDbEntity
  8
freecads.com
 48
5.0
100
AcDbCircle
 10
10424.16592705938
 20
29693.02855410186
 30
0.0
 40
0.0138738378398603
100
AcDbArc
 50
111.5963070070536
 51
252.0144955454026
1001
AcDbBlockRepETag
1070
     1
1071
       39
1005
0
  0
ARC
  5
B35F
330
1F
100
AcDbEntity
  8
freecads.com
 48
5.0
100
AcDbCircle
 10
10424.19055651235
 20
29693.23696517029
 30
0.0
 40
0.223485180578857
100
AcDbArc
 50
262.5665300234853
 51
282.1640596660931
1001
AcDbBlockRepETag
1070
     1
1071
       39
1005
0
  0
ARC
  5
B360
330
1F
100
AcDbEntity
  8
freecads.com
 48
5.0
100
AcDbCircle
 10
10424.23161297565
 20
29693.05114517351
 30
0.0
 40
0.0332005647145904
100
AcDbArc
 50
280.4721721713065
 51
344.9308109618872
1001
AcDbBlockRepETag
1070
     1
1071
       39
1005
0
  0
ARC
  5
B361
330
1F
100
AcDbEntity
  8
freecads.com
 48
5.0
100
AcDbCircle
 10
10424.27433535686
 20
29693.08953786696
 30
0.0
 40
0.04821825228114
100
AcDbArc
 50
257.2233742317546
 51
301.057517689022
1001
AcDbBlockRepETag
1070
     1
1071
       39
1005
0
  0
ARC
  5
B362
330
1F
100
AcDbEntity
  8
freecads.com
 48
5.0
100
AcDbCircle
 10
10424.30399399602
 20
29693.06598963447
 30
0.0
 40
0.0183907662641254
100
AcDbArc
 50
254.9256613857009
 51
21.06349491038766
1001
AcDbBlockRepETag
1070
     1
1071
       39
1005
0
  0
ARC
  5
B363
330
1F
100
AcDbEntity
  8
freecads.com
 48
5.0
100
AcDbCircle
 10
10424.35505323935
 20
29693.73680339066
 30
0.0
 40
0.0842883764862714
100
AcDbArc
 50
122.5800217593681
 51
160.7599882513398
1001
AcDbBlockRepETag
1070
     1
1071
       40
1005
0
  0
ARC
  5
B364
330
1F
100
AcDbEntity
  8
freecads.com
 48
5.0
100
AcDbCircle
 10
10424.18878795128
 20
29694.06200005245
 30
0.0
 40
0.2814512806705118
100
AcDbArc
 50
295.4346182364515
 51
307.7058773429389
1001
AcDbBlockRepETag
1070
     1
1071
       40
1005
0
  0
ARC
  5
B365
330
1F
100
AcDbEntity
  8
freecads.com
 48
5.0
100
AcDbCircle
 10
10424.18306958563
 20
29693.3153553604
 30
0.0
 40
0.5533344003559053
100
AcDbArc
 50
69.09058370331383
 51
71.25079136135591
1001
AcDbBlockRepETag
1070
     1
1071
       40
1005
0
  0
ARC
  5
B366
330
1F
100
AcDbEntity
  8
freecads.com
 48
5.0
100
AcDbCircle
 10
10424.32181903642
 20
29694.38990420508
 30
0.0
 40
0.0132178031237372
100
AcDbArc
 50
28.52878628167882
 51
136.4026903295772
1001
AcDbBlockRepETag
1070
     1
1071
       41
1005
0
  0
ARC
  5
B367
330
1F
100
AcDbEntity
  8
freecads.com
 48
5.0
100
AcDbCircle
 10
10424.27819254818
 20
29694.02297387235
 30
0.0
 40
0.3773086815253186
100
AcDbArc
 50
68.45490206708429
 51
81.58143293758309
1001
AcDbBlockRepETag
1070
     1
1071
       41
1005
0
  0
ARC
  5
B368
330
1F
100
AcDbEntity
  8
freecads.com
 48
5.0
100
AcDbCircle
 10
10424.19806754667
 20
29693.75762949786
 30
0.0
 40
0.6539393807635492
100
AcDbArc
 50
66.22355049291477
 51
70.46319594873079
1001
AcDbBlockRepETag
1070
     1
1071
       41
1005
0
  0
ARC
  5
B369
330
1F
100
AcDbEntity
  8
freecads.com
 48
5.0
100
AcDbCircle
 10
10424.42097476269
 20
29694.28525138898
 30
0.0
 40
0.0816979073070755
100
AcDbArc
 50
29.58116127532636
 51
60.08739126392963
1001
AcDbBlockRepETag
1070
     1
1071
       41
1005
0
  0
ARC
  5
B36A
330
1F
100
AcDbEntity
  8
freecads.com
 48
5.0
100
AcDbCircle
 10
10424.11565972066
 20
29694.14083078758
 30
0.0
 40
0.4192648995774594
100
AcDbArc
 50
14.0231443888499
 51
26.14569316254236
1001
AcDbBlockRepETag
1070
     1
1071
       41
1005
0
  0
ARC
  5
B36B
330
1F
100
AcDbEntity
  8
freecads.com
 48
5.0
100
AcDbCircle
 10
10424.5906758247
 20
29694.25360570442
 30
0.0
 40
0.069156052675665
100
AcDbArc
 50
189.304494833928
 51
219.6664393876777
1001
AcDbBlockRepETag
1070
     1
1071
       41
1005
0
  0
ARC
  5
B36C
330
1F
100
AcDbEntity
  8
freecads.com
 48
5.0
100
AcDbCircle
 10
10424.50028661537
 20
29694.17587589013
 30
0.0
 40
0.0500850644171918
100
AcDbArc
 50
357.3263459194835
 51
42.11228497059897
1001
AcDbBlockRepETag
1070
     1
1071
       41
1005
0
  0
ARC
  5
B36D
330
1F
100
AcDbEntity
  8
freecads.com
 48
5.0
100
AcDbCircle
 10
10424.54943460064
 20
29694.16037289531
 30
0.0
 40
0.013196215803931
100
AcDbArc
 50
308.025387327524
 51
86.16521697754937
1001
AcDbBlockRepETag
1070
     1
1071
       41
1005
0
  0
ARC
  5
B36E
330
1F
100
AcDbEntity
  8
freecads.com
 48
5.0
100
AcDbCircle
 10
10424.71929738437
 20
29693.62394796008
 30
0.0
 40
0.5503318448422096
100
AcDbArc
 50
107.0906347859501
 51
114.6565925052821
1001
AcDbBlockRepETag
1070
     1
1071
       41
1005
0
  0
ARC
  5
B36F
330
1F
100
AcDbEntity
  8
freecads.com
 48
5.0
100
AcDbCircle
 10
10424.48764323402
 20
29694.14157619937
 30
0.0
 40
0.0175950647952529
100
AcDbArc
 50
181.7814165815445
 51
276.7479276320029
1001
AcDbBlockRepETag
1070
     1
1071
       41
1005
0
  0
ARC
  5
B370
330
1F
100
AcDbEntity
  8
freecads.com
 48
5.0
100
AcDbCircle
 10
10424.41426738011
 20
29694.10937671058
 30
0.0
 40
0.0641430208678589
100
AcDbArc
 50
29.56876915059507
 51
64.75376982659496
1001
AcDbBlockRepETag
1070
     1
1071
       41
1005
0
  0
ARC
  5
B371
330
1F
100
AcDbEntity
  8
freecads.com
 48
5.0
100
AcDbCircle
 10
10424.16415324241
 20
29694.03864225522
 30
0.0
 40
0.3058877459968921
100
AcDbArc
 50
24.89195579721674
 51
33.32295936260789
1001
AcDbBlockRepETag
1070
     1
1071
       41
1005
0
  0
ARC
  5
B372
330
1F
100
AcDbEntity
  8
freecads.com
 48
5.0
100
AcDbCircle
 10
10424.42063175653
 20
29694.21222254365
 30
0.0
 40
0.0056083847269774
100
AcDbArc
 50
260.9456289041033
 51
13.60892805399109
1001
AcDbBlockRepETag
1070
     1
1071
       41
1005
0
  0
ARC
  5
B373
330
1F
100
AcDbEntity
  8
freecads.com
 48
5.0
100
AcDbCircle
 10
10424.2917763004
 20
29694.21186609656
 30
0.0
 40
0.1343168395303261
100
AcDbArc
 50
0.7149802045076018
 51
22.6316839315133
1001
AcDbBlockRepETag
1070
     1
1071
       41
1005
0
  0
ARC
  5
B374
330
1F
100
AcDbEntity
  8
freecads.com
 48
5.0
100
AcDbCircle
 10
10424.54012685465
 20
29694.26811106963
 30
0.0
 40
0.1244599678956242
100
AcDbArc
 50
155.4292266586665
 51
182.0992633357779
1001
AcDbBlockRepETag
1070
     1
1071
       41
1005
0
  0
ARC
  5
B375
330
1F
100
AcDbEntity
  8
freecads.com
 48
5.0
100
AcDbCircle
 10
10424.44326282357
 20
29694.32156886782
 30
0.0
 40
0.0164146938776255
100
AcDbArc
 50
73.76839156200309
 51
185.9629138480408
1001
AcDbBlockRepETag
1070
     1
1071
       41
1005
0
  0
ARC
  5
B376
330
1F
100
AcDbEntity
  8
freecads.com
 48
5.0
100
AcDbCircle
 10
10424.40582948427
 20
29694.41491870895
 30
0.0
 40
0.2813193540684139
100
AcDbArc
 50
283.1974205194848
 51
300.9044104642255
1001
AcDbBlockRepETag
1070
     1
1071
       42
1005
0
  0
ARC
  5
B377
330
1F
100
AcDbEntity
  8
freecads.com
 48
5.0
100
AcDbCircle
 10
10424.04391703813
 20
29694.47670293989
 30
0.0
 40
0.1687665948262474
100
AcDbArc
 50
315.2395468627534
 51
326.0493225264214
1001
AcDbBlockRepETag
1070
     1
1071
       43
1005
0
  0
ARC
  5
B378
330
1F
100
AcDbEntity
  8
freecads.com
 48
5.0
100
AcDbCircle
 10
10424.173513376
 20
29694.24343667693
 30
0.0
 40
0.1148459101223466
100
AcDbArc
 50
94.87629856484479
 51
133.3339904733918
1001
AcDbBlockRepETag
1070
     1
1071
       43
1005
0
  0
ARC
  5
B379
330
1F
100
AcDbEntity
  8
freecads.com
 48
5.0
100
AcDbCircle
 10
10424.30755796045
 20
29694.23864173094
 30
0.0
 40
0.2304572179204812
100
AcDbArc
 50
157.4629206368126
 51
171.7225452384068
1001
AcDbBlockRepETag
1070
     1
1071
       43
1005
0
  0
ARC
  5
B37A
330
1F
100
AcDbEntity
  8
freecads.com
 48
5.0
100
AcDbCircle
 10
10424.35553885945
 20
29694.23514310239
 30
0.0
 40
0.2784632796294031
100
AcDbArc
 50
172.4314942522481
 51
191.0918687249131
1001
AcDbBlockRepETag
1070
     1
1071
       43
1005
0
  0
ARC
  5
B37B
330
1F
100
AcDbEntity
  8
freecads.com
 48
5.0
100
AcDbCircle
 10
10423.939094115
 20
29694.13420590592
 30
0.0
 40
0.1508142113953453
100
AcDbArc
 50
354.0311979722046
 51
18.30446317768994
1001
AcDbBlockRepETag
1070
     1
1071
       43
1005
0
  0
ARC
  5
B37C
330
1F
100
AcDbEntity
  8
freecads.com
 48
5.0
100
AcDbCircle
 10
10424.10189829243
 20
29694.10991063218
 30
0.0
 40
0.0154340676332954
100
AcDbArc
 50
146.0808007838102
 51
256.7538696260869
1001
AcDbBlockRepETag
1070
     1
1071
       43
1005
0
  0
ARC
  5
B37D
330
1F
100
AcDbEntity
  8
freecads.com
 48
5.0
100
AcDbCircle
 10
10424.13804580649
 20
29693.98000504448
 30
0.0
 40
0.1215431083101154
100
AcDbArc
 50
85.6563808769035
 51
109.0565610542239
1001
AcDbBlockRepETag
1070
     1
1071
       43
1005
0
  0
ARC
  5
B37E
330
1F
100
AcDbEntity
  8
freecads.com
 48
5.0
100
AcDbCircle
 10
10423.28215893639
 20
29693.85225016944
 30
0.0
 40
0.9140601778546269
100
AcDbArc
 50
21.88613449343626
 51
27.64965323891407
1001
AcDbBlockRepETag
1070
     1
1071
       44
1005
0
  0
ARC
  5
B37F
330
1F
100
AcDbEntity
  8
freecads.com
 48
5.0
100
AcDbCircle
 10
10422.53677536298
 20
29693.92056199126
 30
0.0
 40
1.616681023158315
100
AcDbArc
 50
6.202805717769671
 51
9.700813499715057
1001
AcDbBlockRepETag
1070
     1
1071
       44
1005
0
  0
ARC
  5
B380
330
1F
100
AcDbEntity
  8
freecads.com
 48
5.0
100
AcDbCircle
 10
10424.0584133867
 20
29694.08594017219
 30
0.0
 40
0.0860823762314236
100
AcDbArc
 50
336.452035504248
 51
6.202805777525699
1001
AcDbBlockRepETag
1070
     1
1071
       44
1005
0
  0
ARC
  5
B381
330
1F
100
AcDbEntity
  8
freecads.com
 48
5.0
100
AcDbCircle
 10
10424.1678936254
 20
29694.02790857946
 30
0.0
 40
0.03864142379739
100
AcDbArc
 50
142.2813027773516
 51
210.8556410250851
1001
AcDbBlockRepETag
1070
     1
1071
       44
1005
0
  0
ARC
  5
B382
330
1F
100
AcDbEntity
  8
freecads.com
 48
5.0
100
AcDbCircle
 10
10424.18694629078
 20
29694.05245647761
 30
0.0
 40
0.0685258742278235
100
AcDbArc
 50
220.3486408387631
 51
268.8207479141034
1001
AcDbBlockRepETag
1070
     1
1071
       44
1005
0
  0
ARC
  5
B383
330
1F
100
AcDbEntity
  8
freecads.com
 48
5.0
100
AcDbCircle
 10
10424.22820216592
 20
29694.56744678235
 30
0.0
 40
0.5850594798112635
100
AcDbArc
 50
265.8179241542346
 51
277.6713650699885
1001
AcDbBlockRepETag
1070
     1
1071
       44
1005
0
  0
ARC
  5
B384
330
1F
100
AcDbEntity
  8
freecads.com
 48
5.0
100
AcDbCircle
 10
10424.23837189822
 20
29694.81882162535
 30
0.0
 40
0.8339692784206048
100
AcDbArc
 50
274.6721639187454
 51
282.5405157583139
1001
AcDbBlockRepETag
1070
     1
1071
       44
1005
0
  0
ARC
  5
B385
330
1F
100
AcDbEntity
  8
freecads.com
 48
5.0
100
AcDbCircle
 10
10424.31864922646
 20
29694.05739237796
 30
0.0
 40
0.1137210828532476
100
AcDbArc
 50
332.424296872055
 51
8.504373967002379
1001
AcDbBlockRepETag
1070
     1
1071
       44
1005
0
  0
ARC
  5
B386
330
1F
100
AcDbEntity
  8
freecads.com
 48
5.0
100
AcDbCircle
 10
10424.66216339879
 20
29694.09645642434
 30
0.0
 40
0.2321120467756269
100
AcDbArc
 50
161.7790356513107
 51
185.4998661458492
1001
AcDbBlockRepETag
1070
     1
1071
       44
1005
0
  0
ARC
  5
B387
330
1F
100
AcDbEntity
  8
freecads.com
 48
5.0
100
AcDbCircle
 10
10424.60790321914
 20
29693.7470237521
 30
0.0
 40
0.0327442528755899
100
AcDbArc
 50
299.3599845452253
 51
7.520373143670224
1001
AcDbBlockRepETag
1070
     1
1071
       45
1005
0
  0
ARC
  5
B388
330
1F
100
AcDbEntity
  8
freecads.com
 48
5.0
100
AcDbCircle
 10
10424.05477955584
 20
29693.82467433222
 30
0.0
 40
0.5901641316731298
100
AcDbArc
 50
352.8589177688307
 51
356.2063332081387
1001
AcDbBlockRepETag
1070
     1
1071
       45
1005
0
  0
ARC
  5
B389
330
1F
100
AcDbEntity
  8
freecads.com
 48
5.0
100
AcDbCircle
 10
10424.50756649738
 20
29693.75404303797
 30
0.0
 40
0.1397011179167721
100
AcDbArc
 50
13.06651097525844
 51
34.92464546478327
1001
AcDbBlockRepETag
1070
     1
1071
       45
1005
0
  0
ARC
  5
B38A
330
1F
100
AcDbEntity
  8
freecads.com
 48
5.0
100
AcDbCircle
 10
10424.82170634581
 20
29693.88759210184
 30
0.0
 40
0.2066620150395408
100
AcDbArc
 50
179.0548732832875
 51
195.0236243674108
1001
AcDbBlockRepETag
1070
     1
1071
       45
1005
0
  0
ARC
  5
B38B
330
1F
100
AcDbEntity
  8
freecads.com
 48
5.0
100
AcDbCircle
 10
10421.46777376848
 20
29693.56936379809
 30
0.0
 40
3.163690792777908
100
AcDbArc
 50
5.835066357928996
 51
8.360809277395514
1001
AcDbBlockRepETag
1070
     1
1071
       45
1005
0
  0
ARC
  5
B38C
330
1F
100
AcDbEntity
  8
freecads.com
 48
5.0
100
AcDbCircle
 10
10424.1833781659
 20
29693.94782127798
 30
0.0
 40
0.4224120422002599
100
AcDbArc
 50
11.13311722330909
 51
21.56833333294638
1001
AcDbBlockRepETag
1070
     1
1071
       45
1005
0
  0
ARC
  5
B38D
330
1F
100
AcDbEntity
  8
freecads.com
 48
5.0
100
AcDbCircle
 10
10424.50196729562
 20
29694.09350573082
 30
0.0
 40
0.0748634416087084
100
AcDbArc
 50
7.366520933989816
 51
48.51422892304308
1001
AcDbBlockRepETag
1070
     1
1071
       45
1005
0
  0
ENDSEC
  0
SECTION
  2
OBJECTS
  0
DICTIONARY
  5
C
330
0
100
AcDbDictionary
281
     1
  3
ACAD_CIP_PREVIOUS_PRODUCT_INFO
350
1A5
  3
ACAD_COLOR
350
73
  3
ACAD_DETAILVIEWSTYLE
350
1AB
  3
ACAD_GROUP
350
D
  3
ACAD_LAYOUT
350
1A
  3
ACAD_MATERIAL
350
72
  3
ACAD_MLEADERSTYLE
350
D7
  3
ACAD_MLINESTYLE
350
17
  3
ACAD_PLOTSETTINGS
350
19
  3
ACAD_PLOTSTYLENAME
350
E
  3
ACAD_SCALELIST
350
B6
  3
ACAD_SECTIONVIEWSTYLE
350
1A8
  3
ACAD_TABLESTYLE
350
86
  3
ACAD_VISUALSTYLE
350
99
  3
ACDB_RECOMPOSE_DATA
350
B42E
  3
AcDbVariableDictionary
350
66
  3
AEC_PROPERTY_SET_DEFS
350
268B
  0
DICTIONARY
  5
18E
330
2
100
AcDbDictionary
280
     1
281
     1
  3
ACAD_LAYERSTATES
360
18F
  0
DICTIONARY
  5
E6
330
10
100
AcDbDictionary
280
     1
281
     1
  0
DICTIONARY
  5
15D
330
1F
100
AcDbDictionary
280
     1
281
     1
  3
ACAD_SORTENTS
360
28E
  0
XRECORD
  5
1A5
102
{ACAD_REACTORS
330
C
102
}
330
C
100
AcDbXrecord
280
     1
300
ACD
300
2022
300

  0
DICTIONARY
  5
73
102
{ACAD_REACTORS
330
C
102
}
330
C
100
AcDbDictionary
281
     1
  0
DICTIONARY
  5
1AB
102
{ACAD_REACTORS
330
C
102
}
330
C
100
AcDbDictionary
281
     1
  3
Imperial24
350
1AC
  3
Metric50
350
224
  0
DICTIONARY
  5
D
102
{ACAD_REACTORS
330
C
102
}
330
C
100
AcDbDictionary
281
     1
  0
DICTIONARY
  5
1A
102
{ACAD_REACTORS
330
C
102
}
330
C
100
AcDbDictionary
281
     1
  3
Layout1
350
59
  3
Layout2
350
5E
  3
Model
350
22
  0
DICTIONARY
  5
72
102
{ACAD_REACTORS
330
C
102
}
330
C
100
AcDbDictionary
281
     1
  3
ByBlock
350
97
  3
ByLayer
350
96
  3
Global
350
98
  0
DICTIONARY
  5
D7
102
{ACAD_REACTORS
330
C
102
}
330
C
100
AcDbDictionary
281
     1
  3
Standard
350
D8
  0
DICTIONARY
  5
17
102
{ACAD_REACTORS
330
C
102
}
330
C
100
AcDbDictionary
281
     1
  3
Standard
350
18
  0
DICTIONARY
  5
19
102
{ACAD_REACTORS
330
C
102
}
330
C
100
AcDbDictionary
281
     1
  0
ACDBDICTIONARYWDFLT
  5
E
102
{ACAD_REACTORS
330
C
102
}
330
C
100
AcDbDictionary
281
     1
  3
Normal
350
F
100
AcDbDictionaryWithDefault
340
F
  0
DICTIONARY
  5
B6
102
{ACAD_REACTORS
330
C
102
}
330
C
100
AcDbDictionary
281
     1
  3
*A1
350
47D1
  3
*A2
350
8BD6
  3
A0
350
B7
  3
A1
350
124
  3
A2
350
125
  3
A3
350
126
  3
A4
350
127
  3
A5
350
128
  3
A6
350
129
  3
A7
350
12A
  3
A8
350
12B
  3
A9
350
12C
  3
B0
350
12D
  3
B1
350
12E
  3
B2
350
12F
  3
B3
350
130
  3
B4
350
131
  3
B5
350
132
  3
B6
350
133
  3
B7
350
134
  3
B8
350
135
  3
B9
350
136
  3
C0
350
137
  3
C1
350
138
  3
C2
350
139
  3
C3
350
13A
  3
C4
350
13B
  3
C5
350
13C
  3
C6
350
13D
  3
C7
350
13E
  3
C8
350
13F
  3
C9
350
140
  3
D0
350
141
  3
D1
350
142
  3
D2
350
143
  0
DICTIONARY
  5
1A8
102
{ACAD_REACTORS
330
C
102
}
330
C
100
AcDbDictionary
281
     1
  3
Imperial24
350
1AA
  3
Metric50
350
223
  0
DICTIONARY
  5
86
102
{ACAD_REACTORS
330
C
102
}
330
C
100
AcDbDictionary
281
     1
  3
Standard
350
87
  0
DICTIONARY
  5
99
102
{ACAD_REACTORS
330
C
102
}
330
C
100
AcDbDictionary
281
     1
  3
2dWireframe
350
9F
  3
3dWireframe
350
2684
  3
Basic
350
9E
  3
Brighten
350
A5
  3
ColorChange
350
A9
  3
Conceptual
350
A2
  3
Dim
350
A4
  3
EdgeColorOff
350
175
  3
Facepattern
350
A8
  3
Flat
350
9A
  3
FlatWithEdges
350
9B
  3
Gouraud
350
9C
  3
GouraudWithEdges
350
9D
  3
Hidden
350
A1
  3
JitterOff
350
173
  3
Linepattern
350
A7
  3
OverhangOff
350
174
  3
Realistic
350
A3
  3
Shaded
350
182
  3
Shaded with edges
350
181
  3
Shades of Gray
350
17E
  3
Sketchy
350
17F
  3
Thicken
350
A6
  3
Wireframe
350
A0
  3
X-Ray
350
180
  0
XRECORD
  5
B42E
102
{ACAD_REACTORS
330
C
102
}
330
C
100
AcDbXrecord
280
     1
 90
        1
330
87
  0
DICTIONARY
  5
66
102
{ACAD_REACTORS
330
C
102
}
330
C
100
AcDbDictionary
281
     1
  3
CANNOSCALE
350
F0
  3
CMLEADERSTYLE
350
EF
  3
CTABLESTYLE
350
89
  3
CVIEWDETAILSTYLE
350
1B7
  3
CVIEWSECTIONSTYLE
350
1B8
  3
DIMASSOC
350
67
  3
HIDETEXT
350
6B
  3
LAYEREVAL
350
14D
  3
LAYERNOTIFY
350
14E
  0
DICTIONARY
  5
268B
102
{ACAD_REACTORS
330
C
102
}
330
C
100
AcDbDictionary
281
     1
  0
DICTIONARY
  5
18F
102
{ACAD_REACTORS
330
18E
102
}
330
18E
100
AcDbDictionary
281
     1
  0
SORTENTSTABLE
  5
28E
102
{ACAD_REACTORS
330
15D
102
}
330
15D
100
AcDbSortentsTable
330
1F
  0
ACDBDETAILVIEWSTYLE
  5
1AC
102
{ACAD_REACTORS
330
1AB
102
}
330
1AB
100
AcDbModelDocViewStyle
 70
     0
  3
Imperial24
290
     0
300
Imperial24
 90
        0
100
AcDbDetailViewStyle
 70
     0
 71
     0
 90
        3
 71
     1
340
11
 62
   256
 40
0.24
340
0
 62
   256
 40
0.24
300

 40
0.36
280
     3
 71
     2
340
16
 90
       25
 62
   256
 71
     3
340
11
 62
   256
 40
0.24
 90
        1
 40
0.75
 90
        1
300
%<\AcVar ViewType \f "%tc1">% %<\AcVar ViewDetailId>%\PSCALE %<\AcVar ViewScale \f "%sn">%
 71
     4
340
16
 90
       25
 62
   256
340
16
 90
       25
 62
   256
280
     0
  0
ACDBDETAILVIEWSTYLE
  5
224
102
{ACAD_REACTORS
330
1AB
102
}
330
1AB
100
AcDbModelDocViewStyle
 70
     0
  3
Metric50
290
     0
300
Metric50
 90
        0
100
AcDbDetailViewStyle
 70
     0
 71
     0
 90
        3
 71
     1
340
11
 62
   256
 40
5.0
340
0
 62
   256
 40
5.0
300

 40
0.0
280
     1
 71
     2
340
16
 90
       25
 62
   256
 71
     3
340
11
 62
   256
 40
5.0
 90
        0
 40
15.0
 90
        1
300
%<\AcVar ViewDetailId>% (%<\AcVar ViewScale \f "%sn">%)
 71
     4
340
16
 90
       25
 62
   256
340
16
 90
       25
 62
   256
280
     0
  0
LAYOUT
  5
59
102
{ACAD_REACTORS
330
1A
102
}
330
1A
100
AcDbPlotSettings
  1

  2
None
  4

  6

 40
0.0
 41
0.0
 42
0.0
 43
0.0
 44
0.0
 45
0.0
 46
0.0
 47
0.0
 48
0.0
 49
0.0
140
0.0
141
0.0
142
1.0
143
1.0
 70
   688
 72
     0
 73
     0
 74
     5
  7

 75
    16
147
1.0
 76
     0
 77
     2
 78
   300
148
0.0
149
0.0
100
AcDbLayout
  1
Layout1
 70
     1
 71
     1
 10
0.0
 20
0.0
 11
12.0
 21
9.0
 12
0.0
 22
0.0
 32
0.0
 14
0.0
 24
0.0
 34
0.0
 15
0.0
 25
0.0
 35
0.0
146
0.0
 13
0.0
 23
0.0
 33
0.0
 16
1.0
 26
0.0
 36
0.0
 17
0.0
 27
1.0
 37
0.0
 76
     0
330
58
  0
LAYOUT
  5
5E
102
{ACAD_REACTORS
330
1A
102
}
330
1A
100
AcDbPlotSettings
  1

  2
None
  4

  6

 40
0.0
 41
0.0
 42
0.0
 43
0.0
 44
0.0
 45
0.0
 46
0.0
 47
0.0
 48
0.0
 49
0.0
140
0.0
141
0.0
142
1.0
143
1.0
 70
   688
 72
     0
 73
     0
 74
     5
  7

 75
    16
147
1.0
 76
     0
 77
     2
 78
   300
148
0.0
149
0.0
100
AcDbLayout
  1
Layout2
 70
     1
 71
     2
 10
0.0
 20
0.0
 11
12.0
 21
9.0
 12
0.0
 22
0.0
 32
0.0
 14
0.0
 24
0.0
 34
0.0
 15
0.0
 25
0.0
 35
0.0
146
0.0
 13
0.0
 23
0.0
 33
0.0
 16
1.0
 26
0.0
 36
0.0
 17
0.0
 27
1.0
 37
0.0
 76
     0
330
5D
  0
LAYOUT
  5
22
102
{ACAD_XDICTIONARY
360
194
102
}
102
{ACAD_REACTORS
330
1A
102
}
330
1A
100
AcDbPlotSettings
  1

  2
none_device
  4
ANSI_A_(8.50_x_11.00_Inches)
  6

 40
6.349999904632568
 41
19.04999923706055
 42
6.350006103515625
 43
19.04998779296875
 44
215.8999938964844
 45
279.3999938964844
 46
0.0
 47
0.0
 48
0.0
 49
0.0
140
0.0
141
0.0
142
1.0
143
2.584895464708373
 70
 11952
 72
     0
 73
     1
 74
     0
  7

 75
     0
147
0.3868628397755418
 76
     0
 77
     2
 78
   300
148
0.0
149
0.0
100
AcDbLayout
  1
Model
 70
     1
 71
     0
 10
0.0
 20
0.0
 11
12.0
 21
9.0
 12
0.0
 22
0.0
 32
0.0
 14
0.0
 24
0.0
 34
0.0
 15
0.0
 25
0.0
 35
0.0
146
0.0
 13
0.0
 23
0.0
 33
0.0
 16
1.0
 26
0.0
 36
0.0
 17
0.0
 27
1.0
 37
0.0
 76
     0
330
1F
331
94
  0
MATERIAL
  5
97
102
{ACAD_XDICTIONARY
360
188
102
}
102
{ACAD_REACTORS
330
72
102
}
330
72
100
AcDbMaterial
  1
ByBlock
 94
       63
  0
MATERIAL
  5
96
102
{ACAD_XDICTIONARY
360
186
102
}
102
{ACAD_REACTORS
330
72
102
}
330
72
100
AcDbMaterial
  1
ByLayer
 94
       63
  0
MATERIAL
  5
98
102
{ACAD_XDICTIONARY
360
110
102
}
102
{ACAD_REACTORS
330
72
102
}
330
72
100
AcDbMaterial
  1
Global
 43
0.0208000000566244
 43
0.0
 43
0.0
 43
0.0
 43
0.0
 43
0.0208000000566244
 43
0.0
 43
0.0
 43
0.0
 43
0.0
 43
1.0
 43
0.0
 43
0.0
 43
0.0
 43
0.0
 43
1.0
 49
0.0208000000566244
 49
0.0
 49
0.0
 49
0.0
 49
0.0
 49
0.0208000000566244
 49
0.0
 49
0.0
 49
0.0
 49
0.0
 49
1.0
 49
0.0
 49
0.0
 49
0.0
 49
0.0
 49
1.0
142
0.0208000000566244
142
0.0
142
0.0
142
0.0
142
0.0
142
0.0208000000566244
142
0.0
142
0.0
142
0.0
142
0.0
142
1.0
142
0.0
142
0.0
142
0.0
142
0.0
142
1.0
144
0.0208000000566244
144
0.0
144
0.0
144
0.0
144
0.0
144
0.0208000000566244
144
0.0
144
0.0
144
0.0
144
0.0
144
1.0
144
0.0
144
0.0
144
0.0
144
0.0
144
1.0
 94
       63
1001
ACAD
1070
    -1
1070
     3
1070
     0
1000

1071
        0
1070
     0
  0
MLEADERSTYLE
  5
D8
102
{ACAD_REACTORS
330
D7
102
}
330
D7
100
AcDbMLeaderStyle
179
     2
170
     2
171
     1
172
     0
 90
        2
 40
0.0
 41
0.0
173
     1
 91
-1056964608
340
14
 92
       -2
290
     1
 42
0.09
291
     1
 43
0.36
  3
Standard
 44
0.18
300

342
11
174
     1
178
     1
175
     1
176
     0
 93
-1056964608
 45
0.18
292
     0
297
     0
 46
0.18
 94
-1056964608
 47
1.0
 49
1.0
140
1.0
293
     1
141
0.0
294
     1
177
     0
142
1.0
295
     0
296
     0
143
0.125
271
     0
272
     9
273
     9
298
     0
  0
MLINESTYLE
  5
18
102
{ACAD_REACTORS
330
17
102
}
330
17
100
AcDbMlineStyle
  2
STANDARD
 70
     0
  3

 62
   256
 51
90.0
 52
90.0
 71
     2
 49
0.5
 62
   256
  6
BYLAYER
 49
-0.5
 62
   256
  6
BYLAYER
  0
ACDBPLACEHOLDER
  5
F
102
{ACAD_REACTORS
330
E
102
}
330
E
  0
SCALE
  5
47D1
102
{ACAD_REACTORS
330
B6
102
}
330
B6
100
AcDbScale
 70
     0
300
1:100_1_XREF_XREF_XREF_XREF
140
1.0
141
0.1
290
     0
  0
SCALE
  5
8BD6
102
{ACAD_REACTORS
330
B6
102
}
330
B6
100
AcDbScale
 70
     0
300
1:100_1_XREF_XREF_XREF_XREF_XREF_XREF_XREF_XREF_XREF
140
1.0
141
0.1
290
     0
1001
ACAD
1000
AcRTDxfName
1000
SCALE
1000
AcRTDxfName
1000
SCALE
1000
AcRTDxfName
1000
SCALE
1000
AcRTDxfName
1000
SCALE
  0
SCALE
  5
B7
102
{ACAD_REACTORS
330
B6
102
}
330
B6
100
AcDbScale
 70
     0
300
1:1
140
1.0
141
1.0
290
     1
  0
SCALE
  5
124
102
{ACAD_REACTORS
330
B6
102
}
330
B6
100
AcDbScale
 70
     0
300
1:2
140
1.0
141
2.0
290
     0
  0
SCALE
  5
125
102
{ACAD_REACTORS
330
B6
102
}
330
B6
100
AcDbScale
 70
     0
300
1:4
140
1.0
141
4.0
290
     0
  0
SCALE
  5
126
102
{ACAD_REACTORS
330
B6
102
}
330
B6
100
AcDbScale
 70
     0
300
1:5
140
1.0
141
5.0
290
     0
  0
SCALE
  5
127
102
{ACAD_REACTORS
330
B6
102
}
330
B6
100
AcDbScale
 70
     0
300
1:8
140
1.0
141
8.0
290
     0
  0
SCALE
  5
128
102
{ACAD_REACTORS
330
B6
102
}
330
B6
100
AcDbScale
 70
     0
300
1:10
140
1.0
141
10.0
290
     0
  0
SCALE
  5
129
102
{ACAD_REACTORS
330
B6
102
}
330
B6
100
AcDbScale
 70
     0
300
1:16
140
1.0
141
16.0
290
     0
  0
SCALE
  5
12A
102
{ACAD_REACTORS
330
B6
102
}
330
B6
100
AcDbScale
 70
     0
300
1:20
140
1.0
141
20.0
290
     0
  0
SCALE
  5
12B
102
{ACAD_REACTORS
330
B6
102
}
330
B6
100
AcDbScale
 70
     0
300
1:30
140
1.0
141
30.0
290
     0
  0
SCALE
  5
12C
102
{ACAD_REACTORS
330
B6
102
}
330
B6
100
AcDbScale
 70
     0
300
1:40
140
1.0
141
40.0
290
     0
  0
SCALE
  5
12D
102
{ACAD_REACTORS
330
B6
102
}
330
B6
100
AcDbScale
 70
     0
300
1:50
140
1.0
141
50.0
290
     0
  0
SCALE
  5
12E
102
{ACAD_REACTORS
330
B6
102
}
330
B6
100
AcDbScale
 70
     0
300
1:100
140
1.0
141
100.0
290
     0
  0
SCALE
  5
12F
102
{ACAD_REACTORS
330
B6
102
}
330
B6
100
AcDbScale
 70
     0
300
2:1
140
2.0
141
1.0
290
     0
  0
SCALE
  5
130
102
{ACAD_REACTORS
330
B6
102
}
330
B6
100
AcDbScale
 70
     0
300
4:1
140
4.0
141
1.0
290
     0
  0
SCALE
  5
131
102
{ACAD_REACTORS
330
B6
102
}
330
B6
100
AcDbScale
 70
     0
300
8:1
140
8.0
141
1.0
290
     0
  0
SCALE
  5
132
102
{ACAD_REACTORS
330
B6
102
}
330
B6
100
AcDbScale
 70
     0
300
10:1
140
10.0
141
1.0
290
     0
  0
SCALE
  5
133
102
{ACAD_REACTORS
330
B6
102
}
330
B6
100
AcDbScale
 70
     0
300
100:1
140
100.0
141
1.0
290
     0
  0
SCALE
  5
134
102
{ACAD_REACTORS
330
B6
102
}
330
B6
100
AcDbScale
 70
     0
300
1/128" = 1'-0"
140
0.0078125
141
12.0
290
     0
  0
SCALE
  5
135
102
{ACAD_REACTORS
330
B6
102
}
330
B6
100
AcDbScale
 70
     0
300
1/64" = 1'-0"
140
0.015625
141
12.0
290
     0
  0
SCALE
  5
136
102
{ACAD_REACTORS
330
B6
102
}
330
B6
100
AcDbScale
 70
     0
300
1/32" = 1'-0"
140
0.03125
141
12.0
290
     0
  0
SCALE
  5
137
102
{ACAD_REACTORS
330
B6
102
}
330
B6
100
AcDbScale
 70
     0
300
1/16" = 1'-0"
140
0.0625
141
12.0
290
     0
  0
SCALE
  5
138
102
{ACAD_REACTORS
330
B6
102
}
330
B6
100
AcDbScale
 70
     0
300
3/32" = 1'-0"
140
0.09375
141
12.0
290
     0
  0
SCALE
  5
139
102
{ACAD_REACTORS
330
B6
102
}
330
B6
100
AcDbScale
 70
     0
300
1/8" = 1'-0"
140
0.125
141
12.0
290
     0
  0
SCALE
  5
13A
102
{ACAD_REACTORS
330
B6
102
}
330
B6
100
AcDbScale
 70
     0
300
3/16" = 1'-0"
140
0.1875
141
12.0
290
     0
  0
SCALE
  5
13B
102
{ACAD_REACTORS
330
B6
102
}
330
B6
100
AcDbScale
 70
     0
300
1/4" = 1'-0"
140
0.25
141
12.0
290
     0
  0
SCALE
  5
13C
102
{ACAD_REACTORS
330
B6
102
}
330
B6
100
AcDbScale
 70
     0
300
3/8" = 1'-0"
140
0.375
141
12.0
290
     0
  0
SCALE
  5
13D
102
{ACAD_REACTORS
330
B6
102
}
330
B6
100
AcDbScale
 70
     0
300
1/2" = 1'-0"
140
0.5
141
12.0
290
     0
  0
SCALE
  5
13E
102
{ACAD_REACTORS
330
B6
102
}
330
B6
100
AcDbScale
 70
     0
300
3/4" = 1'-0"
140
0.75
141
12.0
290
     0
  0
SCALE
  5
13F
102
{ACAD_REACTORS
330
B6
102
}
330
B6
100
AcDbScale
 70
     0
300
1" = 1'-0"
140
1.0
141
12.0
290
     0
  0
SCALE
  5
140
102
{ACAD_REACTORS
330
B6
102
}
330
B6
100
AcDbScale
 70
     0
300
1-1/2" = 1'-0"
140
1.5
141
12.0
290
     0
  0
SCALE
  5
141
102
{ACAD_REACTORS
330
B6
102
}
330
B6
100
AcDbScale
 70
     0
300
3" = 1'-0"
140
3.0
141
12.0
290
     0
  0
SCALE
  5
142
102
{ACAD_REACTORS
330
B6
102
}
330
B6
100
AcDbScale
 70
     0
300
6" = 1'-0"
140
6.0
141
12.0
290
     0
  0
SCALE
  5
143
102
{ACAD_REACTORS
330
B6
102
}
330
B6
100
AcDbScale
 70
     0
300
1'-0" = 1'-0"
140
12.0
141
12.0
290
     0
  0
ACDBSECTIONVIEWSTYLE
  5
1AA
102
{ACAD_REACTORS
330
1A8
102
}
330
1A8
100
AcDbModelDocViewStyle
 70
     0
  3
Imperial24
290
     0
300
Imperial24
 90
        0
100
AcDbSectionViewStyle
 70
     0
 71
     0
 90
       78
 71
     1
340
11
 62
   256
 40
0.24
340
0
340
0
 62
   256
 40
0.24
300
I, O, Q, S, X, Z
 40
0.48
 90
        3
 40
0.18
 90
        1
 71
     2
340
16
 90
       25
 62
   256
340
16
 90
       50
 62
   256
 40
0.24
 40
0.0
 40
0.24
 71
     3
340
11
 62
   256
 40
0.24
 90
        1
 40
0.75
 90
        1
300
%<\AcVar ViewType \f "%tc1">% %<\AcVar ViewSectionStartId>%-%<\AcVar ViewSectionEndId>%\PSCALE %<\AcVar ViewScale \f "%sn">%
 71
     4
 62
   256
 62
   257
300
ANSI31
 40
1.0
 90
        0
290
     0
290
     0
 90
        6
 40
0.0
 40
1.570796326794896
 40
0.2617993877991494
 40
1.308996938995747
 40
-0.2617993877991494
 40
1.832595714594046
  0
ACDBSECTIONVIEWSTYLE
  5
223
102
{ACAD_REACTORS
330
1A8
102
}
330
1A8
100
AcDbModelDocViewStyle
 70
     0
  3
Metric50
290
     0
300
Metric50
 90
        0
100
AcDbSectionViewStyle
 70
     0
 71
     0
 90
      102
 71
     1
340
11
 62
   256
 40
5.0
340
0
340
0
 62
   256
 40
5.0
300
I, O, Q, S, X, Z
 40
10.0
 90
        0
 40
2.5
 90
        0
 71
     2
340
16
 90
       25
 62
   256
340
16
 90
       50
 62
   256
 40
5.0
 40
2.5
 40
5.0
 71
     3
340
11
 62
   256
 40
5.0
 90
        0
 40
15.0
 90
        1
300
%<\AcVar ViewSectionStartId>%-%<\AcVar ViewSectionEndId>% (%<\AcVar ViewScale \f "%sn">%)
 71
     4
 62
   256
 62
   257
300
ANSI31
 40
1.0
 90
        0
290
     0
290
     0
 90
        6
 40
0.0
 40
1.570796326794896
 40
0.2617993877991494
 40
1.308996938995747
 40
-0.2617993877991494
 40
1.832595714594046
  0
TABLESTYLE
  5
87
102
{ACAD_XDICTIONARY
360
104
102
}
102
{ACAD_REACTORS
330
86
102
}
330
86
100
AcDbTableStyle
280
     0
  3
Standard
 70
     0
 71
     0
 40
0.06
 41
0.06
280
     0
281
     0
  7
Standard
140
0.18
170
     2
 62
     0
 63
     7
283
     0
 90
      512
 91
        0
  1

274
    -2
284
     1
 64
     0
275
    -2
285
     1
 65
     0
276
    -2
286
     1
 66
     0
277
    -2
287
     1
 67
     0
278
    -2
288
     1
 68
     0
279
    -2
289
     1
 69
     0
  7
Standard
140
0.25
170
     5
 62
     0
 63
     7
283
     0
 90
      512
 91
        0
  1

274
    -2
284
     1
 64
     0
275
    -2
285
     1
 65
     0
276
    -2
286
     1
 66
     0
277
    -2
287
     1
 67
     0
278
    -2
288
     1
 68
     0
279
    -2
289
     1
 69
     0
  7
Standard
140
0.18
170
     5
 62
     0
 63
     7
283
     0
 90
      512
 91
        0
  1

274
    -2
284
     1
 64
     0
275
    -2
285
     1
 65
     0
276
    -2
286
     1
 66
     0
277
    -2
287
     1
 67
     0
278
    -2
288
     1
 68
     0
279
    -2
289
     1
 69
     0
  0
VISUALSTYLE
  5
9F
102
{ACAD_REACTORS
330
99
102
}
330
99
100
AcDbVisualStyle
  2
2dWireframe
 70
     4
177
     3
291
     0
 70
    58
 90
        0
176
     1
 90
        2
176
     1
 90
        1
176
     1
 90
        0
176
     1
 40
0.6
176
     1
 40
30.0
176
     1
 62
     7
420
 16777215
176
     1
 90
        1
176
     1
 90
        4
176
     1
 62
     7
176
     1
 62
   257
176
     1
 90
        1
176
     1
 90
        1
176
     1
 40
1.0
176
     1
 90
        0
176
     1
 62
   257
176
     1
 40
1.0
176
     1
 90
        1
176
     1
 90
        6
176
     1
 90
        2
176
     1
 62
     7
176
     1
 90
        5
176
     1
 90
        0
176
     1
 90
        0
176
     1
290
     0
176
     1
 90
        1
176
     1
 40
0.0
176
     1
 90
        0
176
     1
290
     1
176
     1
290
     1
176
     1
290
     0
176
     1
290
     0
176
     1
290
     0
176
     1
290
     0
176
     1
290
     0
176
     1
290
     0
176
     1
290
     0
176
     1
 90
       50
176
     1
 40
0.0
176
     1
 40
1.0
176
     1
 90
        0
176
     1
 62
    18
420
        0
176
     1
 90
       50
176
     1
 90
        3
176
     1
 62
     5
420
      255
176
     1
290
     0
176
     1
 90
       50
176
     1
 90
       50
176
     1
 90
       50
176
     1
290
     0
176
     1
 90
       50
176
     1
 62
   256
176
     0
 40
1.0
176
     0
 90
        2
176
     1
  1
strokes_ogs.tif
176
     1
290
     0
176
     1
 40
1.0
176
     1
 40
1.0
176
     1
  0
VISUALSTYLE
  5
2684
102
{ACAD_REACTORS
330
99
102
}
330
99
100
AcDbVisualStyle
  2
3dWireframe
 70
     5
177
     3
291
     0
 70
    58
 90
        0
176
     1
 90
        2
176
     1
 90
        0
176
     1
 90
        0
176
     1
 40
0.6
176
     1
 40
30.0
176
     1
 62
     7
176
     1
 90
        1
176
     1
 90
        4
176
     1
 62
     7
176
     1
 62
   257
176
     1
 90
        1
176
     1
 90
        1
176
     1
 40
1.0
176
     1
 90
        0
176
     1
 62
   257
176
     1
 40
1.0
176
     1
 90
        1
176
     1
 90
        6
176
     1
 90
        2
176
     1
 62
     7
176
     1
 90
        5
176
     1
 90
        0
176
     1
 90
        0
176
     1
290
     0
176
     1
 90
        1
176
     1
 40
0.0
176
     1
 90
        0
176
     1
290
     0
176
     1
290
     1
176
     1
290
     1
176
     1
290
     0
176
     1
290
     0
176
     1
290
     0
176
     1
290
     0
176
     1
290
     0
176
     1
290
     0
176
     1
 90
       50
176
     1
 40
0.0
176
     1
 40
1.0
176
     1
 90
        0
176
     1
 62
    18
420
        0
176
     1
 90
       50
176
     1
 90
        3
176
     1
 62
     5
420
      255
176
     1
290
     0
176
     1
 90
       50
176
     1
 90
       50
176
     1
 90
       50
176
     1
290
     0
176
     1
 90
       50
176
     1
 62
   256
176
     0
 40
1.0
176
     0
 90
        2
176
     1
  1
strokes_ogs.tif
176
     1
290
     0
176
     1
 40
1.0
176
     1
 40
1.0
176
     1
1001
ACAD
1000
AcRTDxfName
1000
VISUALSTYLE
  0
VISUALSTYLE
  5
9E
102
{ACAD_REACTORS
330
99
102
}
330
99
100
AcDbVisualStyle
  2
Basic
 70
     7
177
     3
291
     1
 70
    58
 90
        1
176
     1
 90
        0
176
     1
 90
        1
176
     1
 90
        0
176
     1
 40
0.6
176
     1
 40
30.0
176
     1
 62
     7
420
 16777215
176
     1
 90
        0
176
     1
 90
        4
176
     1
 62
     7
176
     1
 62
   257
176
     1
 90
        1
176
     1
 90
        1
176
     1
 40
1.0
176
     1
 90
        8
176
     1
 62
     7
176
     1
 40
1.0
176
     1
 90
        1
176
     1
 90
        6
176
     1
 90
        2
176
     1
 62
     7
176
     1
 90
        5
176
     1
 90
        0
176
     1
 90
        0
176
     1
290
     0
176
     1
 90
        1
176
     1
 40
0.0
176
     1
 90
        0
176
     1
290
     0
176
     1
290
     1
176
     1
290
     1
176
     1
290
     0
176
     1
290
     0
176
     1
290
     0
176
     1
290
     0
176
     1
290
     0
176
     1
290
     0
176
     1
 90
       50
176
     1
 40
0.0
176
     1
 40
1.0
176
     1
 90
        0
176
     1
 62
    18
420
        0
176
     1
 90
       50
176
     1
 90
        3
176
     1
 62
     5
420
      255
176
     1
290
     0
176
     1
 90
       50
176
     1
 90
       50
176
     1
 90
       50
176
     1
290
     0
176
     1
 90
       50
176
     1
 62
   256
176
     0
 40
1.0
176
     0
 90
        2
176
     1
  1
strokes_ogs.tif
176
     1
290
     0
176
     1
 40
1.0
176
     1
 40
1.0
176
     1
  0
VISUALSTYLE
  5
A5
102
{ACAD_REACTORS
330
99
102
}
330
99
100
AcDbVisualStyle
  2
Brighten
 70
    12
177
     3
291
     1
 70
    58
 90
        2
176
     1
 90
        2
176
     1
 90
        1
176
     1
 90
        0
176
     1
 40
0.6
176
     1
 40
30.0
176
     1
 62
     7
420
 16777215
176
     1
 90
        1
176
     1
 90
        4
176
     1
 62
     7
176
     1
 62
   257
176
     1
 90
        1
176
     1
 90
        1
176
     1
 40
1.0
176
     1
 90
        8
176
     1
 62
     7
176
     1
 40
1.0
176
     1
 90
        1
176
     1
 90
        6
176
     1
 90
        2
176
     1
 62
     7
176
     1
 90
        5
176
     1
 90
        0
176
     1
 90
        0
176
     1
290
     0
176
     1
 90
        1
176
     1
 40
50.0
176
     1
 90
        0
176
     1
290
     0
176
     1
290
     1
176
     1
290
     1
176
     1
290
     0
176
     1
290
     0
176
     1
290
     0
176
     1
290
     0
176
     1
290
     0
176
     1
290
     0
176
     1
 90
       50
176
     1
 40
0.0
176
     1
 40
1.0
176
     1
 90
        0
176
     1
 62
    18
420
        0
176
     1
 90
       50
176
     1
 90
        3
176
     1
 62
     5
420
      255
176
     1
290
     0
176
     1
 90
       50
176
     1
 90
       50
176
     1
 90
       50
176
     1
290
     0
176
     1
 90
       50
176
     1
 62
   256
176
     0
 40
1.0
176
     0
 90
        2
176
     1
  1
strokes_ogs.tif
176
     1
290
     0
176
     1
 40
1.0
176
     1
 40
1.0
176
     1
  0
VISUALSTYLE
  5
A9
102
{ACAD_REACTORS
330
99
102
}
330
99
100
AcDbVisualStyle
  2
ColorChange
 70
    16
177
     3
291
     1
 70
    58
 90
        2
176
     1
 90
        2
176
     1
 90
        3
176
     1
 90
        0
176
     1
 40
0.6
176
     1
 40
30.0
176
     1
 62
     8
420
  8421504
176
     1
 90
        1
176
     1
 90
        4
176
     1
 62
     7
176
     1
 62
   257
176
     1
 90
        1
176
     1
 90
        1
176
     1
 40
1.0
176
     1
 90
        8
176
     1
 62
     8
420
  8421504
176
     1
 40
1.0
176
     1
 90
        1
176
     1
 90
        6
176
     1
 90
        2
176
     1
 62
     7
176
     1
 90
        5
176
     1
 90
        0
176
     1
 90
        0
176
     1
290
     0
176
     1
 90
        1
176
     1
 40
0.0
176
     1
 90
        0
176
     1
290
     0
176
     1
290
     1
176
     1
290
     1
176
     1
290
     0
176
     1
290
     0
176
     1
290
     0
176
     1
290
     0
176
     1
290
     0
176
     1
290
     0
176
     1
 90
       50
176
     1
 40
0.0
176
     1
 40
1.0
176
     1
 90
        0
176
     1
 62
    18
420
        0
176
     1
 90
       50
176
     1
 90
        3
176
     1
 62
     5
420
      255
176
     1
290
     0
176
     1
 90
       50
176
     1
 90
       50
176
     1
 90
       50
176
     1
290
     0
176
     1
 90
       50
176
     1
 62
   256
176
     0
 40
1.0
176
     0
 90
        2
176
     1
  1
strokes_ogs.tif
176
     1
290
     0
176
     1
 40
1.0
176
     1
 40
1.0
176
     1
  0
VISUALSTYLE
  5
A2
102
{ACAD_REACTORS
330
99
102
}
330
99
100
AcDbVisualStyle
  2
Conceptual
 70
     9
177
     3
291
     0
 70
    58
 90
        3
176
     1
 90
        2
176
     1
 90
        1
176
     1
 90
        0
176
     1
 40
0.6
176
     1
 40
30.0
176
     1
 62
     7
420
 16777215
176
     1
 90
        2
176
     1
 90
        2
176
     1
 62
     7
176
     1
 62
   257
176
     1
 90
        1
176
     1
 90
        1
176
     1
 40
40.0
176
     1
 90
        8
176
     1
 62
     7
176
     1
 40
1.0
176
     1
 90
        1
176
     1
 90
        6
176
     1
 90
        2
176
     1
 62
     7
176
     1
 90
        3
176
     1
 90
        0
176
     1
 90
        0
176
     1
290
     0
176
     1
 90
        1
176
     1
 40
0.0
176
     1
 90
        0
176
     1
290
     0
176
     1
290
     1
176
     1
290
     1
176
     1
290
     0
176
     1
290
     0
176
     1
290
     0
176
     1
290
     0
176
     1
290
     0
176
     1
290
     0
176
     1
 90
       50
176
     1
 40
0.0
176
     1
 40
1.0
176
     1
 90
        0
176
     1
 62
    18
420
        0
176
     1
 90
       50
176
     1
 90
        3
176
     1
 62
     5
420
      255
176
     1
290
     0
176
     1
 90
       50
176
     1
 90
       50
176
     1
 90
       50
176
     1
290
     0
176
     1
 90
       50
176
     1
 62
   256
176
     0
 40
1.0
176
     0
 90
        2
176
     1
  1
strokes_ogs.tif
176
     1
290
     0
176
     1
 40
1.0
176
     1
 40
1.0
176
     1
  0
VISUALSTYLE
  5
A4
102
{ACAD_REACTORS
330
99
102
}
330
99
100
AcDbVisualStyle
  2
Dim
 70
    11
177
     3
291
     1
 70
    58
 90
        2
176
     1
 90
        2
176
     1
 90
        1
176
     1
 90
        0
176
     1
 40
0.6
176
     1
 40
30.0
176
     1
 62
     7
420
 16777215
176
     1
 90
        1
176
     1
 90
        4
176
     1
 62
     7
176
     1
 62
   257
176
     1
 90
        1
176
     1
 90
        1
176
     1
 40
1.0
176
     1
 90
        8
176
     1
 62
     7
176
     1
 40
1.0
176
     1
 90
        1
176
     1
 90
        6
176
     1
 90
        2
176
     1
 62
     7
176
     1
 90
        5
176
     1
 90
        0
176
     1
 90
        0
176
     1
290
     0
176
     1
 90
        1
176
     1
 40
-50.0
176
     1
 90
        0
176
     1
290
     0
176
     1
290
     1
176
     1
290
     1
176
     1
290
     0
176
     1
290
     0
176
     1
290
     0
176
     1
290
     0
176
     1
290
     0
176
     1
290
     0
176
     1
 90
       50
176
     1
 40
0.0
176
     1
 40
1.0
176
     1
 90
        0
176
     1
 62
    18
420
        0
176
     1
 90
       50
176
     1
 90
        3
176
     1
 62
     5
420
      255
176
     1
290
     0
176
     1
 90
       50
176
     1
 90
       50
176
     1
 90
       50
176
     1
290
     0
176
     1
 90
       50
176
     1
 62
   256
176
     0
 40
1.0
176
     0
 90
        2
176
     1
  1
strokes_ogs.tif
176
     1
290
     0
176
     1
 40
1.0
176
     1
 40
1.0
176
     1
  0
VISUALSTYLE
  5
175
102
{ACAD_REACTORS
330
99
102
}
330
99
100
AcDbVisualStyle
  2
EdgeColorOff
 70
    22
177
     3
291
     1
 70
    58
 90
        2
176
     0
 90
        2
176
     0
 90
        0
176
     0
 90
        0
176
     0
 40
0.6
176
     0
 40
30.0
176
     0
 62
     7
420
 16777215
176
     0
 90
        1
176
     0
 90
        4
176
     0
 62
     7
176
     0
 62
   257
176
     0
 90
        1
176
     0
 90
        1
176
     0
 40
1.0
176
     0
 90
        8
176
     2
 62
     7
176
     0
 40
1.0
176
     0
 90
        1
176
     0
 90
        6
176
     0
 90
        2
176
     0
 62
     7
176
     0
 90
        5
176
     0
 90
        0
176
     0
 90
        0
176
     0
290
     0
176
     0
 90
        1
176
     0
 40
0.0
176
     0
 90
        0
176
     0
290
     0
176
     1
290
     1
176
     1
290
     1
176
     1
290
     0
176
     1
290
     0
176
     1
290
     0
176
     1
290
     0
176
     1
290
     0
176
     1
290
     0
176
     1
 90
       50
176
     1
 40
0.0
176
     1
 40
1.0
176
     1
 90
        0
176
     1
 62
    18
420
        0
176
     1
 90
       50
176
     1
 90
        3
176
     1
 62
     5
420
      255
176
     1
290
     0
176
     1
 90
       50
176
     1
 90
       50
176
     1
 90
       50
176
     1
290
     0
176
     1
 90
       50
176
     1
 62
   256
176
     0
 40
1.0
176
     0
 90
        2
176
     1
  1
strokes_ogs.tif
176
     1
290
     0
176
     1
 40
1.0
176
     1
 40
1.0
176
     1
  0
VISUALSTYLE
  5
A8
102
{ACAD_REACTORS
330
99
102
}
330
99
100
AcDbVisualStyle
  2
Facepattern
 70
    15
177
     3
291
     1
 70
    58
 90
        2
176
     1
 90
        2
176
     1
 90
        1
176
     1
 90
        0
176
     1
 40
0.6
176
     1
 40
30.0
176
     1
 62
     7
420
 16777215
176
     1
 90
        1
176
     1
 90
        4
176
     1
 62
     7
176
     1
 62
   257
176
     1
 90
        1
176
     1
 90
        1
176
     1
 40
1.0
176
     1
 90
        8
176
     1
 62
     7
176
     1
 40
1.0
176
     1
 90
        1
176
     1
 90
        6
176
     1
 90
        2
176
     1
 62
     7
176
     1
 90
        5
176
     1
 90
        0
176
     1
 90
        0
176
     1
290
     0
176
     1
 90
        1
176
     1
 40
0.0
176
     1
 90
        0
176
     1
290
     0
176
     1
290
     1
176
     1
290
     1
176
     1
290
     0
176
     1
290
     0
176
     1
290
     0
176
     1
290
     0
176
     1
290
     0
176
     1
290
     0
176
     1
 90
       50
176
     1
 40
0.0
176
     1
 40
1.0
176
     1
 90
        0
176
     1
 62
    18
420
        0
176
     1
 90
       50
176
     1
 90
        3
176
     1
 62
     5
420
      255
176
     1
290
     0
176
     1
 90
       50
176
     1
 90
       50
176
     1
 90
       50
176
     1
290
     0
176
     1
 90
       50
176
     1
 62
   256
176
     0
 40
1.0
176
     0
 90
        2
176
     1
  1
strokes_ogs.tif
176
     1
290
     0
176
     1
 40
1.0
176
     1
 40
1.0
176
     1
  0
VISUALSTYLE
  5
9A
102
{ACAD_REACTORS
330
99
102
}
330
99
100
AcDbVisualStyle
  2
Flat
 70
     0
177
     3
291
     1
 70
    58
 90
        2
176
     1
 90
        1
176
     1
 90
        1
176
     1
 90
        2
176
     1
 40
0.6
176
     1
 40
30.0
176
     1
 62
     7
420
 16777215
176
     1
 90
        0
176
     1
 90
        0
176
     1
 62
     7
176
     1
 62
   257
176
     1
 90
        1
176
     1
 90
        1
176
     1
 40
1.0
176
     1
 90
        8
176
     1
 62
     7
176
     1
 40
1.0
176
     1
 90
        1
176
     1
 90
        6
176
     1
 90
        2
176
     1
 62
     7
176
     1
 90
        5
176
     1
 90
        0
176
     1
 90
        0
176
     1
290
     0
176
     1
 90
       13
176
     1
 40
0.0
176
     1
 90
        0
176
     1
290
     0
176
     1
290
     1
176
     1
290
     1
176
     1
290
     0
176
     1
290
     0
176
     1
290
     0
176
     1
290
     0
176
     1
290
     0
176
     1
290
     0
176
     1
 90
       50
176
     1
 40
0.0
176
     1
 40
1.0
176
     1
 90
        0
176
     1
 62
    18
420
        0
176
     1
 90
       50
176
     1
 90
        3
176
     1
 62
     5
420
      255
176
     1
290
     0
176
     1
 90
       50
176
     1
 90
       50
176
     1
 90
       50
176
     1
290
     0
176
     1
 90
       50
176
     1
 62
   256
176
     0
 40
1.0
176
     0
 90
        2
176
     1
  1
strokes_ogs.tif
176
     1
290
     0
176
     1
 40
1.0
176
     1
 40
1.0
176
     1
  0
VISUALSTYLE
  5
9B
102
{ACAD_REACTORS
330
99
102
}
330
99
100
AcDbVisualStyle
  2
FlatWithEdges
 70
     1
177
     3
291
     1
 70
    58
 90
        2
176
     1
 90
        1
176
     1
 90
        1
176
     1
 90
        2
176
     1
 40
0.6
176
     1
 40
30.0
176
     1
 62
     7
420
 16777215
176
     1
 90
        1
176
     1
 90
        0
176
     1
 62
     7
176
     1
 62
   257
176
     1
 90
        1
176
     1
 90
        1
176
     1
 40
1.0
176
     1
 90
        0
176
     1
 62
   257
176
     1
 40
1.0
176
     1
 90
        1
176
     1
 90
        6
176
     1
 90
        2
176
     1
 62
     7
176
     1
 90
        5
176
     1
 90
        0
176
     1
 90
        0
176
     1
290
     0
176
     1
 90
       13
176
     1
 40
0.0
176
     1
 90
        0
176
     1
290
     0
176
     1
290
     1
176
     1
290
     1
176
     1
290
     0
176
     1
290
     0
176
     1
290
     0
176
     1
290
     0
176
     1
290
     0
176
     1
290
     0
176
     1
 90
       50
176
     1
 40
0.0
176
     1
 40
1.0
176
     1
 90
        0
176
     1
 62
    18
420
        0
176
     1
 90
       50
176
     1
 90
        3
176
     1
 62
     5
420
      255
176
     1
290
     0
176
     1
 90
       50
176
     1
 90
       50
176
     1
 90
       50
176
     1
290
     0
176
     1
 90
       50
176
     1
 62
   256
176
     0
 40
1.0
176
     0
 90
        2
176
     1
  1
strokes_ogs.tif
176
     1
290
     0
176
     1
 40
1.0
176
     1
 40
1.0
176
     1
  0
VISUALSTYLE
  5
9C
102
{ACAD_REACTORS
330
99
102
}
330
99
100
AcDbVisualStyle
  2
Gouraud
 70
     2
177
     3
291
     1
 70
    58
 90
        2
176
     1
 90
        2
176
     1
 90
        1
176
     1
 90
        2
176
     1
 40
0.6
176
     1
 40
30.0
176
     1
 62
     7
420
 16777215
176
     1
 90
        0
176
     1
 90
        0
176
     1
 62
     7
176
     1
 62
   257
176
     1
 90
        1
176
     1
 90
        1
176
     1
 40
1.0
176
     1
 90
        0
176
     1
 62
     7
176
     1
 40
1.0
176
     1
 90
        1
176
     1
 90
        6
176
     1
 90
        2
176
     1
 62
     7
176
     1
 90
        5
176
     1
 90
        0
176
     1
 90
        0
176
     1
290
     0
176
     1
 90
       13
176
     1
 40
0.0
176
     1
 90
        0
176
     1
290
     0
176
     1
290
     1
176
     1
290
     1
176
     1
290
     0
176
     1
290
     0
176
     1
290
     0
176
     1
290
     0
176
     1
290
     0
176
     1
290
     0
176
     1
 90
       50
176
     1
 40
0.0
176
     1
 40
1.0
176
     1
 90
        0
176
     1
 62
    18
420
        0
176
     1
 90
       50
176
     1
 90
        3
176
     1
 62
     5
420
      255
176
     1
290
     0
176
     1
 90
       50
176
     1
 90
       50
176
     1
 90
       50
176
     1
290
     0
176
     1
 90
       50
176
     1
 62
   256
176
     0
 40
1.0
176
     0
 90
        2
176
     1
  1
strokes_ogs.tif
176
     1
290
     0
176
     1
 40
1.0
176
     1
 40
1.0
176
     1
  0
VISUALSTYLE
  5
9D
102
{ACAD_REACTORS
330
99
102
}
330
99
100
AcDbVisualStyle
  2
GouraudWithEdges
 70
     3
177
     3
291
     1
 70
    58
 90
        2
176
     1
 90
        2
176
     1
 90
        1
176
     1
 90
        2
176
     1
 40
0.6
176
     1
 40
30.0
176
     1
 62
     7
420
 16777215
176
     1
 90
        1
176
     1
 90
        0
176
     1
 62
     7
176
     1
 62
   257
176
     1
 90
        1
176
     1
 90
        1
176
     1
 40
1.0
176
     1
 90
        0
176
     1
 62
   257
176
     1
 40
1.0
176
     1
 90
        1
176
     1
 90
        6
176
     1
 90
        2
176
     1
 62
     7
176
     1
 90
        5
176
     1
 90
        0
176
     1
 90
        0
176
     1
290
     0
176
     1
 90
       13
176
     1
 40
0.0
176
     1
 90
        0
176
     1
290
     0
176
     1
290
     1
176
     1
290
     1
176
     1
290
     0
176
     1
290
     0
176
     1
290
     0
176
     1
290
     0
176
     1
290
     0
176
     1
290
     0
176
     1
 90
       50
176
     1
 40
0.0
176
     1
 40
1.0
176
     1
 90
        0
176
     1
 62
    18
420
        0
176
     1
 90
       50
176
     1
 90
        3
176
     1
 62
     5
420
      255
176
     1
290
     0
176
     1
 90
       50
176
     1
 90
       50
176
     1
 90
       50
176
     1
290
     0
176
     1
 90
       50
176
     1
 62
   256
176
     0
 40
1.0
176
     0
 90
        2
176
     1
  1
strokes_ogs.tif
176
     1
290
     0
176
     1
 40
1.0
176
     1
 40
1.0
176
     1
  0
VISUALSTYLE
  5
A1
102
{ACAD_REACTORS
330
99
102
}
330
99
100
AcDbVisualStyle
  2
Hidden
 70
     6
177
     3
291
     0
 70
    58
 90
        1
176
     1
 90
        2
176
     1
 90
        2
176
     1
 90
        0
176
     1
 40
0.6
176
     1
 40
30.0
176
     1
 62
     7
420
 16777215
176
     1
 90
        2
176
     1
 90
        2
176
     1
 62
     7
176
     1
 62
   257
176
     1
 90
        2
176
     1
 90
        1
176
     1
 40
40.0
176
     1
 90
        0
176
     1
 62
   257
176
     1
 40
1.0
176
     1
 90
        1
176
     1
 90
        6
176
     1
 90
        2
176
     1
 62
     7
176
     1
 90
        3
176
     1
 90
        0
176
     1
 90
        0
176
     1
290
     0
176
     1
 90
        1
176
     1
 40
0.0
176
     1
 90
        0
176
     1
290
     0
176
     1
290
     1
176
     1
290
     1
176
     1
290
     0
176
     1
290
     0
176
     1
290
     0
176
     1
290
     0
176
     1
290
     0
176
     1
290
     0
176
     1
 90
       50
176
     1
 40
0.0
176
     1
 40
1.0
176
     1
 90
        0
176
     1
 62
    18
420
        0
176
     1
 90
       50
176
     1
 90
        3
176
     1
 62
     5
420
      255
176
     1
290
     0
176
     1
 90
       50
176
     1
 90
       50
176
     1
 90
       50
176
     1
290
     0
176
     1
 90
       50
176
     1
 62
   256
176
     0
 40
1.0
176
     0
 90
        2
176
     1
  1
strokes_ogs.tif
176
     1
290
     0
176
     1
 40
1.0
176
     1
 40
1.0
176
     1
  0
VISUALSTYLE
  5
173
102
{ACAD_REACTORS
330
99
102
}
330
99
100
AcDbVisualStyle
  2
JitterOff
 70
    20
177
     3
291
     1
 70
    58
 90
        2
176
     0
 90
        2
176
     0
 90
        0
176
     0
 90
        0
176
     0
 40
0.6
176
     0
 40
30.0
176
     0
 62
     7
420
 16777215
176
     0
 90
        1
176
     0
 90
        4
176
     0
 62
     7
176
     0
 62
   257
176
     0
 90
        1
176
     0
 90
        1
176
     0
 40
1.0
176
     0
 90
       10
176
     2
 62
     7
176
     0
 40
1.0
176
     0
 90
        1
176
     0
 90
        6
176
     0
 90
        2
176
     0
 62
     7
176
     0
 90
        5
176
     0
 90
        0
176
     0
 90
        0
176
     0
290
     0
176
     0
 90
        1
176
     0
 40
0.0
176
     0
 90
        0
176
     0
290
     0
176
     1
290
     1
176
     1
290
     1
176
     1
290
     0
176
     1
290
     0
176
     1
290
     0
176
     1
290
     0
176
     1
290
     0
176
     1
290
     0
176
     1
 90
       50
176
     1
 40
0.0
176
     1
 40
1.0
176
     1
 90
        0
176
     1
 62
    18
420
        0
176
     1
 90
       50
176
     1
 90
        3
176
     1
 62
     5
420
      255
176
     1
290
     0
176
     1
 90
       50
176
     1
 90
       50
176
     1
 90
       50
176
     1
290
     0
176
     1
 90
       50
176
     1
 62
   256
176
     0
 40
1.0
176
     0
 90
        2
176
     1
  1
strokes_ogs.tif
176
     1
290
     0
176
     1
 40
1.0
176
     1
 40
1.0
176
     1
  0
VISUALSTYLE
  5
A7
102
{ACAD_REACTORS
330
99
102
}
330
99
100
AcDbVisualStyle
  2
Linepattern
 70
    14
177
     3
291
     1
 70
    58
 90
        2
176
     1
 90
        2
176
     1
 90
        1
176
     1
 90
        0
176
     1
 40
0.6
176
     1
 40
30.0
176
     1
 62
     7
420
 16777215
176
     1
 90
        1
176
     1
 90
        4
176
     1
 62
     7
176
     1
 62
   257
176
     1
 90
        7
176
     1
 90
        7
176
     1
 40
1.0
176
     1
 90
        8
176
     1
 62
     7
176
     1
 40
1.0
176
     1
 90
        1
176
     1
 90
        6
176
     1
 90
        2
176
     1
 62
     7
176
     1
 90
        5
176
     1
 90
        0
176
     1
 90
        0
176
     1
290
     0
176
     1
 90
        1
176
     1
 40
0.0
176
     1
 90
        0
176
     1
290
     0
176
     1
290
     1
176
     1
290
     1
176
     1
290
     0
176
     1
290
     0
176
     1
290
     0
176
     1
290
     0
176
     1
290
     0
176
     1
290
     0
176
     1
 90
       50
176
     1
 40
0.0
176
     1
 40
1.0
176
     1
 90
        0
176
     1
 62
    18
420
        0
176
     1
 90
       50
176
     1
 90
        3
176
     1
 62
     5
420
      255
176
     1
290
     0
176
     1
 90
       50
176
     1
 90
       50
176
     1
 90
       50
176
     1
290
     0
176
     1
 90
       50
176
     1
 62
   256
176
     0
 40
1.0
176
     0
 90
        2
176
     1
  1
strokes_ogs.tif
176
     1
290
     0
176
     1
 40
1.0
176
     1
 40
1.0
176
     1
  0
VISUALSTYLE
  5
174
102
{ACAD_REACTORS
330
99
102
}
330
99
100
AcDbVisualStyle
  2
OverhangOff
 70
    21
177
     3
291
     1
 70
    58
 90
        2
176
     0
 90
        2
176
     0
 90
        0
176
     0
 90
        0
176
     0
 40
0.6
176
     0
 40
30.0
176
     0
 62
     7
420
 16777215
176
     0
 90
        1
176
     0
 90
        4
176
     0
 62
     7
176
     0
 62
   257
176
     0
 90
        1
176
     0
 90
        1
176
     0
 40
1.0
176
     0
 90
        9
176
     2
 62
     7
176
     0
 40
1.0
176
     0
 90
        1
176
     0
 90
        6
176
     0
 90
        2
176
     0
 62
     7
176
     0
 90
        5
176
     0
 90
        0
176
     0
 90
        0
176
     0
290
     0
176
     0
 90
        1
176
     0
 40
0.0
176
     0
 90
        0
176
     0
290
     0
176
     1
290
     1
176
     1
290
     1
176
     1
290
     0
176
     1
290
     0
176
     1
290
     0
176
     1
290
     0
176
     1
290
     0
176
     1
290
     0
176
     1
 90
       50
176
     1
 40
0.0
176
     1
 40
1.0
176
     1
 90
        0
176
     1
 62
    18
420
        0
176
     1
 90
       50
176
     1
 90
        3
176
     1
 62
     5
420
      255
176
     1
290
     0
176
     1
 90
       50
176
     1
 90
       50
176
     1
 90
       50
176
     1
290
     0
176
     1
 90
       50
176
     1
 62
   256
176
     0
 40
1.0
176
     0
 90
        2
176
     1
  1
strokes_ogs.tif
176
     1
290
     0
176
     1
 40
1.0
176
     1
 40
1.0
176
     1
  0
VISUALSTYLE
  5
A3
102
{ACAD_REACTORS
330
99
102
}
330
99
100
AcDbVisualStyle
  2
Realistic
 70
     8
177
     3
291
     0
 70
    58
 90
        2
176
     1
 90
        2
176
     1
 90
        0
176
     1
 90
        2
176
     1
 40
0.6
176
     1
 40
30.0
176
     1
 62
     7
420
 16777215
176
     1
 90
        0
176
     1
 90
        0
176
     1
 62
     7
176
     1
 62
   257
176
     1
 90
        1
176
     1
 90
        1
176
     1
 40
1.0
176
     1
 90
        8
176
     1
 62
   257
176
     1
 40
1.0
176
     1
 90
        1
176
     1
 90
        6
176
     1
 90
        2
176
     1
 62
     7
176
     1
 90
        3
176
     1
 90
        0
176
     1
 90
        0
176
     1
290
     0
176
     1
 90
       13
176
     1
 40
0.0
176
     1
 90
        0
176
     1
290
     0
176
     1
290
     1
176
     1
290
     1
176
     1
290
     0
176
     1
290
     0
176
     1
290
     0
176
     1
290
     0
176
     1
290
     0
176
     1
290
     0
176
     1
 90
       50
176
     1
 40
0.0
176
     1
 40
1.0
176
     1
 90
        0
176
     1
 62
    18
420
        0
176
     1
 90
       50
176
     1
 90
        3
176
     1
 62
     5
420
      255
176
     1
290
     0
176
     1
 90
       50
176
     1
 90
       50
176
     1
 90
       50
176
     1
290
     0
176
     1
 90
       50
176
     1
 62
   256
176
     0
 40
1.0
176
     0
 90
        2
176
     1
  1
strokes_ogs.tif
176
     1
290
     0
176
     1
 40
1.0
176
     1
 40
1.0
176
     1
  0
VISUALSTYLE
  5
182
102
{ACAD_REACTORS
330
99
102
}
330
99
100
AcDbVisualStyle
  2
Shaded
 70
    27
177
     3
291
     0
 70
    58
 90
        2
176
     1
 90
        2
176
     1
 90
        1
176
     1
 90
        2
176
     1
 40
0.6
176
     1
 40
30.0
176
     1
 62
     7
420
 16777215
176
     1
 90
        0
176
     1
 90
        4
176
     1
 62
     7
176
     1
 62
   257
176
     1
 90
        1
176
     1
 90
        1
176
     1
 40
1.0
176
     1
 90
        8
176
     1
 62
   257
176
     1
 40
1.0
176
     1
 90
        1
176
     1
 90
        6
176
     1
 90
        2
176
     1
 62
     8
420
  7895160
176
     1
 90
        3
176
     1
 90
        0
176
     1
 90
        0
176
     1
290
     0
176
     1
 90
        5
176
     1
 40
0.0
176
     1
 90
        0
176
     1
290
     0
176
     1
290
     1
176
     1
290
     1
176
     1
290
     0
176
     1
290
     0
176
     1
290
     0
176
     1
290
     0
176
     1
290
     0
176
     1
290
     0
176
     1
 90
       50
176
     1
 40
0.0
176
     1
 40
1.0
176
     1
 90
        0
176
     1
 62
    18
420
        0
176
     1
 90
       50
176
     1
 90
        3
176
     1
 62
     5
420
      255
176
     1
290
     0
176
     1
 90
       50
176
     1
 90
       50
176
     1
 90
       50
176
     1
290
     0
176
     1
 90
       50
176
     1
 62
   256
176
     0
 40
1.0
176
     0
 90
        2
176
     1
  1
strokes_ogs.tif
176
     1
290
     0
176
     1
 40
1.0
176
     1
 40
1.0
176
     1
  0
VISUALSTYLE
  5
181
102
{ACAD_REACTORS
330
99
102
}
330
99
100
AcDbVisualStyle
  2
Shaded with edges
 70
    26
177
     3
291
     0
 70
    58
 90
        2
176
     1
 90
        2
176
     1
 90
        1
176
     1
 90
        2
176
     1
 40
0.6
176
     1
 40
30.0
176
     1
 62
     7
420
 16777215
176
     1
 90
        1
176
     1
 90
        2
176
     1
 62
     7
176
     1
 62
   257
176
     1
 90
        2
176
     1
 90
        1
176
     1
 40
1.0
176
     1
 90
        8
176
     1
 62
   257
176
     1
 40
1.0
176
     1
 90
        1
176
     1
 90
        6
176
     1
 90
        2
176
     1
 62
     7
176
     1
 90
        3
176
     1
 90
        0
176
     1
 90
        0
176
     1
290
     0
176
     1
 90
        5
176
     1
 40
0.0
176
     1
 90
        0
176
     1
290
     0
176
     1
290
     1
176
     1
290
     1
176
     1
290
     0
176
     1
290
     0
176
     1
290
     0
176
     1
290
     0
176
     1
290
     0
176
     1
290
     0
176
     1
 90
       50
176
     1
 40
0.0
176
     1
 40
1.0
176
     1
 90
        0
176
     1
 62
    18
420
        0
176
     1
 90
       50
176
     1
 90
        3
176
     1
 62
     5
420
      255
176
     1
290
     0
176
     1
 90
       50
176
     1
 90
       50
176
     1
 90
       50
176
     1
290
     0
176
     1
 90
       50
176
     1
 62
   256
176
     0
 40
1.0
176
     0
 90
        2
176
     1
  1
strokes_ogs.tif
176
     1
290
     0
176
     1
 40
1.0
176
     1
 40
1.0
176
     1
  0
VISUALSTYLE
  5
17E
102
{ACAD_REACTORS
330
99
102
}
330
99
100
AcDbVisualStyle
  2
Shades of Gray
 70
    23
177
     3
291
     0
 70
    58
 90
        2
176
     1
 90
        2
176
     1
 90
        3
176
     1
 90
        0
176
     1
 40
0.6
176
     1
 40
30.0
176
     1
 62
     7
420
 16777215
176
     1
 90
        2
176
     1
 90
        2
176
     1
 62
     7
176
     1
 62
     7
176
     1
 90
        1
176
     1
 90
        1
176
     1
 40
40.0
176
     1
 90
        8
176
     1
 62
     7
176
     1
 40
1.0
176
     1
 90
        1
176
     1
 90
        6
176
     1
 90
        2
176
     1
 62
     7
176
     1
 90
        3
176
     1
 90
        0
176
     1
 90
        0
176
     1
290
     0
176
     1
 90
        1
176
     1
 40
0.0
176
     1
 90
        0
176
     1
290
     0
176
     1
290
     1
176
     1
290
     1
176
     1
290
     0
176
     1
290
     0
176
     1
290
     0
176
     1
290
     0
176
     1
290
     0
176
     1
290
     0
176
     1
 90
       50
176
     1
 40
0.0
176
     1
 40
1.0
176
     1
 90
        0
176
     1
 62
    18
420
        0
176
     1
 90
       50
176
     1
 90
        3
176
     1
 62
     5
420
      255
176
     1
290
     0
176
     1
 90
       50
176
     1
 90
       50
176
     1
 90
       50
176
     1
290
     0
176
     1
 90
       50
176
     1
 62
   256
176
     0
 40
1.0
176
     0
 90
        2
176
     1
  1
strokes_ogs.tif
176
     1
290
     0
176
     1
 40
1.0
176
     1
 40
1.0
176
     1
  0
VISUALSTYLE
  5
17F
102
{ACAD_REACTORS
330
99
102
}
330
99
100
AcDbVisualStyle
  2
Sketchy
 70
    24
177
     3
291
     0
 70
    58
 90
        1
176
     1
 90
        2
176
     1
 90
        2
176
     1
 90
        0
176
     1
 40
0.6
176
     1
 40
30.0
176
     1
 62
     7
420
 16777215
176
     1
 90
        2
176
     1
 90
        2
176
     1
 62
     7
176
     1
 62
     7
176
     1
 90
        1
176
     1
 90
        1
176
     1
 40
40.0
176
     1
 90
       11
176
     1
 62
     7
176
     1
 40
1.0
176
     1
 90
        1
176
     1
 90
        6
176
     1
 90
        2
176
     1
 62
     7
176
     1
 90
        6
176
     1
 90
        0
176
     1
 90
        0
176
     1
290
     0
176
     1
 90
        1
176
     1
 40
0.0
176
     1
 90
        0
176
     1
290
     0
176
     1
290
     1
176
     1
290
     1
176
     1
290
     0
176
     1
290
     0
176
     1
290
     0
176
     1
290
     0
176
     1
290
     0
176
     1
290
     0
176
     1
 90
       50
176
     1
 40
0.0
176
     1
 40
1.0
176
     1
 90
        0
176
     1
 62
    18
420
        0
176
     1
 90
       50
176
     1
 90
        3
176
     1
 62
     5
420
      255
176
     1
290
     0
176
     1
 90
       50
176
     1
 90
       50
176
     1
 90
       50
176
     1
290
     0
176
     1
 90
       50
176
     1
 62
   256
176
     0
 40
1.0
176
     0
 90
        2
176
     1
  1
strokes_ogs.tif
176
     1
290
     0
176
     1
 40
1.0
176
     1
 40
1.0
176
     1
  0
VISUALSTYLE
  5
A6
102
{ACAD_REACTORS
330
99
102
}
330
99
100
AcDbVisualStyle
  2
Thicken
 70
    13
177
     3
291
     1
 70
    58
 90
        2
176
     1
 90
        2
176
     1
 90
        1
176
     1
 90
        0
176
     1
 40
0.6
176
     1
 40
30.0
176
     1
 62
     7
420
 16777215
176
     1
 90
        1
176
     1
 90
        4
176
     1
 62
     7
176
     1
 62
   257
176
     1
 90
        1
176
     1
 90
        1
176
     1
 40
1.0
176
     1
 90
       12
176
     1
 62
     7
176
     1
 40
1.0
176
     1
 90
        1
176
     1
 90
        6
176
     1
 90
        2
176
     1
 62
     7
176
     1
 90
        5
176
     1
 90
        0
176
     1
 90
        0
176
     1
290
     0
176
     1
 90
        1
176
     1
 40
0.0
176
     1
 90
        0
176
     1
290
     0
176
     1
290
     1
176
     1
290
     1
176
     1
290
     0
176
     1
290
     0
176
     1
290
     0
176
     1
290
     0
176
     1
290
     0
176
     1
290
     0
176
     1
 90
       50
176
     1
 40
0.0
176
     1
 40
1.0
176
     1
 90
        0
176
     1
 62
    18
420
        0
176
     1
 90
       50
176
     1
 90
        3
176
     1
 62
     5
420
      255
176
     1
290
     0
176
     1
 90
       50
176
     1
 90
       50
176
     1
 90
       50
176
     1
290
     0
176
     1
 90
       50
176
     1
 62
   256
176
     0
 40
1.0
176
     0
 90
        2
176
     1
  1
strokes_ogs.tif
176
     1
290
     0
176
     1
 40
1.0
176
     1
 40
1.0
176
     1
  0
VISUALSTYLE
  5
A0
102
{ACAD_REACTORS
330
99
102
}
330
99
100
AcDbVisualStyle
  2
Wireframe
 70
     5
177
     3
291
     0
 70
    58
 90
        0
176
     1
 90
        2
176
     1
 90
        0
176
     1
 90
        0
176
     1
 40
0.6
176
     1
 40
30.0
176
     1
 62
     7
420
 16777215
176
     1
 90
        1
176
     1
 90
        4
176
     1
 62
     7
176
     1
 62
   257
176
     1
 90
        1
176
     1
 90
        1
176
     1
 40
1.0
176
     1
 90
        0
176
     1
 62
   257
176
     1
 40
1.0
176
     1
 90
        1
176
     1
 90
        6
176
     1
 90
        2
176
     1
 62
     7
176
     1
 90
        3
176
     1
 90
        0
176
     1
 90
        0
176
     1
290
     0
176
     1
 90
        1
176
     1
 40
0.0
176
     1
 90
        0
176
     1
290
     0
176
     1
290
     1
176
     1
290
     1
176
     1
290
     0
176
     1
290
     0
176
     1
290
     0
176
     1
290
     0
176
     1
290
     0
176
     1
290
     0
176
     1
 90
       50
176
     1
 40
0.0
176
     1
 40
1.0
176
     1
 90
        0
176
     1
 62
    18
420
        0
176
     1
 90
       50
176
     1
 90
        3
176
     1
 62
     5
420
      255
176
     1
290
     0
176
     1
 90
       50
176
     1
 90
       50
176
     1
 90
       50
176
     1
290
     0
176
     1
 90
       50
176
     1
 62
   256
176
     0
 40
1.0
176
     0
 90
        2
176
     1
  1
strokes_ogs.tif
176
     1
290
     0
176
     1
 40
1.0
176
     1
 40
1.0
176
     1
  0
VISUALSTYLE
  5
180
102
{ACAD_REACTORS
330
99
102
}
330
99
100
AcDbVisualStyle
  2
X-Ray
 70
    25
177
     3
291
     0
 70
    58
 90
        2
176
     1
 90
        2
176
     1
 90
        1
176
     1
 90
        1
176
     1
 40
0.5
176
     1
 40
30.0
176
     1
 62
     7
420
 16777215
176
     1
 90
        1
176
     1
 90
        0
176
     1
 62
     7
176
     1
 62
   257
176
     1
 90
        1
176
     1
 90
        1
176
     1
 40
1.0
176
     1
 90
        8
176
     1
 62
     7
176
     1
 40
1.0
176
     1
 90
        1
176
     1
 90
        6
176
     1
 90
        2
176
     1
 62
     7
176
     1
 90
        3
176
     1
 90
        0
176
     1
 90
        0
176
     1
290
     0
176
     1
 90
       13
176
     1
 40
0.0
176
     1
 90
        0
176
     1
290
     0
176
     1
290
     1
176
     1
290
     1
176
     1
290
     0
176
     1
290
     0
176
     1
290
     0
176
     1
290
     0
176
     1
290
     0
176
     1
290
     0
176
     1
 90
       50
176
     1
 40
0.0
176
     1
 40
1.0
176
     1
 90
        0
176
     1
 62
    18
420
        0
176
     1
 90
       50
176
     1
 90
        3
176
     1
 62
     5
420
      255
176
     1
290
     0
176
     1
 90
       50
176
     1
 90
       50
176
     1
 90
       50
176
     1
290
     0
176
     1
 90
       50
176
     1
 62
   256
176
     0
 40
1.0
176
     0
 90
        2
176
     1
  1
strokes_ogs.tif
176
     1
290
     0
176
     1
 40
1.0
176
     1
 40
1.0
176
     1
  0
DICTIONARYVAR
  5
F0
102
{ACAD_REACTORS
330
66
102
}
330
66
100
DictionaryVariables
280
     0
  1
1:1
  0
DICTIONARYVAR
  5
EF
102
{ACAD_REACTORS
330
66
102
}
330
66
100
DictionaryVariables
280
     0
  1
STANDARD
  0
DICTIONARYVAR
  5
89
102
{ACAD_REACTORS
330
66
102
}
330
66
100
DictionaryVariables
280
     0
  1
STANDARD
  0
DICTIONARYVAR
  5
1B7
102
{ACAD_REACTORS
330
66
102
}
330
66
100
DictionaryVariables
280
     0
  1
Imperial24
  0
DICTIONARYVAR
  5
1B8
102
{ACAD_REACTORS
330
66
102
}
330
66
100
DictionaryVariables
280
     0
  1
Imperial24
  0
DICTIONARYVAR
  5
67
102
{ACAD_REACTORS
330
66
102
}
330
66
100
DictionaryVariables
280
     0
  1
2
  0
DICTIONARYVAR
  5
6B
102
{ACAD_REACTORS
330
66
102
}
330
66
100
DictionaryVariables
280
     0
  1
1
  0
DICTIONARYVAR
  5
14D
102
{ACAD_REACTORS
330
66
102
}
330
66
100
DictionaryVariables
280
     0
  1
0
  0
DICTIONARYVAR
  5
14E
102
{ACAD_REACTORS
330
66
102
}
330
66
100
DictionaryVariables
280
     0
  1
0
  0
DICTIONARY
  5
194
330
22
100
AcDbDictionary
280
     1
281
     1
  0
DICTIONARY
  5
188
330
97
100
AcDbDictionary
280
     1
281
     1
  3
FBXASSET
360
189
  0
DICTIONARY
  5
186
330
96
100
AcDbDictionary
280
     1
281
     1
  3
FBXASSET
360
187
  0
DICTIONARY
  5
110
330
98
100
AcDbDictionary
280
     1
281
     1
  3
BUMPTILE
360
112
  3
DIFFUSETILE
360
111
  3
FBXASSET
360
18A
  3
OPACITYTILE
360
113
  3
REFLECTIONTILE
360
114
  0
DICTIONARY
  5
104
330
87
100
AcDbDictionary
280
     1
281
     1
  3
ACAD_ROUNDTRIP_2008_TABLESTYLE_CELLSTYLEMAP
360
B42D
  0
XRECORD
  5
189
102
{ACAD_REACTORS
330
188
102
}
330
188
100
AcDbXrecord
280
     1
 70
     1
 90
429727718
  1
508B35C9-AEE7-456F-BE74-D52651303AC6
310
504B03040A0000080000B670623B3DEE336E79000000790000001B0000006175746F6465736B2D64657369676E2D7061636B6167652E786D6C3C3F786D6C2076657273696F6E3D22312E302220656E636F64696E673D227574662D3822203F3E3C666F726D6174733E3C666F726D61743E687474703A2F2F736368656D612E
310
6175746F6465736B2E636F6D2F64657369676E2D7061636B6167652F323030393C2F666F726D61743E3C2F666F726D6174733E504B0304140006080800B670623BD486FD9CA0000000F4000000130000005B436F6E74656E745F54797065735D2E786D6C7D8EC10E82300C865F65E91D8A1E8C310C0EEA1BF002731658846E
310
D98AC1B77784ABF1D8FE5FBFBF75BBCE937A534CCEB38643598122B6FEE978D0B0485F9C41B54DDD7D022595594E1A469170414C76A4D9A4D207E29CF43ECE46F218070CC6BECC4078ACAA135ACF422C856C0E68EA1BF5669944DDD7BCDE7B1F8E415D77AECB980613C2E4AC91FC167A2B244592486606FC29C8FD7F045B9A
310
EF7053A7E60B504B0304140006080800B670623B28ED286BEB0000007C01000008000000636F72652E786D6C8D90416EC3201045AF82665B6183218D6D61A254764FD00B204C5C94182C03558F5F9C3852BBEB6A467FFE9B197D71FA9E6FE8CBACC17AD7012D0820E3B41FAD9B3A48F1826B40272956EFE32F1B20A766D3C1
310
268314D3EAD3B24BDABB685CCCAAF3A3D94515828980F42D371D04FD696655A814B3235C8B45E9AB9A4C419F5D8653B2237A1CB163DE672FD6AC209BF3C08E0D1B30EB19C3FC9D72FCC6EB231EFA33EDE96BDD341517E5064B11EDFCBCAF57A3A2194156843498524CAA0FCA5B7268F9E185D42D21A2DCEC7FA0B48CFF8492
310
759155FBBB0F2C80A4F991FB408A72CB22977B50B96EB9C91F504B0304140006080800B670623B55019EA25F0000007C00000007000000636E782E786D6C4DCB3B0E80201045D1AD90E915ED2CF8AC45050C11660C8261F98AB1B07AC9C97D42D718D865D3E909258CFD00CCE24AC6E326A164D74DC0B4128928FF32603847
310
2BA13128B1252AC747C6BAB984FC68F0B87FE8960A5C09FE86CFB69FBA01504B0304140006080800B670623B7BC41AC871010000D40300000C0000006662782F636F72652E786D6CC553ED6E8320147D15C2DF4501B56B6D90A64BBB27D80B50A5CE54C120983EFEAE1F4DD7A56BBA5FF3879273EEE59E7310BE393735EA95
310
ED2AA333CC428A91D2B9292A5D66D8BB63B0C26823B835C67D2BC348CB46657880B1E0A535BE9DA1DC68A7B403549B42CDA0EC3AE530CA6B5864B8CB3F552343E91D5474A7B095F949962A6421D0502778E72C0840D390E18DC5F170E664C205F7BE2A66B62A605A75AC94C522DDEEE3651AEF837817C741F2CE92E02D592D
310
83FD6ECB76EC7595A651C2C9D02CB8AB9A8BBADC2AE954814544691A3016D0E883256BBA58278B17BA5A53CAC9507ED3E4DBE2C9265F691747B3DCA9ADC382819091F8E1162272A8933DE82182932144F88C09DF060D8140C84E1EEA8B8F1340BDCA9DB1093085F157AA97B557309586747CD0EF0B4EA64E983A6E0EAEEFCE
310
889E9EF17847386AA94B30211D2C0FDE0D3AF9A4610EAD5536E8DD1969631B593F67E381C33F5157F17725E5A636F6BF1491F980C8FC7B90E13E8A2F504B0304140006080800B670623B70102A487D0000009D0000000B0000006662782F636E782E786D6C4DCCD10A83201886E15B91FFDC95A5C30335ACCDFB886521330D
310
A76397BF1A1DECE883878F57749FD5A3B74D2F17830472A901D9F088930B8B849267CC01754AA418F3DF0D5018572BE160506249B16C274D761E8BCFBB7A179E27F65CB39A0F14D396184C9921B81F34C3ACA1B4B99ABB6E6F062A25AA5F69DF23ACBE504B0304140006080800B670623B3610CA3329010000120200003100
310
00006662782F42384135303843342D343331462D343546312D424341352D3532343432364645413344462F636F72652E786D6C8D515B6EC32010BC0AE22B55850D0E446E848992B43E412FE000495162B07854397EA176A4F62F3F2C9A9D991D58BEBB8F37F0AD7D30CE76905418026DA553C65E3A98E219B510EC04F7CEC5
310
3F3408EC30EA0E16180A7EF12E4D0B249D8DDAC68C5AA7F4020E21E80881BCE54B0783FCD2E3500D296646B856D320AFC34557A4CAEDCC133C449F0380794839A138B47B86DB2345744D7A44594FD0E1B867883594369BFE63BF7EEF793D0B054FC9A8456E548E63CE46FB674D8A58F068C6477CE9F510B582A2C1F80D1182
310
70F349E816B32D65AFB8DD62CCEB42FF274A937A52948C8DEB66893BCB021484D7734370E5D2E9F608A3EF93F3119479ABA0E50B14B8C298119A43CCC4FCFCECB8A18B6388CEE7EF5D5D4F994BD86CBBA182D76543B9FCAE2FD7B24DF103504B0304140006080800B670623B1B8617914E0100003303000030000000666278
310
2F42384135303843342D343331462D343546312D424341352D3532343432364645413344462F636E782E786D6CD593C16EC32010447F0571AD6CE3D489D20813A9877E410FBD62D82434182CC055F3F75D1292E692438FBD206B7698593D61BEFD1E2DF982108D773D6D6B460938E5B571FB9ECE6957AD29D90A1EBC4F7736
310
4A9C1CA1A759A682EF839FA72269D8C9D92654AD71C72206887E0E0A22CAF926B15E498B01E0AA19451807D01A34B919F16B070157417138917400F2F6FA41FCF0092A45DEE414C19BDC21783E4BD39D891265658C3D8DEA00A3ACE59CBC8678ACB54CB26EEB6BD7839D7E9348BE70AD9C8321B9BCA7F9A4A26C542347DEE0
310
50F09802D22BA6749A800A394DD62899107273365E3C82CFC6A55557BC06C10774B7ABE7AEC3B0F34CF06446280E154026D0542C187BA9DAB6628BF7B6DBB0E5A65B3EB1F58631DE64BBE083F7B65CC218087E22CABB042E51D1F2268F1FE12B3EA24D40D63E9CFE00120194D60B9D5BC67FE6D39CDF37E20AF817881F504B
310
0304140006080800B670623BBFEF2E3B690500003C100000340000006662782F42384135303843342D343331462D343546312D424341352D3532343432364645413344462F6F626A656374732E786D6CAD575D739B3814FD2B0CFB0C98D84E931D4227B6938EA793B6534F3BFB90198F0099B001899144EAECAFDF231018B0
310
D37A3FFC609090EEE7B94757C1FB7D915B2F54C88CB31BDB7727B64559CC938CA53776A576CE956DBD0F03C1B9EA2DB32D460A7A63EB693B0C52C1ABD24C257447AA5C8D66EF177F5832A68CDA569C13296F6C193FD182B8A4523CA1F2D94D88226EBADBBBBEDB2C1C8A4D05299F46424B222853B014F30C52ACC6287F389C
310
D85E1878FA7B18E87FB36AFAF62AAFF667A83F635211161F291B8999FAB3D5DDC5FCDA99CF6653677679E13B8BFBC5CAF1DF4D27CBCBE5F2FAF6EE1A8AA51290642C117467871F101B91C581D77CEA2C36869F3229E68CD1B8F61F1ED6361B89092D294B90C78C4A68EB793D190E7D1D9BDEE7A91E1B95FDE9F3BCEAEFE809
310
6A6D6F9F7D4B79F4275C90E7A04248AA51D5C4C738DAE06F72885AC4796EBE65D22A88A22223B995679120E2D50EB1542F098381188D4EA111AE3DB043FF20AF6F2B4AE3D7D83D65E5AECA730D4D3BAC91BD05FEA992B565D95F549CD6069B90AB2A63EACA38A45E4B6A87D781574F86817E4C2FCCC72690D62E2729520E37
310
9BAF234797BAF6D62B3BFC781FED37BA1E4F2B2F052FA9501A3E80569BB8F6A9A364D4FA67654E6F803383981F82F21591FF84F23D9882BC896C3FDBCF8C162508933B2E0AE4C69DD43F6BD2BE38DDDBF10BF86CB4FA784D37F3AF16075E67EC9030DECA1FC0A55373F5DFF3378C591FA9BDF485C10B0A8C8BA909E5262639
310
A8E72163488806A595734C81CB77D1DE0ED7604A303B76913CEC0272F412782FF88EFF4636D8AA56DF7B322474C4B767303F625997056C7B032C473C592B36CEBD15F3F9FF5233B7ABCDC74D257624A60F8658567497B14CE1EC3C80B76FD02011038F9EE9EB0F2E12387A9C844D3F09855125116D1D731DF8B43D2CF4E0A0
310
79A020C6BE946BCE0B7EA1E1219331CD73C228AF5A2DDD31A4B1DA918CE91350854D40A71723140BFA92E94E62B0626016CEFA5864A50E5977E8753CEDBEE1CBB7F52780D20E17AF0BA0F5F9B02A3AD07DCC732EB6D1EBB661421BE0C39E21BABF0FE16D22EA6929407C8DE596724C88B749B6DB5512BC7B228ADFD7CB7EA6
310
3A22397E690BA8D5D8D4E40CEC8CDA23C2C0B7D5898640101CEC9C6D331CE328CB93CAFBBAC70A642DF70DF95155945B52F08AA973C23469FD69ADEF84F7BB18F983A8F8C90E37F5D35980B2139A1C523540813E824EF83448CF7C72B598CE97D7CEEDDDDD3B6736BFBC771677EF66CE6A7E7139F7A793E9EDF2B2B3A8B624
310
0CDA13AA5F8388264EC4A0129909F3B7F5A16CEDF08128E97D680ACA4B9BE7B7B58BB638F0B00700EF36AE8B32A705658A68F83EE897FC2B41573190D1CCAF0B92D233A47CFEB019D9809933F67DD1A5467F8CF69AD9A5AE859342D45355448C64F968A371DC2D596ADC6E43D93D1B466F877A64E2893E54F23C4B40388995
310
525E5005DA3983ED45412510D3EFCA13737B3863F74BD30F2A12E5B4B5E489A025CE25500DB855B11ACE5BBFA185D35DD48D8DC3CE7DC69F2944DB42AA6F6CF09BCA622ADD08C7A36E7C6AE18000BAB08E040135C2D21C9D75B3A91B77BB746C403F38018DFE6EC939DD92F16B40BC05294B9CDA035AAD6D330AE27FE4786B
310
8E45145EA34A75BE1C263A676A35A8ACC6297337400BF16C54EF515F3F77CB77EB3583889C754FFA29081AA98E2222ADEF05DA3E63D2EDEA8B8756C05A7FB6CABC4A91CBF325398202CC952E70A008A830324BA200D5E5EF8F5F04C75DB4B0EE3340E071C98B823333B83577596BF3849B69F2085AA0FAFA212F26BEFF5877
310
FDE622B28D88A42E49E43326DA82D31E8CB006401E1DA726059ECEC168F97A6599036306A135688F9AD2E61A6EA178F4CD51974A9F2CCB9F36FE5EBD14601068D9C3BF01504B0304140006080000B670623B000000000000000000000000350000006662782F42384135303843342D343331462D343546312D424341352D35
310
32343432364645413344462F76657274696365732E62696E504B0304140006080800B670623BF270F1330600000004000000360000006662782F42384135303843342D343331462D343546312D424341352D3532343432364645413344462F747269616E676C65732E62696E636660600000504B0304140006080000B67062
310
3B000000000000000000000000370000006662782F42384135303843342D343331462D343546312D424341352D3532343432364645413344462F617474726962757465732E62696E504B0304140006080800B670623B08DA0BD19000000041010000360000006662782F42384135303843342D343331462D343546312D4243
310
41352D3532343432364645413344462F6469726563746F72792E786D6C858F410AC3201045AF22B36F53E9A60B35CBEEBAE80D244E44489C6234F4F835464A48035D0DF398FF9F8AF63D0E6CC63039F212F8F9020C7D47C6792B21C5FE7403D62A1188E2E60C98D7234A5830286103A55745067B9D86B8A3CF9C7F90C11DE6
310
07FB144396D7B6A82D282E9A152AD114D5EF2CB866EEE831B8EEA07A7BB5A8D7D61A2BAAEB7FD5F70921FF497D00504B0304140006080800B670623B3B4606F3FE000000A00100003B0000006662782F42384135303843342D343331462D343546312D424341352D3532343432364645413344462F7265736F75726365732F
310
636F72652E786D6C8D504B6E833010BD0A9A6D65B08134808CA354A427E8052C332156828DFCA97AFC9A40A576D7CDCCE87D344F8F9FBEE647F689CE6B6B7A6039850C8DB2A336530F315C4903D94970676DF82583CCC8197B5861107C72362E3BA4AC096842428D1D7107A5F71820538F74F4E0D50D6799CB1892C2DFF345
310
AABB9C306779A2934E701F5C0A906D4FD609C2A1B7D129F4BCD858C163D4E3AED163FAA9AF1A1D88F67CA98E6D35906AA82A52BFB39ABCD5CD915C86331BD86BD3B665CD8BD52C78D0F34F46E550061C419494B6843142CB0F5677F4D0D58717DA7494F26295FF31C565FCA7296A13AA728FBBD93C0896823C09C18BB5AFB4
310
9E65A6BD762BBE01504B010214000A0000080000B670623B3DEE336E79000000790000001B00000000000000000000000000000000006175746F6465736B2D64657369676E2D7061636B6167652E786D6C504B01021400140006080800B670623BD486FD9CA0000000F40000001300000000000000000000000000B2000000
310
5B436F6E74656E745F54797065735D2E786D6C504B01021400140006080800B670623B28ED286BEB0000007C010000080000000000000000000000000083010000636F72652E786D6C504B01021400140006080800B670623B55019EA25F0000007C000000070000000000000000000000000094020000636E782E786D6C50
310
4B01021400140006080800B670623B7BC41AC871010000D40300000C00000000000000000000000000180300006662782F636F72652E786D6C504B01021400140006080800B670623B70102A487D0000009D0000000B00000000000000000000000000B30400006662782F636E782E786D6C504B01021400140006080800B6
310
70623B3610CA3329010000120200003100000000000000000000000000590500006662782F42384135303843342D343331462D343546312D424341352D3532343432364645413344462F636F72652E786D6C504B01021400140006080800B670623B1B8617914E010000330300003000000000000000000000000000D10600
310
006662782F42384135303843342D343331462D343546312D424341352D3532343432364645413344462F636E782E786D6C504B01021400140006080800B670623BBFEF2E3B690500003C10000034000000000000000000000000006D0800006662782F42384135303843342D343331462D343546312D424341352D35323434
310
32364645413344462F6F626A656374732E786D6C504B01021400140006080000B670623B0000000000000000000000003500000000000000000000000000280E00006662782F42384135303843342D343331462D343546312D424341352D3532343432364645413344462F76657274696365732E62696E504B010214001400
310
06080800B670623BF270F133060000000400000036000000000000000000000000007B0E00006662782F42384135303843342D343331462D343546312D424341352D3532343432364645413344462F747269616E676C65732E62696E504B01021400140006080000B670623B00000000000000000000000037000000000000
310
00000000000000D50E00006662782F42384135303843342D343331462D343546312D424341352D3532343432364645413344462F617474726962757465732E62696E504B01021400140006080800B670623B08DA0BD1900000004101000036000000000000000000000000002A0F00006662782F42384135303843342D3433
310
31462D343546312D424341352D3532343432364645413344462F6469726563746F72792E786D6C504B01021400140006080800B670623B3B4606F3FE000000A00100003B000000000000000000000000000E1000006662782F42384135303843342D343331462D343546312D424341352D3532343432364645413344462F72
310
65736F75726365732F636F72652E786D6C504B0506000000000E000E0080040000651100000000
  0
XRECORD
  5
187
102
{ACAD_REACTORS
330
186
102
}
330
186
100
AcDbXrecord
280
     1
 70
     1
 90
429727718
  1
887D55A9-D0DD-414E-B741-A7DCD4DA2B4C
310
504B03040A0000080000B670623B3DEE336E79000000790000001B0000006175746F6465736B2D64657369676E2D7061636B6167652E786D6C3C3F786D6C2076657273696F6E3D22312E302220656E636F64696E673D227574662D3822203F3E3C666F726D6174733E3C666F726D61743E687474703A2F2F736368656D612E
310
6175746F6465736B2E636F6D2F64657369676E2D7061636B6167652F323030393C2F666F726D61743E3C2F666F726D6174733E504B0304140006080800B670623BD486FD9CA0000000F4000000130000005B436F6E74656E745F54797065735D2E786D6C7D8EC10E82300C865F65E91D8A1E8C310C0EEA1BF002731658846E
310
D98AC1B77784ABF1D8FE5FBFBF75BBCE937A534CCEB38643598122B6FEE978D0B0485F9C41B54DDD7D022595594E1A469170414C76A4D9A4D207E29CF43ECE46F218070CC6BECC4078ACAA135ACF422C856C0E68EA1BF5669944DDD7BCDE7B1F8E415D77AECB980613C2E4AC91FC167A2B244592486606FC29C8FD7F045B9A
310
EF7053A7E60B504B0304140006080800B670623BBC1638F5EC0000007C01000008000000636F72652E786D6C8D90416EC3201045AF82665B61836BE2D8C24471DB9CA01740401C94182C03558F5F9C3852BBEB6A467FFE9B197D7EF89E6EE8CB2CC17AD7032D0820E394D7D68D3DA478C67B4007C117EFE32F1B202727D3C3
310
2A83E0E3E2D3BC49CABB685CCCAAF3DA6CA20CC14440EA969B1E82BA98491632C5EC08D76296EA2A4753D06797E194AC468F2356E77DF66CCD02825543D50CACC62D39ED70FDC68EB8FD68F6F8787A6784342D1DDA1D2F5758F068A7E77DB518198D065111D2624A31A93E69DD11D6D5EC85EC3B4278B9DAFF4069D6FF8492
310
75F1B5DADE7D600104CD8FDC0782976B16B9DC83CA75CD4DFC00504B0304140006080800B670623B55019EA25F0000007C00000007000000636E782E786D6C4DCB3B0E80201045D1AD90E915ED2CF8AC45050C11660C8261F98AB1B07AC9C97D42D718D865D3E909258CFD00CCE24AC6E326A164D74DC0B4128928FF326038
310
472BA13128B1252AC747C6BAB984FC68F0B87FE8960A5C09FE86CFB69FBA01504B0304140006080800B670623B3586FFB671010000D40300000C0000006662782F636F72652E786D6CC553ED6E8320147D15C2DF4541A76D6D90A6DDD627D80B50A4CE54C120983EFEAE1F4DD7A55BBA5FF3879273EEE59E7310B6393735EA
310
95ED2AA3731C851423A5A5292A5DE6D8BB63B0C268C39935C67D29C3488B46E578803167A535BE9D2169B453DA01AA4DA16650749D7218C91A1639EEE4876A4428BC838AEE14B6429E44A9C228041AEA38EB9C0501681A32BC313F1ECE8C4C3867DE57C5CC56054CAB8E95B298A7F12E5EEED224C8E87E11242FE936C8DE96
310
AB60BB7F4D295D66D12E5B30323473E6AAE6A24E5A259C2A308F29CD82280A68FC1E256B9AAE93F489AED694323294DF34F9B678B0C957DA3DC7B3DCA9ADC33C022123F1CD2D44E450277AD04338234388F01913BE0D1A0281909D38D4171F27807A259DB1093085F157AA17B557309586747CD0CF0B46A64E983A6E0EAEEF
310
CE881F9EF1FB8E70D44297604238581EBC1B74B249C31C5AAB6CD0BB33D2C636A27ECCC62F0EFF445DC5DF95244D6DEC7F2922F30191F9F720C37DE49F504B0304140006080800B670623B4220A0FF7D0000009D0000000B0000006662782F636E782E786D6C4DCCD10A83201886E15B91FFDCE542CB0335D0EC3E6259C84A
310
C3E9D8E5AF46073BFAE0E1E315DD675BD1DBA5978F41C2FD4600B9F088930F8B849267CC01754AA418F3DF0D50183727E164506249B1EC174D6E1ECB9A0F5D7D785E68DB8151CD286E5A5363CA6B8A39E90D36D40E96B086F55A43A544F52B1D7B86D517504B0304140006080800B670623B2FA3FEDE290100001202000031
310
0000006662782F45374635344235342D363743322D343832342D383044432D4334454645303536354442422F636F72652E786D6C8D515B6EC32010BC0AE22B55850D2E386E848994D7097A0117488A1283C5A3CAF10BB523B57FF961D1ECCCECC0F2ED7DBC816FED8371B687A4C210682B9D32F6D2C314CFA883602BB8772E
310
FEA141608751F7B0C050F08B77695A20E96CD43666D43AA5177008414708E42D5F7A18E4971E876A483133C2B59A06791D2EBA22556E679EE021FA1C00CC43CA09C5717D6274C7286AD7FB06D1AEA1A8C3873DDAD3E3E98859CB0EBB1DAF67A1E02919B5C88DCA71CCD968FFAC49110B1ECDF8882FBD1EA256503418BF2342
310
106E3E08DD60B6A1EC15771B8C795DE8FF4469524F8A92B1F1AD59E2CEB20005E1F5DC105CB9F4797B84D1F7C9F908CABC55D0F2050A5C61CC1AD2F27A26E6E767C7962E8E213A9FBF7775FDCC5CC266DB960A5E970DE5F2BBBE5CCB36C50F504B0304140006080800B670623B1B8617914E01000033030000300000006662
310
782F45374635344235342D363743322D343832342D383044432D4334454645303536354442422F636E782E786D6CD593C16EC32010447F0571AD6CE3D489D20813A9877E410FBD62D82434182CC055F3F75D1292E692438FBD206B7698593D61BEFD1E2DF982108D773D6D6B460938E5B571FB9ECE6957AD29D90A1EBC4F77
310
364A9C1CA1A759A682EF839FA72269D8C9D92654AD71C72206887E0E0A22CAF926B15E498B01E0AA19451807D01A34B919F16B070157417138917400F2F6FA41FCF0092A45DEE414C19BDC21783E4BD39D891265658C3D8DEA00A3ACE59CBC8678ACB54CB26EEB6BD7839D7E9348BE70AD9C8321B9BCA7F9A4A26C542347DE
310
E050F09802D22BA6749A800A394DD62899107273365E3C82CFC6A55557BC06C10774B7ABE7AEC3B0F34CF06446280E154026D0542C187BA9DAB6628BF7B6DBB0E5A65B3EB1F58631DE64BBE083F7B65CC218087E22CABB042E51D1F2268F1FE12B3EA24D40D63E9CFE00120194D60B9D5BC67FE6D39CDF37E20AF817881F50
310
4B0304140006080800B670623B29652116630500003C100000340000006662782F45374635344235342D363743322D343832342D383044432D4334454645303536354442422F6F626A656374732E786D6CAD575D739B3814FD2B0CFB0C989834C90EA1639B24E3E9A6EDD4D3CE3E64C623834CD8006224913AFDF57B040203
310
B65BEF871F0C12D2FD3CF7E8CA7FBFCB33E3957291B2E2D674ED8969D02262715A24B76625B7D6B569BC0F7CCE98EC2D338D82E4F4D654D366E0279C55A59E8AE99654991CCDDECFFF3444440B6A1A514684B83545F44C7362934AB2988A173B2692D8C97667BB76B3702836E1A47C1E092D09A78584A5982F20C5688C7287
310
C389E904BEA3BE07BEFAD7ABA6A75739B53F43FD69212429A20365233153D70BEF2E2E6FAC4BCF9B5ADEBB0BD79ADFCF43CBBD9A4E16EF168B9BD9DD0D140BC921495BC2E9D60C1E101B9E46BED37CEA2CD6861F3329624541A3DA7F7858DBAC25C6B4A4458C3CA654405BCFEBC970E8AAD8F43E4FD558ABEC4F9FE7557F47
310
4F506B7BFBEC5BCA367FC105710E2AB8A00A554D7CB4A30DFE26FBA86D18CBF4B75418399194A72433B274C3097F33032C554B027F2046A1932B842B0FCCC0DDCBEBDB8AD2F835768F59B9ADB24C41D30C6A64AF817F2A456D59FA83F2E3DA60137255A585BCD60EC9B7929AC18DEFD49381AF1ED30BFDB109A4B1CD488294
310
C3CDE6EBC8D185AABD6568061FEE37BB95AAC7E3CA4BCE4ACAA5820FA0D526AE7DAA2869B5EE5999531BE0CC20E6FBA07C41E43FA27CF7A6206F3CDD793B4F6B919C1462CB788EDCD893FA674CDA17AB7B3B7C019F8D561FAEE966FED562DFE98C1D12C6A9FC015C2A35D7FF3D7FC398F591DA4B5FE0BFA2C0189FEA50AE22
310
92817A1ED3020951A03432862970F976B33383259812CC8E5D240BBA801CBCF8CE2BBEE3BF910DB6AAD5F79E05123AE2DB33981FB1ACCB02B69D00CB014FD68AB573A7627EF9BFD4CC2C5C7D58557C4B22FAA88925A4DBB44825CECE3D78FB060D1231F0E885BE7D673C86A3874958F593906B5502D1563157814FDAC3420D
310
F69A070A22EC4B98E23CFF171A1E5311D12C23056555ABA53B8614563B92D17D02AAB009E8F46284624E5F53D5490C560CCCC2591FF1B45421EB0EBD8EA7ED13BE7C5D7E0428CD60FEF60779EB13E6664FF711CB185F6FDED60D139A001FF60CD1FD6D086F1D51474901E26B2CB794A343BC8ED3EDB612E0DD2351FCB65CF4
310
33D511C9E14B5B40ADC6A6263DB0336A8F700DDF56271A024E70B0B3629DE21847591E55DED73D56206AB927E46FAABC5C939C55853C274C93D69FD6FA4E78BF8B11DF898C9ECD60553FAD39283BA6F18984AA23E8884F83F45C5F5F859797B31B2B9C84A1E5B9DE9D35BFF25C6B76152E422F9C5DCC3D847F5801ED09D5AF
310
41441327A25FF15487F9EB725FB666F048A4701E9A827292E6F97569A32DF61DEC01C0BB8DCBBCCC684E0B49147C1FD54BF685A0AB18C868E6973949E819523E3DAC463660E68C7D9F55A9D1EFA3BD7A76A16AE1A810F95CE59B82A4D968A376DC2E8B44BBDD86B27B368CDE0ED548C7137DA860591A83706223A12CA712B4
310
7306DBF39C0A20A6DF95C7FAF670C6EED7A61F946493D1D6926782963813403548A78AE470DEF80D2D9CEAA26E4D1C76F60BFE74219A06527D6B82DF641A51616F703CAAC6A7160E08A00BEB4810A0274592A1B36E3675E36E978A0DE80727A0D6DF2D39A75BD27E0D8837276589537B40ABB56D5A41F48F1C6FCD3188C4EB
310
A6929D2FFB89CE995A4D00AE813BDD032DC48B56BD437DFDDC2DD7AED70C2272D63DE9A72068A45A92F0A4BE17A8A06B9366E16707AD80B1FC649459952097E74BB23805982B55E0401150A165964402AA8BDF9F3E7386BB686EDCA780C0D382E5392BF460A6EFB2C6EA1937D3F809B440D5F5435C4C5CF7A9EEFAF54564BD
310
2182DA24162F98680B4E7930C21A0079709CEAEB99A372305ABE0C0D7D6078105A83F6A0296DAEE1068A47DD1C55A9F4C9B2FC69E3EFD44B81028E963DF81B504B0304140006080000B670623B000000000000000000000000350000006662782F45374635344235342D363743322D343832342D383044432D433445464530
310
3536354442422F76657274696365732E62696E504B0304140006080800B670623BF270F1330600000004000000360000006662782F45374635344235342D363743322D343832342D383044432D4334454645303536354442422F747269616E676C65732E62696E636660600000504B0304140006080000B670623B00000000
310
0000000000000000370000006662782F45374635344235342D363743322D343832342D383044432D4334454645303536354442422F617474726962757465732E62696E504B0304140006080800B670623B08DA0BD19000000041010000360000006662782F45374635344235342D363743322D343832342D383044432D4334
310
454645303536354442422F6469726563746F72792E786D6C858F410AC3201045AF22B36F53E9A60B35CBEEBAE80D244E44489C6234F4F835464A48035D0DF398FF9F8AF63D0E6CC63039F212F8F9020C7D47C6792B21C5FE7403D62A1188E2E60C98D7234A5830286103A55745067B9D86B8A3CF9C7F90C11DE607FB144396
310
D7B6A82D282E9A152AD114D5EF2CB866EEE831B8EEA07A7BB5A8D7D61A2BAAEB7FD5F70921FF497D00504B0304140006080800B670623B6378F24DFF000000A00100003B0000006662782F45374635344235342D363743322D343832342D383044432D4334454645303536354442422F7265736F75726365732F636F72652E
310
786D6C8D504B6E833010BD0A9A6D65B0094E42641C85B639412F6099496225D8C89FAAC7AF09546A77DDCC8CDE47F3F4C4F16B7C149FE88371B603565228D06A37187BED20C50BD9437194C23B177FC9A0B06AC40E6618A4B87A97A615D2CE46B431A3D60DB8822A048C50E8473E3A08FA86A32A558A5911EEE5A4F45D5DB1
310
6465A6B34E8A107D0E502C4FE609D26370C96B0CA25A58295232C3AA3143FE692E063D485EF7F5AEE71BD2D2F39634AFFC44DAF7DD9E9CCE6F9CD25DCBFA762BAAD92C4534E34F46ED51451C40D694B6843142EB0FD61C283F34FC85EE0F948A6A96FF31A569F8A729191B37F51A77B105902C0779125254735F793DCBCC7B
310
EE567E03504B010214000A0000080000B670623B3DEE336E79000000790000001B00000000000000000000000000000000006175746F6465736B2D64657369676E2D7061636B6167652E786D6C504B01021400140006080800B670623BD486FD9CA0000000F40000001300000000000000000000000000B20000005B436F6E
310
74656E745F54797065735D2E786D6C504B01021400140006080800B670623BBC1638F5EC0000007C010000080000000000000000000000000083010000636F72652E786D6C504B01021400140006080800B670623B55019EA25F0000007C000000070000000000000000000000000095020000636E782E786D6C504B010214
310
00140006080800B670623B3586FFB671010000D40300000C00000000000000000000000000190300006662782F636F72652E786D6C504B01021400140006080800B670623B4220A0FF7D0000009D0000000B00000000000000000000000000B40400006662782F636E782E786D6C504B01021400140006080800B670623B2F
310
A3FEDE290100001202000031000000000000000000000000005A0500006662782F45374635344235342D363743322D343832342D383044432D4334454645303536354442422F636F72652E786D6C504B01021400140006080800B670623B1B8617914E010000330300003000000000000000000000000000D2060000666278
310
2F45374635344235342D363743322D343832342D383044432D4334454645303536354442422F636E782E786D6C504B01021400140006080800B670623B29652116630500003C10000034000000000000000000000000006E0800006662782F45374635344235342D363743322D343832342D383044432D4334454645303536
310
354442422F6F626A656374732E786D6C504B01021400140006080000B670623B0000000000000000000000003500000000000000000000000000230E00006662782F45374635344235342D363743322D343832342D383044432D4334454645303536354442422F76657274696365732E62696E504B01021400140006080800
310
B670623BF270F13306000000040000003600000000000000000000000000760E00006662782F45374635344235342D363743322D343832342D383044432D4334454645303536354442422F747269616E676C65732E62696E504B01021400140006080000B670623B0000000000000000000000003700000000000000000000
310
000000D00E00006662782F45374635344235342D363743322D343832342D383044432D4334454645303536354442422F617474726962757465732E62696E504B01021400140006080800B670623B08DA0BD190000000410100003600000000000000000000000000250F00006662782F45374635344235342D363743322D34
310
3832342D383044432D4334454645303536354442422F6469726563746F72792E786D6C504B01021400140006080800B670623B6378F24DFF000000A00100003B00000000000000000000000000091000006662782F45374635344235342D363743322D343832342D383044432D4334454645303536354442422F7265736F75
310
726365732F636F72652E786D6C504B0506000000000E000E0080040000611100000000
  0
XRECORD
  5
112
102
{ACAD_REACTORS
330
110
102
}
330
110
100
AcDbXrecord
280
     1
270
     1
271
     1
  0
XRECORD
  5
111
102
{ACAD_REACTORS
330
110
102
}
330
110
100
AcDbXrecord
280
     1
270
     1
271
     1
  0
XRECORD
  5
18A
102
{ACAD_REACTORS
330
110
102
}
330
110
100
AcDbXrecord
280
     1
 70
     0
 90
1778669749
  1
9BF507EE-FAF7-4A99-A33D-4EE51894BC40
310
504B03040A0000080000B670623B3DEE336E79000000790000001B0000006175746F6465736B2D64657369676E2D7061636B6167652E786D6C3C3F786D6C2076657273696F6E3D22312E302220656E636F64696E673D227574662D3822203F3E3C666F726D6174733E3C666F726D61743E687474703A2F2F736368656D612E
310
6175746F6465736B2E636F6D2F64657369676E2D7061636B6167652F323030393C2F666F726D61743E3C2F666F726D6174733E504B0304140006080800B670623BD486FD9CA0000000F4000000130000005B436F6E74656E745F54797065735D2E786D6C7D8EC10E82300C865F65E91D8A1E8C310C0EEA1BF002731658846E
310
D98AC1B77784ABF1D8FE5FBFBF75BBCE937A534CCEB38643598122B6FEE978D0B0485F9C41B54DDD7D022595594E1A469170414C76A4D9A4D207E29CF43ECE46F218070CC6BECC4078ACAA135ACF422C856C0E68EA1BF5669944DDD7BCDE7B1F8E415D77AECB980613C2E4AC91FC167A2B244592486606FC29C8FD7F045B9A
310
EF7053A7E60B504B0304140006080800B670623BCA089DFFEC0000007C01000008000000636F72652E786D6C8D90416E83301045AF62CDB632D8402020E32882F604BD80653BC44AB011B6AB1EBF262152BBEB6A467FFE9B197D76FA9EEFE84BAFDE38DB03CD08206DA553C64E3DC470C1474027CE56E7C22F1B202B66DDC3
310
260367D3EAE2B24BD2D9A06D48AA754AEFA2F05E0740F29E9A1EBCBCEA59642286E4F0B76C11F226269DD15797E0188D42CF2346A57DE662F40ABCAEC77628C6120F654571D50C04B7F5B9C1E3997CD4F550BE3745C3F20DE62C98F9755FAE5A04AD801784B498524C8A4F5A75E4D055873772EC0861F966FF03C545FD138A
310
C686B2D8DF7D621E384D8F3C069CE55B16A93C824A75CB8DFF00504B0304140006080800B670623B55019EA25F0000007C00000007000000636E782E786D6C4DCB3B0E80201045D1AD90E915ED2CF8AC45050C11660C8261F98AB1B07AC9C97D42D718D865D3E909258CFD00CCE24AC6E326A164D74DC0B4128928FF326038
310
472BA13128B1252AC747C6BAB984FC68F0B87FE8960A5C09FE86CFB69FBA01504B0304140006080800B670623B68FC0B7272010000D40300000C0000006662782F636F72652E786D6CC5535B6E833010BC8AE5DF0A6C1E8124328E22D29EA01770C0A128602363A31CBFCB234A53A555FA553EC09AD9F5CE8C31DB5DDA060D
310
D2F4B556190E7C8A9154852E6B5565D8D993B7C668C799D1DA7E29C3488956667884316795D1AE5BA0422B2B950554E9522EA0E87B69312A1A5864B82F3E642B7CE12C54F467BF13C55954D20F7CA0A18EB3DE1A1080E621E31BF3D3F1C2C88C73E65C5D2E6C5DC2B4FA544B8379921C36797888BC3C8A032F4E73EA6D927D
310
EA1DF6F42D49F2E8350D5346C666CE6CDD5ED515460A2B4BCC434A375E1078347C0FE22D5D6DE3D50B5D6F2965642CBF6B725DF96493AB958DC245EEDCD6631E809089F8E61622B2A81703E8219C913144F84C09DF070D8140C8561C9BAB8F3340832CAC363130A576376A108D933095FA747AD0CF0B46E64E983A6D0EAE1F
310
CE089F9EF1FB8E70D44255604258581E9D1D75B259C3125A278D37D80B52DAB4A279CEC62F0EFF44DDC43F9454E8469BFF5244960322CBEF41C6FBC83F01504B0304140006080800B670623B0F71DDB67E0000009D0000000B0000006662782F636E782E786D6C4DCCD10A83201886E15B91FFDCA54DB73F502386BB8F5816
310
32D3703976F9ABD1C18E3E78F87855FB990379BBFCF2296AE02706C4C5471A7C9C349475A408A4352AA7B4FEDD80C47E761A7606A3A69CCA72D0E0C6BE8475D3E0E3F3409428EA6B27A84079A782899AA2EC1A7AE3ECCC2FD858CB2D544655BFD2B67BD87C01504B0304140006080800B670623BE134B4FB28010000120200
310
00310000006662782F38353834323741342D343835462D343034322D383541392D4331303331363839454531452F636F72652E786D6C8D515B6EC32010BC0AE22B55850D0EA424C24451959EA0172086A42831583CAA1CBF503B52FB971F16CDCECC0EACD8DFC71BF836215AEF7A481A0C817183D7D65D7A98D3197108F652
310
04EFD31F1A044E8DA6871586525C82CFD3020DDE25E352419DD76601558C264130DCCAA58771F832A36A544E8511AFCDA486ABBA988634A55D7852C4144A00300FA927949C71DABD1D28A29C7D208A6987383B6CD13BC16BB2E1DBE3911C453B0BA5C8D9EA456E758963CFD684674DAA588A64C747FC2118958C86B2C3788B
310
0841B8FB247487D98EB257CC77188BB6D2FF89F2A49F1465EBD2BA5BE2CEB2082511EDDC9042FB7CBA3DC298FBE4430275DE2A9AE1054ADC60CC08E3A29D89E5F9C5714317C7987C28DFBBBA9E0A97B0D97643A568EB864AF95D5FA9759BF207504B0304140006080800B670623B1B8617914E010000330300003000000066
310
62782F38353834323741342D343835462D343034322D383541392D4331303331363839454531452F636E782E786D6CD593C16EC32010447F0571AD6CE3D489D20813A9877E410FBD62D82434182CC055F3F75D1292E692438FBD206B7698593D61BEFD1E2DF982108D773D6D6B460938E5B571FB9ECE6957AD29D90A1EBC4F
310
77364A9C1CA1A759A682EF839FA72269D8C9D92654AD71C72206887E0E0A22CAF926B15E498B01E0AA19451807D01A34B919F16B070157417138917400F2F6FA41FCF0092A45DEE414C19BDC21783E4BD39D891265658C3D8DEA00A3ACE59CBC8678ACB54CB26EEB6BD7839D7E9348BE70AD9C8321B9BCA7F9A4A26C542347
310
DEE050F09802D22BA6749A800A394DD62899107273365E3C82CFC6A55557BC06C10774B7ABE7AEC3B0F34CF06446280E154026D0542C187BA9DAB6628BF7B6DBB0E5A65B3EB1F58631DE64BBE083F7B65CC218087E22CABB042E51D1F2268F1FE12B3EA24D40D63E9CFE00120194D60B9D5BC67FE6D39CDF37E20AF817881F
310
504B0304140006080800B670623B5933D422630500003B100000340000006662782F38353834323741342D343835462D343034322D383541392D4331303331363839454531452F6F626A656374732E786D6CAD575B6FA33814FE2B887D0642934E9B156594264D158D3A534DD4D13E548A0C38942D60649B4EBABF7E3F8321
310
40924EF6928780CDF1B97EE762EFF32E4B8D37CA45C2F21BD3B547A641F39045491EDF98A5DC5AD7A6F1D9F73863B243661A39C9E88DA9B64DDF8B392B0BBD15D12D295339D85DDEFE618890E6D434C2940871638AF08566C426A5641115AF764424B1E3EDCE76ED9AB0CF36E6A47819302D08A7B984A6D8CFC1C5A89572FB
310
CB91E9F89EA3BEFB9EFAD754E3D3544E654F5F7E920B49F2F040D880CDD89D2CEE2E2EA7D6E56432B6269F2E5CEB7679BBB0DCABF168FE693E9FCEEEA6102C240727AD09A75BD3BF876F78127A4EFDA9D5582B7E4CA590E5390D2BFB6161A5B3E618D182E611E2985001691DAB47FDA5AB7CD3F93C566B2DB2BB7D9E55DD13
310
1D468DEECDB3AB290BFE8409E21C54704115AA6AFF68436BFC8DF65E0B184BF5B74418199194272435D224E084BF9B3E481589EFF5D828747285706581E9BB7B7E5D5D911ABFC6EE312DB7659A2A689A7E85EC0DF04FA5A8344BFEA2FCB834E8845895492EAFB541F2BDA0A63FF59C6AD3F7D4637CA13FD68E34B629891172
310
98597F1D183A57B9B75A98FE9765B05BAB7C3C2EBCE0ACA05C2AF8005A4DE09AA7F29216EB9E15397500C6F47CBE77CA7778FE2BD277AF0AE2C693DD6437D1522427B9D8329E2136F6A8FA19A3E6C56ADF0E5F50CF06D48734EDCEBF22F69C56D97EC138153F804B85E6FABFC7AFEFB32E523BE1F3BD372418E363EDCA7548
310
52949E8724474014288D94610BB57C1BEC4C7F854A89CA8E5324F55B871CBC78CE1BBEE3BFE68D6A5589EF3C730474506FCFA8FCF0659516D0ED04580EEA6425581B77CAE797FF4BCECC16EB2FEB926F49481F746159D06D922712BD730FDEAE42BD40F42C7AA5EF3F198F60E86110D6DD20645A9480B795CF95E3E3A659A8
310
C55E724F408873315335CFFB8584874484344D494E59D94869DB90C26A5B64F49C802CAC1D3ABE18A098D3B7444D123D8A9E5AE8F5214F0AE5B2B6E9B575DA3E61CBD3EA2B4009FA940524DD1305FB6A1FB294F14DF0BEA90BA109ECE1481FDC3FFAE8D60E75141700BE82725371B4873751B2DD960265F788137FACE6DD40
310
B575E4F0A5C99F46629D92131467A41EE11ABD8D4CCC039CA0AFB37C93A08B232B8F0AEFCA1E0A1015DF13FC83322B362463652ECF71D3A8B1A7D1BE65DE1D62C44F22C317D35F574FEB16153BA2D13E543D10A80E74C4A65E78A6B7CBCBD1D5DD9DB59C2DAFACC96C3AB566E3F1C29ADCDD5DBAD7D3C9ED7C822ED74F80A6
310
41755310DE4443F44A9E68373FADF6596BFA0F440AE7BECE2727AE9F4F2B1B53B1E7E00CF0DD1E5C65454A339A4BA2D0FBA05ED2EF0443458F47BDBFCA484CCFE0F2ED7E3DD0013B679C7B5499467F0ECEEADDB9CA85A34CE44B99053949D2C1416DB85DE4B136BB7165FBAC0B7AB3542BED4F8CA182A549847A1319316519
310
95A83A67147B9E5101C47487F2485F1ECE38FD568F839204296D3479219888530154036E6528FBFBC66F98E0D4107563A2D7D9AFF8D389681A08F58D89F22693900A3B407754734FC51C10C010D6D640809EE4718AC1BA3ED4AEDB53CA37283F68805A7E4B72CEB0A4EDEAD5DD8C14059A76AFAA56BA6901E13F32BC51C720
310
12AF41295B5BF61BAD3195181FB506E6B40F4C10AF5AF40EF9F5B159AE5DD1F43C72D635E94310D45C2D49785C5D0B94D3B54AB3C5A38349C0587D338AB48C11CBF339599C02CCA54A70A008A8D03C0B2201D5F9EFCF8F9CE12A9A19CB0410789EB32C63B95ECCF455D658BFE0621A3DA32C5075FB101723D77DAE867E7D0F
310
D90444509B44E2151B4DC2290B065803200FBAA9BE9D392A0603F2D5C2D00D6302A615680F66D2FA166E2079D4C551A54AB758161FCEFD4E450A14704CECFEDF504B0304140006080000B670623B000000000000000000000000350000006662782F38353834323741342D343835462D343034322D383541392D4331303331
310
363839454531452F76657274696365732E62696E504B0304140006080800B670623BF270F1330600000004000000360000006662782F38353834323741342D343835462D343034322D383541392D4331303331363839454531452F747269616E676C65732E62696E636660600000504B0304140006080000B670623B000000
310
000000000000000000370000006662782F38353834323741342D343835462D343034322D383541392D4331303331363839454531452F617474726962757465732E62696E504B0304140006080800B670623B08DA0BD19000000041010000360000006662782F38353834323741342D343835462D343034322D383541392D43
310
31303331363839454531452F6469726563746F72792E786D6C858F410AC3201045AF22B36F53E9A60B35CBEEBAE80D244E44489C6234F4F835464A48035D0DF398FF9F8AF63D0E6CC63039F212F8F9020C7D47C6792B21C5FE7403D62A1188E2E60C98D7234A5830286103A55745067B9D86B8A3CF9C7F90C11DE607FB1443
310
96D7B6A82D282E9A152AD114D5EF2CB866EEE831B8EEA07A7BB5A8D7D61A2BAAEB7FD5F70921FF497D00504B0304140006080800B670623BD9A3B367FE000000A00100003B0000006662782F38353834323741342D343835462D343034322D383541392D4331303331363839454531452F7265736F75726365732F636F7265
310
2E786D6C8D504B6E833010BD0A9A6D65B01D0201194711694FD00B586642AD043BF2A7EAF16B122AB5BB6E6646EFA3797AE2F8B5DC8A4FF4C1383B002B291468B59B8C9D0748F1420E501CA5F0CEC55F3228AC5A708015062966EFD27D83B4B3116DCCA875136EA00A012314FA968F0182FEC045952AC5AC08D7F2AEF455CD
310
58B232D3592745883E07289E4FD609D26370C96B0CA27AB252A464A64D63A6FCD35C0C7A904D73EE467EE664DCD58CD4ED4849D79C5A723ED1B7A61977AF2D6F45B59AA58866F9C9A83DAA8813484E6947182394BFB3BAA7FBBEDEBFD0434FA9A856F91F53BA4FFF342563E38E6F719FB60092E5200F428A6AED2BAF479979
310
AFDDCA6F504B010214000A0000080000B670623B3DEE336E79000000790000001B00000000000000000000000000000000006175746F6465736B2D64657369676E2D7061636B6167652E786D6C504B01021400140006080800B670623BD486FD9CA0000000F40000001300000000000000000000000000B20000005B436F6E
310
74656E745F54797065735D2E786D6C504B01021400140006080800B670623BCA089DFFEC0000007C010000080000000000000000000000000083010000636F72652E786D6C504B01021400140006080800B670623B55019EA25F0000007C000000070000000000000000000000000095020000636E782E786D6C504B010214
310
00140006080800B670623B68FC0B7272010000D40300000C00000000000000000000000000190300006662782F636F72652E786D6C504B01021400140006080800B670623B0F71DDB67E0000009D0000000B00000000000000000000000000B50400006662782F636E782E786D6C504B01021400140006080800B670623BE1
310
34B4FB280100001202000031000000000000000000000000005C0500006662782F38353834323741342D343835462D343034322D383541392D4331303331363839454531452F636F72652E786D6C504B01021400140006080800B670623B1B8617914E010000330300003000000000000000000000000000D3060000666278
310
2F38353834323741342D343835462D343034322D383541392D4331303331363839454531452F636E782E786D6C504B01021400140006080800B670623B5933D422630500003B10000034000000000000000000000000006F0800006662782F38353834323741342D343835462D343034322D383541392D4331303331363839
310
454531452F6F626A656374732E786D6C504B01021400140006080000B670623B0000000000000000000000003500000000000000000000000000240E00006662782F38353834323741342D343835462D343034322D383541392D4331303331363839454531452F76657274696365732E62696E504B01021400140006080800
310
B670623BF270F13306000000040000003600000000000000000000000000770E00006662782F38353834323741342D343835462D343034322D383541392D4331303331363839454531452F747269616E676C65732E62696E504B01021400140006080000B670623B0000000000000000000000003700000000000000000000
310
000000D10E00006662782F38353834323741342D343835462D343034322D383541392D4331303331363839454531452F617474726962757465732E62696E504B01021400140006080800B670623B08DA0BD190000000410100003600000000000000000000000000260F00006662782F38353834323741342D343835462D34
310
3034322D383541392D4331303331363839454531452F6469726563746F72792E786D6C504B01021400140006080800B670623BD9A3B367FE000000A00100003B000000000000000000000000000A1000006662782F38353834323741342D343835462D343034322D383541392D4331303331363839454531452F7265736F75
310
726365732F636F72652E786D6C504B0506000000000E000E0080040000611100000000
  0
XRECORD
  5
113
102
{ACAD_REACTORS
330
110
102
}
330
110
100
AcDbXrecord
280
     1
270
     1
271
     1
  0
XRECORD
  5
114
102
{ACAD_REACTORS
330
110
102
}
330
110
100
AcDbXrecord
280
     1
270
     1
271
     1
  0
CELLSTYLEMAP
  5
B42D
102
{ACAD_REACTORS
330
104
102
}
330
104
100
AcDbCellStyleMap
 90
        3
300
CELLSTYLE
  1
TABLEFORMAT_BEGIN
 90
        5
170
     1
 91
        0
 92
    32768
 62
   257
 93
        1
300
CONTENTFORMAT
  1
CONTENTFORMAT_BEGIN
 90
        0
 91
        0
 92
      512
 93
        0
300

 40
0.0
140
1.0
 94
        5
 62
     0
340
11
144
0.25
309
CONTENTFORMAT_END
171
     1
301
MARGIN
  1
CELLMARGIN_BEGIN
 40
0.06
 40
0.06
 40
0.06
 40
0.06
 40
0.18
 40
0.18
309
CELLMARGIN_END
 94
        6
 95
        1
302
GRIDFORMAT
  1
GRIDFORMAT_BEGIN
 90
        0
 91
        1
 62
     0
 92
       -2
340
0
 93
        0
 40
0.045
309
GRIDFORMAT_END
 95
        2
302
GRIDFORMAT
  1
GRIDFORMAT_BEGIN
 90
        0
 91
        1
 62
     0
 92
       -2
340
0
 93
        0
 40
0.045
309
GRIDFORMAT_END
 95
        4
302
GRIDFORMAT
  1
GRIDFORMAT_BEGIN
 90
        0
 91
        1
 62
     0
 92
       -2
340
0
 93
        0
 40
0.045
309
GRIDFORMAT_END
 95
        8
302
GRIDFORMAT
  1
GRIDFORMAT_BEGIN
 90
        0
 91
        1
 62
     0
 92
       -2
340
0
 93
        0
 40
0.045
309
GRIDFORMAT_END
 95
       16
302
GRIDFORMAT
  1
GRIDFORMAT_BEGIN
 90
        0
 91
        1
 62
     0
 92
       -2
340
0
 93
        0
 40
0.045
309
GRIDFORMAT_END
 95
       32
302
GRIDFORMAT
  1
GRIDFORMAT_BEGIN
 90
        0
 91
        1
 62
     0
 92
       -2
340
0
 93
        0
 40
0.045
309
GRIDFORMAT_END
309
TABLEFORMAT_END
  1
CELLSTYLE_BEGIN
 90
        1
 91
        1
300
_TITLE
309
CELLSTYLE_END
300
CELLSTYLE
  1
TABLEFORMAT_BEGIN
 90
        5
170
     1
 91
        0
 92
        0
 62
   257
 93
        1
300
CONTENTFORMAT
  1
CONTENTFORMAT_BEGIN
 90
        0
 91
        0
 92
      512
 93
        0
300

 40
0.0
140
1.0
 94
        5
 62
     0
340
11
144
0.18
309
CONTENTFORMAT_END
171
     1
301
MARGIN
  1
CELLMARGIN_BEGIN
 40
0.06
 40
0.06
 40
0.06
 40
0.06
 40
0.18
 40
0.18
309
CELLMARGIN_END
 94
        6
 95
        1
302
GRIDFORMAT
  1
GRIDFORMAT_BEGIN
 90
        0
 91
        1
 62
     0
 92
       -2
340
0
 93
        0
 40
0.045
309
GRIDFORMAT_END
 95
        2
302
GRIDFORMAT
  1
GRIDFORMAT_BEGIN
 90
        0
 91
        1
 62
     0
 92
       -2
340
0
 93
        0
 40
0.045
309
GRIDFORMAT_END
 95
        4
302
GRIDFORMAT
  1
GRIDFORMAT_BEGIN
 90
        0
 91
        1
 62
     0
 92
       -2
340
0
 93
        0
 40
0.045
309
GRIDFORMAT_END
 95
        8
302
GRIDFORMAT
  1
GRIDFORMAT_BEGIN
 90
        0
 91
        1
 62
     0
 92
       -2
340
0
 93
        0
 40
0.045
309
GRIDFORMAT_END
 95
       16
302
GRIDFORMAT
  1
GRIDFORMAT_BEGIN
 90
        0
 91
        1
 62
     0
 92
       -2
340
0
 93
        0
 40
0.045
309
GRIDFORMAT_END
 95
       32
302
GRIDFORMAT
  1
GRIDFORMAT_BEGIN
 90
        0
 91
        1
 62
     0
 92
       -2
340
0
 93
        0
 40
0.045
309
GRIDFORMAT_END
309
TABLEFORMAT_END
  1
CELLSTYLE_BEGIN
 90
        2
 91
        1
300
_HEADER
309
CELLSTYLE_END
300
CELLSTYLE
  1
TABLEFORMAT_BEGIN
 90
        5
170
     1
 91
        0
 92
        0
 62
   257
 93
        1
300
CONTENTFORMAT
  1
CONTENTFORMAT_BEGIN
 90
        0
 91
        0
 92
      512
 93
        0
300

 40
0.0
140
1.0
 94
        2
 62
     0
340
11
144
0.18
309
CONTENTFORMAT_END
171
     1
301
MARGIN
  1
CELLMARGIN_BEGIN
 40
0.06
 40
0.06
 40
0.06
 40
0.06
 40
0.18
 40
0.18
309
CELLMARGIN_END
 94
        6
 95
        1
302
GRIDFORMAT
  1
GRIDFORMAT_BEGIN
 90
        0
 91
        1
 62
     0
 92
       -2
340
0
 93
        0
 40
0.045
309
GRIDFORMAT_END
 95
        2
302
GRIDFORMAT
  1
GRIDFORMAT_BEGIN
 90
        0
 91
        1
 62
     0
 92
       -2
340
0
 93
        0
 40
0.045
309
GRIDFORMAT_END
 95
        4
302
GRIDFORMAT
  1
GRIDFORMAT_BEGIN
 90
        0
 91
        1
 62
     0
 92
       -2
340
0
 93
        0
 40
0.045
309
GRIDFORMAT_END
 95
        8
302
GRIDFORMAT
  1
GRIDFORMAT_BEGIN
 90
        0
 91
        1
 62
     0
 92
       -2
340
0
 93
        0
 40
0.045
309
GRIDFORMAT_END
 95
       16
302
GRIDFORMAT
  1
GRIDFORMAT_BEGIN
 90
        0
 91
        1
 62
     0
 92
       -2
340
0
 93
        0
 40
0.045
309
GRIDFORMAT_END
 95
       32
302
GRIDFORMAT
  1
GRIDFORMAT_BEGIN
 90
        0
 91
        1
 62
     0
 92
       -2
340
0
 93
        0
 40
0.045
309
GRIDFORMAT_END
309
TABLEFORMAT_END
  1
CELLSTYLE_BEGIN
 90
        3
 91
        2
300
_DATA
309
CELLSTYLE_END
  0
ENDSEC
  0
SECTION
  2
ACDSDATA
 70
     2
 71
     8
  0
ACDSSCHEMA
 90
        0
  1
AcDb_Thumbnail_Schema
  2
AcDbDs::ID
280
    10
 91
        8
  2
Thumbnail_Data
280
    15
 91
        0
101
ACDSRECORD
 95
        0
 90
        1
  2
AcDbDs::TreatedAsObjectData
280
     1
291
     1
101
ACDSRECORD
 95
        0
 90
        2
  2
AcDbDs::Legacy
280
     1
291
     1
101
ACDSRECORD
  1
AcDbDs::ID
 90
        3
  2
AcDs:Indexable
280
     1
291
     1
101
ACDSRECORD
  1
AcDbDs::ID
 90
        4
  2
AcDbDs::HandleAttribute
280
     7
282
     1
  0
ACDSSCHEMA
 90
        1
  1
AcDbDs::TreatedAsObjectDataSchema
  2
AcDbDs::TreatedAsObjectData
280
     1
 91
        0
  0
ACDSSCHEMA
 90
        2
  1
AcDbDs::LegacySchema
  2
AcDbDs::Legacy
280
     1
 91
        0
  0
ACDSSCHEMA
 90
        3
  1
AcDbDs::IndexedPropertySchema
  2
AcDs:Indexable
280
     1
 91
        0
  0
ACDSSCHEMA
 90
        4
  1
AcDbDs::HandleAttributeSchema
  2
AcDbDs::HandleAttribute
280
     7
 91
        1
284
     1
  0
ACDSRECORD
 90
        0
  2
AcDbDs::ID
280
    10
320
22
  2
Thumbnail_Data
280
    15
 94
     1394
310
89504E470D0A1A0A0000000D49484452000001000000006D080300000079B14F6400000300504C5445212830FFFFFF2128300000000000000000000000000000000000000000000000000000330000660000990000CC0000FF0033000033330033660033990033CC0033FF0066000066330066660066990066CC0066FF0099
310
000099330099660099990099CC0099FF00CC0000CC3300CC6600CC9900CCCC00CCFF00FF0000FF3300FF6600FF9900FFCC00FFFF3300003300333300663300993300CC3300FF3333003333333333663333993333CC3333FF3366003366333366663366993366CC3366FF3399003399333399663399993399CC3399FF33CC00
310
33CC3333CC6633CC9933CCCC33CCFF33FF0033FF3333FF6633FF9933FFCC33FFFF6600006600336600666600996600CC6600FF6633006633336633666633996633CC6633FF6666006666336666666666996666CC6666FF6699006699336699666699996699CC6699FF66CC0066CC3366CC6666CC9966CCCC66CCFF66FF0066
310
FF3366FF6666FF9966FFCC66FFFF9900009900339900669900999900CC9900FF9933009933339933669933999933CC9933FF9966009966339966669966999966CC9966FF9999009999339999669999999999CC9999FF99CC0099CC3399CC6699CC9999CCCC99CCFF99FF0099FF3399FF6699FF9999FFCC99FFFFCC0000CC00
310
33CC0066CC0099CC00CCCC00FFCC3300CC3333CC3366CC3399CC33CCCC33FFCC6600CC6633CC6666CC6699CC66CCCC66FFCC9900CC9933CC9966CC9999CC99CCCC99FFCCCC00CCCC33CCCC66CCCC99CCCCCCCCCCFFCCFF00CCFF33CCFF66CCFF99CCFFCCCCFFFFFF0000FF0033FF0066FF0099FF00CCFF00FFFF3300FF3333
310
FF3366FF3399FF33CCFF33FFFF6600FF6633FF6666FF6699FF66CCFF66FFFF9900FF9933FF9966FF9999FF99CCFF99FFFFCC00FFCC33FFCC66FFCC99FFCCCCFFCCFFFFFF00FFFF33FFFF66FFFF99FFFFCCFFFFFF0000000D0D0D1A1A1A2828283535354343435050505D5D5D6B6B6B787878868686939393A1A1A1AEAEAEBB
310
BBBBC9C9C9D6D6D6E4E4E4F1F1F1FFFFFF0000000000000000000000000000000000000000000000000000000000002E4550F10000022D4944415478DAED9D4172C4200C04F5FFFFF63D95AC8D85C0E4964AD1B8F6941B9D91341206479CE7AF1F3E8F18C0CD412B8042E200B005006126F09DFD18C5E0AA00D1CA801340AE
310
835209B47FBF3609706500651DF809819A0E954E18AF13BA3300A15540486B40B33F64314863A0AB08BE3A90CAA04D064C562D42305DAA6842C4EB5FD50044A6E05D017100B8234042601EE8841C8088C04B076C0770BB2041259C8F01DBC211AC7F25018702A612F85841D41270F403AF00E2DA2FF102B0B4842F9D3F96A6
310
98A519060581E5FADD0042012058F6026CBFFE0380A12A102A00694B80320AC201A0BD2532BC27A300D0564E9300BF1489DD8AC0E7ED88C6217B430580E4066B0C487200832FD20078B45F06A11602A4A94F570A3B007B2388320025435100289E286A08840900D50BCA000CF1A0E90672C6AF49D05109EF00888902B62790
310
3782EAA6E0E5922D3150DBE24B1B86A9585FFDBB43446C1F014FBC536D4008CE9456233086C5EEFB63939701FA9766B74F016B00FB3FA3FD3B0064270638000E00378021FDEB0E0DA16AFE56008803A04B0A56005E09E014C0736F8034075600C608E866A20893601E7F1BAF51E837C5D1C6C0B033685200F3B6481300CCB2
310
812E02523D3003400E20D40002E5855A7A00A90A603542D901196FD5AB2704DC123800F463518C43B16E20ACBC5D570F404EA0B34228013C260867196802707E6C817E227A007801047605886FD9CF27689D3E90F453D6C0E720A51280F7634BFA0F4DFDB390FF02CF67BE95691857E10000000049454E44AE426082
  0
ENDSEC
  0
EOF
