  0
SECTION
  2
HEADER
  9
$ACADVER
  1
AC1032
  9
$ACADMAINTVER
 90
      197
  9
$DWGCODEPAGE
  3
ANSI_1252
  9
$LASTSAVEDBY
  1
gregb
  9
$REQUIREDVERSIONS
160
                 0
  9
$INSBASE
 10
0.0
 20
0.0
 30
0.0
  9
$EXTMIN
 10
10322.25926492211
 20
29310.01220687793
 30
0.0
  9
$EXTMAX
 10
10322.94691662374
 20
29311.60236491709
 30
0.0
  9
$LIMMIN
 10
0.0
 20
0.0
  9
$LIMMAX
 10
12.0
 20
9.0
  9
$ORTHOMODE
 70
     1
  9
$REGENMODE
 70
     1
  9
$FILLMODE
 70
     1
  9
$QTEXTMODE
 70
     0
  9
$MIRRTEXT
 70
     0
  9
$LTSCALE
 40
1.0
  9
$ATTMODE
 70
     1
  9
$TEXTSIZE
 40
0.2
  9
$TRACEWID
 40
0.05
  9
$TEXTSTYLE
  7
Standard
  9
$CLAYER
  8
freecads.com
  9
$CELTYPE
  6
ByLayer
  9
$CECOLOR
 62
   256
  9
$CELTSCALE
 40
1.0
  9
$DISPSILH
 70
     1
  9
$DIMSCALE
 40
1.0
  9
$DIMASZ
 40
0.18
  9
$DIMEXO
 40
0.0625
  9
$DIMDLI
 40
0.38
  9
$DIMRND
 40
0.0
  9
$DIMDLE
 40
0.0
  9
$DIMEXE
 40
0.18
  9
$DIMTP
 40
0.0
  9
$DIMTM
 40
0.0
  9
$DIMTXT
 40
0.18
  9
$DIMCEN
 40
0.09
  9
$DIMTSZ
 40
0.0
  9
$DIMTOL
 70
     0
  9
$DIMLIM
 70
     0
  9
$DIMTIH
 70
     1
  9
$DIMTOH
 70
     1
  9
$DIMSE1
 70
     0
  9
$DIMSE2
 70
     0
  9
$DIMTAD
 70
     0
  9
$DIMZIN
 70
     0
  9
$DIMBLK
  1

  9
$DIMASO
 70
     1
  9
$DIMSHO
 70
     1
  9
$DIMPOST
  1

  9
$DIMAPOST
  1

  9
$DIMALT
 70
     0
  9
$DIMALTD
 70
     2
  9
$DIMALTF
 40
25.4
  9
$DIMLFAC
 40
1.0
  9
$DIMTOFL
 70
     0
  9
$DIMTVP
 40
0.0
  9
$DIMTIX
 70
     0
  9
$DIMSOXD
 70
     0
  9
$DIMSAH
 70
     0
  9
$DIMBLK1
  1

  9
$DIMBLK2
  1

  9
$DIMSTYLE
  2
Standard
  9
$DIMCLRD
 70
     0
  9
$DIMCLRE
 70
     0
  9
$DIMCLRT
 70
     0
  9
$DIMTFAC
 40
1.0
  9
$DIMGAP
 40
0.09
  9
$DIMJUST
 70
     0
  9
$DIMSD1
 70
     0
  9
$DIMSD2
 70
     0
  9
$DIMTOLJ
 70
     1
  9
$DIMTZIN
 70
     0
  9
$DIMALTZ
 70
     0
  9
$DIMALTTZ
 70
     0
  9
$DIMUPT
 70
     0
  9
$DIMDEC
 70
     4
  9
$DIMTDEC
 70
     4
  9
$DIMALTU
 70
     2
  9
$DIMALTTD
 70
     2
  9
$DIMTXSTY
  7
Standard
  9
$DIMAUNIT
 70
     0
  9
$DIMADEC
 70
     0
  9
$DIMALTRND
 40
0.0
  9
$DIMAZIN
 70
     0
  9
$DIMDSEP
 70
    46
  9
$DIMATFIT
 70
     3
  9
$DIMFRAC
 70
     0
  9
$DIMLDRBLK
  1

  9
$DIMLUNIT
 70
     2
  9
$DIMLWD
 70
    -2
  9
$DIMLWE
 70
    -2
  9
$DIMTMOVE
 70
     0
  9
$DIMFXL
 40
1.0
  9
$DIMFXLON
 70
     0
  9
$DIMJOGANG
 40
0.7853981633974483
  9
$DIMTFILL
 70
     0
  9
$DIMTFILLCLR
 70
     0
  9
$DIMARCSYM
 70
     0
  9
$DIMLTYPE
  6

  9
$DIMLTEX1
  6

  9
$DIMLTEX2
  6

  9
$DIMTXTDIRECTION
 70
     0
  9
$LUNITS
 70
     2
  9
$LUPREC
 70
     4
  9
$SKETCHINC
 40
0.1
  9
$FILLETRAD
 40
0.0
  9
$AUNITS
 70
     0
  9
$AUPREC
 70
     0
  9
$MENU
  1
.
  9
$ELEVATION
 40
0.0
  9
$PELEVATION
 40
0.0
  9
$THICKNESS
 40
0.0
  9
$LIMCHECK
 70
     0
  9
$CHAMFERA
 40
0.0
  9
$CHAMFERB
 40
0.0
  9
$CHAMFERC
 40
0.0
  9
$CHAMFERD
 40
0.0
  9
$SKPOLY
 70
     0
  9
$TDCREATE
 40
2458157.371250000
  9
$TDUCREATE
 40
2458157.287916667
  9
$TDUPDATE
 40
2461016.542372686
  9
$TDUUPDATE
 40
2461016.459039352
  9
$TDINDWG
 40
0.1129513889
  9
$TDUSRTIMER
 40
0.1129513889
  9
$USRTIMER
 70
     1
  9
$ANGBASE
 50
0.0
  9
$ANGDIR
 70
     0
  9
$PDMODE
 70
     0
  9
$PDSIZE
 40
0.0
  9
$PLINEWID
 40
0.0
  9
$SPLFRAME
 70
     0
  9
$SPLINETYPE
 70
     6
  9
$SPLINESEGS
 70
     8
  9
$HANDSEED
  5
B360
  9
$SURFTAB1
 70
     6
  9
$SURFTAB2
 70
     6
  9
$SURFTYPE
 70
     6
  9
$SURFU
 70
     6
  9
$SURFV
 70
     6
  9
$UCSBASE
  2

  9
$UCSNAME
  2

  9
$UCSORG
 10
0.0
 20
0.0
 30
0.0
  9
$UCSXDIR
 10
1.0
 20
0.0
 30
0.0
  9
$UCSYDIR
 10
0.0
 20
1.0
 30
0.0
  9
$UCSORTHOREF
  2

  9
$UCSORTHOVIEW
 70
     0
  9
$UCSORGTOP
 10
0.0
 20
0.0
 30
0.0
  9
$UCSORGBOTTOM
 10
0.0
 20
0.0
 30
0.0
  9
$UCSORGLEFT
 10
0.0
 20
0.0
 30
0.0
  9
$UCSORGRIGHT
 10
0.0
 20
0.0
 30
0.0
  9
$UCSORGFRONT
 10
0.0
 20
0.0
 30
0.0
  9
$UCSORGBACK
 10
0.0
 20
0.0
 30
0.0
  9
$PUCSBASE
  2

  9
$PUCSNAME
  2

  9
$PUCSORG
 10
0.0
 20
0.0
 30
0.0
  9
$PUCSXDIR
 10
1.0
 20
0.0
 30
0.0
  9
$PUCSYDIR
 10
0.0
 20
1.0
 30
0.0
  9
$PUCSORTHOREF
  2

  9
$PUCSORTHOVIEW
 70
     0
  9
$PUCSORGTOP
 10
0.0
 20
0.0
 30
0.0
  9
$PUCSORGBOTTOM
 10
0.0
 20
0.0
 30
0.0
  9
$PUCSORGLEFT
 10
0.0
 20
0.0
 30
0.0
  9
$PUCSORGRIGHT
 10
0.0
 20
0.0
 30
0.0
  9
$PUCSORGFRONT
 10
0.0
 20
0.0
 30
0.0
  9
$PUCSORGBACK
 10
0.0
 20
0.0
 30
0.0
  9
$USERI1
 70
     0
  9
$USERI2
 70
     0
  9
$USERI3
 70
     0
  9
$USERI4
 70
     0
  9
$USERI5
 70
     0
  9
$USERR1
 40
0.0
  9
$USERR2
 40
0.0
  9
$USERR3
 40
0.0
  9
$USERR4
 40
0.0
  9
$USERR5
 40
0.0
  9
$WORLDVIEW
 70
     1
  9
$SHADEDGE
 70
     3
  9
$SHADEDIF
 70
    70
  9
$TILEMODE
 70
     1
  9
$MAXACTVP
 70
    64
  9
$PINSBASE
 10
0.0
 20
0.0
 30
0.0
  9
$PLIMCHECK
 70
     0
  9
$PEXTMIN
 10
0.0
 20
0.0
 30
0.0
  9
$PEXTMAX
 10
0.0
 20
0.0
 30
0.0
  9
$PLIMMIN
 10
0.0
 20
0.0
  9
$PLIMMAX
 10
12.0
 20
9.0
  9
$UNITMODE
 70
     0
  9
$VISRETAIN
 70
     1
  9
$PLINEGEN
 70
     0
  9
$PSLTSCALE
 70
     1
  9
$TREEDEPTH
 70
  3020
  9
$CMLSTYLE
  2
Standard
  9
$CMLJUST
 70
     0
  9
$CMLSCALE
 40
1.0
  9
$PROXYGRAPHICS
 70
     1
  9
$MEASUREMENT
 70
     0
  9
$CELWEIGHT
370
    -1
  9
$ENDCAPS
280
     0
  9
$JOINSTYLE
280
     0
  9
$LWDISPLAY
290
     0
  9
$INSUNITS
 70
     1
  9
$HYPERLINKBASE
  1

  9
$STYLESHEET
  1
monochrome.ctb
  9
$XEDIT
290
     1
  9
$CEPSNTYPE
380
     0
  9
$PSTYLEMODE
290
     1
  9
$FINGERPRINTGUID
  2
{358EB121-6EE0-9143-8A3E-6E8E8869FDA6}
  9
$VERSIONGUID
  2
{FFA40C9B-DD8F-0B4C-93A5-BFFB0AC0DFB8}
  9
$EXTNAMES
290
     1
  9
$PSVPSCALE
 40
0.0
  9
$OLESTARTUP
290
     0
  9
$SORTENTS
280
   127
  9
$INDEXCTL
280
     0
  9
$HIDETEXT
280
     1
  9
$XCLIPFRAME
280
     2
  9
$HALOGAP
280
     0
  9
$OBSCOLOR
 70
   257
  9
$OBSLTYPE
280
     0
  9
$INTERSECTIONDISPLAY
280
     0
  9
$INTERSECTIONCOLOR
 70
   257
  9
$DIMASSOC
280
     2
  9
$PROJECTNAME
  1

  9
$CAMERADISPLAY
290
     0
  9
$LENSLENGTH
 40
50.0
  9
$CAMERAHEIGHT
 40
0.0
  9
$STEPSPERSEC
 40
2.0
  9
$STEPSIZE
 40
6.0
  9
$3DDWFPREC
 40
2.0
  9
$PSOLWIDTH
 40
0.25
  9
$PSOLHEIGHT
 40
4.0
  9
$LOFTANG1
 40
1.570796326794896
  9
$LOFTANG2
 40
1.570796326794896
  9
$LOFTMAG1
 40
0.0
  9
$LOFTMAG2
 40
0.0
  9
$LOFTPARAM
 70
     7
  9
$LOFTNORMALS
280
     1
  9
$LATITUDE
 40
37.795
  9
$LONGITUDE
 40
-122.394
  9
$NORTHDIRECTION
 40
0.0
  9
$TIMEZONE
 70
 -8000
  9
$LIGHTGLYPHDISPLAY
280
     1
  9
$TILEMODELIGHTSYNCH
280
     1
  9
$CMATERIAL
347
96
  9
$SOLIDHIST
280
     0
  9
$SHOWHIST
280
     1
  9
$DWFFRAME
280
     2
  9
$DGNFRAME
280
     0
  9
$REALWORLDSCALE
290
     1
  9
$INTERFERECOLOR
 62
     1
  9
$INTERFEREOBJVS
345
A3
  9
$INTERFEREVPVS
346
A0
  9
$CSHADOW
280
     0
  9
$SHADOWPLANELOCATION
 40
0.0
  0
ENDSEC
  0
SECTION
  2
CLASSES
  0
CLASS
  1
ACDBDICTIONARYWDFLT
  2
AcDbDictionaryWithDefault
  3
ObjectDBX Classes
 90
        0
 91
        1
280
     0
281
     0
  0
CLASS
  1
DICTIONARYVAR
  2
AcDbDictionaryVar
  3
ObjectDBX Classes
 90
        0
 91
        9
280
     0
281
     0
  0
CLASS
  1
TABLESTYLE
  2
AcDbTableStyle
  3
ObjectDBX Classes
 90
     4095
 91
        1
280
     0
281
     0
  0
CLASS
  1
MATERIAL
  2
AcDbMaterial
  3
ObjectDBX Classes
 90
     1153
 91
        3
280
     0
281
     0
  0
CLASS
  1
VISUALSTYLE
  2
AcDbVisualStyle
  3
ObjectDBX Classes
 90
     4095
 91
       25
280
     0
281
     0
  0
CLASS
  1
SCALE
  2
AcDbScale
  3
ObjectDBX Classes
 90
     1153
 91
       35
280
     0
281
     0
  0
CLASS
  1
MLEADERSTYLE
  2
AcDbMLeaderStyle
  3
ACDB_MLEADERSTYLE_CLASS
 90
     4095
 91
        1
280
     0
281
     0
  0
CLASS
  1
CELLSTYLEMAP
  2
AcDbCellStyleMap
  3
ObjectDBX Classes
 90
     1152
 91
        1
280
     0
281
     0
  0
CLASS
  1
EXACXREFPANELOBJECT
  2
ExAcXREFPanelObject
  3
EXAC_ESW
 90
     1025
 91
        0
280
     0
281
     0
  0
CLASS
  1
NPOCOLLECTION
  2
AcDbImpNonPersistentObjectsCollection
  3
ObjectDBX Classes
 90
     1153
 91
        0
280
     0
281
     0
  0
CLASS
  1
LAYER_INDEX
  2
AcDbLayerIndex
  3
ObjectDBX Classes
 90
        0
 91
        0
280
     0
281
     0
  0
CLASS
  1
SPATIAL_INDEX
  2
AcDbSpatialIndex
  3
ObjectDBX Classes
 90
        0
 91
        0
280
     0
281
     0
  0
CLASS
  1
IDBUFFER
  2
AcDbIdBuffer
  3
ObjectDBX Classes
 90
        0
 91
        0
280
     0
281
     0
  0
CLASS
  1
ACDBSECTIONVIEWSTYLE
  2
AcDbSectionViewStyle
  3
ObjectDBX Classes
 90
     1025
 91
        2
280
     0
281
     0
  0
CLASS
  1
ACDBDETAILVIEWSTYLE
  2
AcDbDetailViewStyle
  3
ObjectDBX Classes
 90
     1025
 91
        2
280
     0
281
     0
  0
CLASS
  1
SORTENTSTABLE
  2
AcDbSortentsTable
  3
ObjectDBX Classes
 90
        0
 91
        1
280
     0
281
     0
  0
CLASS
  1
SPATIAL_FILTER
  2
AcDbSpatialFilter
  3
ObjectDBX Classes
 90
        0
 91
        0
280
     0
281
     0
  0
CLASS
  1
SOLID_BACKGROUND
  2
AcDbSolidBackground
  3
SCENEOE
 90
     4095
 91
        0
280
     0
281
     0
  0
ENDSEC
  0
SECTION
  2
TABLES
  0
TABLE
  2
VPORT
  5
8
330
0
100
AcDbSymbolTable
 70
     1
  0
VPORT
  5
94
330
8
100
AcDbSymbolTableRecord
100
AcDbViewportTableRecord
  2
*Active
 70
     0
 10
0.0
 20
0.0
 11
1.0
 21
1.0
 12
10322.60309077293
 22
29310.93180350026
 13
0.0
 23
0.0
 14
0.5
 24
0.5
 15
0.5
 25
0.5
 16
0.0
 26
0.0
 36
1.0
 17
0.0
 27
0.0
 37
0.0
 40
1.783818240424523
 41
2.066284779050736
 42
50.0
 43
0.0
 44
0.0
 50
0.0
 51
0.0
 71
     0
 72
  1000
 73
     1
 74
     3
 75
     0
 76
     0
 77
     0
 78
     0
281
     0
 65
     1
110
0.0
120
0.0
130
0.0
111
1.0
121
0.0
131
0.0
112
0.0
122
1.0
132
0.0
 79
     0
146
0.0
348
9F
 60
     3
 61
     5
292
     1
282
     1
141
0.0
142
0.0
 63
   250
421
  3355443
1001
ACAD_NAV_VCDISPLAY
1070
     3
  0
ENDTAB
  0
TABLE
  2
LTYPE
  5
5
330
0
100
AcDbSymbolTable
 70
     1
  0
LTYPE
  5
14
330
5
100
AcDbSymbolTableRecord
100
AcDbLinetypeTableRecord
  2
ByBlock
 70
     0
  3

 72
    65
 73
     0
 40
0.0
  0
LTYPE
  5
15
330
5
100
AcDbSymbolTableRecord
100
AcDbLinetypeTableRecord
  2
ByLayer
 70
     0
  3

 72
    65
 73
     0
 40
0.0
  0
LTYPE
  5
16
330
5
100
AcDbSymbolTableRecord
100
AcDbLinetypeTableRecord
  2
Continuous
 70
     0
  3
Solid line
 72
    65
 73
     0
 40
0.0
  0
ENDTAB
  0
TABLE
  2
LAYER
  5
2
102
{ACAD_XDICTIONARY
360
18E
102
}
330
0
100
AcDbSymbolTable
 70
     2
  0
LAYER
  5
10
102
{ACAD_XDICTIONARY
360
E6
102
}
330
2
100
AcDbSymbolTableRecord
100
AcDbLayerTableRecord
  2
0
 70
     0
 62
     7
  6
Continuous
370
    -3
390
F
347
98
348
0
  0
LAYER
  5
204
330
2
100
AcDbSymbolTableRecord
100
AcDbLayerTableRecord
  2
freecads.com
 70
     0
 62
     7
  6
Continuous
370
    -3
390
F
347
98
348
0
1001
AcAecLayerStandard
1000

1000

1001
AcCmTransparency
1071
        0
  0
ENDTAB
  0
TABLE
  2
STYLE
  5
3
330
0
100
AcDbSymbolTable
 70
     1
  0
STYLE
  5
11
330
3
100
AcDbSymbolTableRecord
100
AcDbTextStyleTableRecord
  2
Standard
 70
     0
 40
0.0
 41
1.0
 50
0.0
 71
     0
 42
0.2
  3
arial.ttf
  4

1001
ACAD
1000
Arial
1071
       34
  0
ENDTAB
  0
TABLE
  2
VIEW
  5
6
330
0
100
AcDbSymbolTable
 70
     0
  0
ENDTAB
  0
TABLE
  2
UCS
  5
7
330
0
100
AcDbSymbolTable
 70
     0
  0
ENDTAB
  0
TABLE
  2
APPID
  5
9
330
0
100
AcDbSymbolTable
 70
    23
  0
APPID
  5
12
330
9
100
AcDbSymbolTableRecord
100
AcDbRegAppTableRecord
  2
ACAD
 70
     0
  0
APPID
  5
DD
330
9
100
AcDbSymbolTableRecord
100
AcDbRegAppTableRecord
  2
AcadAnnoPO
 70
     0
  0
APPID
  5
DE
330
9
100
AcDbSymbolTableRecord
100
AcDbRegAppTableRecord
  2
AcadAnnotative
 70
     0
  0
APPID
  5
DF
330
9
100
AcDbSymbolTableRecord
100
AcDbRegAppTableRecord
  2
ACAD_DSTYLE_DIMJAG
 70
     0
  0
APPID
  5
E0
330
9
100
AcDbSymbolTableRecord
100
AcDbRegAppTableRecord
  2
ACAD_DSTYLE_DIMTALN
 70
     0
  0
APPID
  5
107
330
9
100
AcDbSymbolTableRecord
100
AcDbRegAppTableRecord
  2
ACAD_MLEADERVER
 70
     0
  0
APPID
  5
1A6
330
9
100
AcDbSymbolTableRecord
100
AcDbRegAppTableRecord
  2
ACAD_NAV_VCDISPLAY
 70
     0
  0
APPID
  5
205
330
9
100
AcDbSymbolTableRecord
100
AcDbRegAppTableRecord
  2
AcAecLayerStandard
 70
     0
  0
APPID
  5
206
330
9
100
AcDbSymbolTableRecord
100
AcDbRegAppTableRecord
  2
AcCmTransparency
 70
     0
  0
APPID
  5
222
330
9
100
AcDbSymbolTableRecord
100
AcDbRegAppTableRecord
  2
ACAD_PSEXT
 70
     0
  0
APPID
  5
2DA
330
9
100
AcDbSymbolTableRecord
100
AcDbRegAppTableRecord
  2
GradientColor1ACI
 70
     0
  0
APPID
  5
2DB
330
9
100
AcDbSymbolTableRecord
100
AcDbRegAppTableRecord
  2
GradientColor2ACI
 70
     0
  0
APPID
  5
2F3
330
9
100
AcDbSymbolTableRecord
100
AcDbRegAppTableRecord
  2
ACAD_EXEMPT_FROM_CAD_STANDARDS
 70
     0
  0
APPID
  5
A1A
330
9
100
AcDbSymbolTableRecord
100
AcDbRegAppTableRecord
  2
AcDbBlockRepETag
 70
     0
  0
APPID
  5
228C
330
9
100
AcDbSymbolTableRecord
100
AcDbRegAppTableRecord
  2
RAK
 70
     0
  0
APPID
  5
2683
330
9
100
AcDbSymbolTableRecord
100
AcDbRegAppTableRecord
  2
ACAD_DSTYLE_DIMJOGGED_JOGANGLE_SYMBOL
 70
     0
  0
APPID
  5
47CF
330
9
100
AcDbSymbolTableRecord
100
AcDbRegAppTableRecord
  2
ACAD_DSTYLE_DIMBREAK
 70
     0
  0
APPID
  5
47D0
330
9
100
AcDbSymbolTableRecord
100
AcDbRegAppTableRecord
  2
AcDbDynamicBlockGUID
 70
     0
  0
APPID
  5
8BD5
330
9
100
AcDbSymbolTableRecord
100
AcDbRegAppTableRecord
  2
AcLayerTools
 70
     0
  0
APPID
  5
92D9
330
9
100
AcDbSymbolTableRecord
100
AcDbRegAppTableRecord
  2
AutoGrph01
 70
     0
  0
APPID
  5
92DA
330
9
100
AcDbSymbolTableRecord
100
AcDbRegAppTableRecord
  2
AutoGrphVars
 70
     0
  0
APPID
  5
92DB
330
9
100
AcDbSymbolTableRecord
100
AcDbRegAppTableRecord
  2
AutoGrphZ
 70
     0
  0
APPID
  5
92DC
330
9
100
AcDbSymbolTableRecord
100
AcDbRegAppTableRecord
  2
AutoGrph05
 70
     0
  0
ENDTAB
  0
TABLE
  2
DIMSTYLE
  5
A
330
0
100
AcDbSymbolTable
 70
     1
100
AcDbDimStyleTable
 71
     1
340
27
  0
DIMSTYLE
105
27
330
A
100
AcDbSymbolTableRecord
100
AcDbDimStyleTableRecord
  2
Standard
 70
     0
340
11
  0
ENDTAB
  0
TABLE
  2
BLOCK_RECORD
  5
1
330
0
100
AcDbSymbolTable
 70
     1
  0
BLOCK_RECORD
  5
1F
102
{ACAD_XDICTIONARY
360
15D
102
}
330
1
100
AcDbSymbolTableRecord
100
AcDbBlockTableRecord
  2
*Model_Space
340
22
 70
     0
280
     1
281
     0
  0
BLOCK_RECORD
  5
58
330
1
100
AcDbSymbolTableRecord
100
AcDbBlockTableRecord
  2
*Paper_Space
340
59
 70
     0
280
     1
281
     0
  0
BLOCK_RECORD
  5
5D
330
1
100
AcDbSymbolTableRecord
100
AcDbBlockTableRecord
  2
*Paper_Space0
340
5E
 70
     0
280
     1
281
     0
  0
ENDTAB
  0
ENDSEC
  0
SECTION
  2
BLOCKS
  0
BLOCK
  5
20
330
1F
100
AcDbEntity
  8
0
100
AcDbBlockBegin
  2
*Model_Space
 70
     0
 10
0.0
 20
0.0
 30
0.0
  3
*Model_Space
  1

  0
ENDBLK
  5
21
330
1F
100
AcDbEntity
  8
0
100
AcDbBlockEnd
  0
BLOCK
  5
5A
330
58
100
AcDbEntity
 67
     1
  8
0
100
AcDbBlockBegin
  2
*Paper_Space
 70
     0
 10
0.0
 20
0.0
 30
0.0
  3
*Paper_Space
  1

  0
ENDBLK
  5
5B
330
58
100
AcDbEntity
 67
     1
  8
0
100
AcDbBlockEnd
  0
BLOCK
  5
5F
330
5D
100
AcDbEntity
 67
     1
  8
0
100
AcDbBlockBegin
  2
*Paper_Space0
 70
     0
 10
0.0
 20
0.0
 30
0.0
  3
*Paper_Space0
  1

  0
ENDBLK
  5
60
330
5D
100
AcDbEntity
 67
     1
  8
0
100
AcDbBlockEnd
  0
ENDSEC
  0
SECTION
  2
ENTITIES
  0
LINE
  5
B1D2
330
1F
100
AcDbEntity
  8
0
 48
5.0
100
AcDbLine
 10
10322.67724100787
 20
29310.16123231903
 30
0.0
 11
10322.72870065133
 21
29310.13469626821
 31
0.0
  0
LINE
  5
B1D3
330
1F
100
AcDbEntity
  8
0
 48
5.0
100
AcDbLine
 10
10322.72870065133
 20
29310.13469626821
 30
0.0
 11
10322.7679405608
 21
29310.11367077153
 31
0.0
  0
LINE
  5
B1D4
330
1F
100
AcDbEntity
  8
0
 48
5.0
100
AcDbLine
 10
10322.7679405608
 20
29310.11367077153
 30
0.0
 11
10322.78329530623
 21
29310.15458525072
 31
0.0
  0
LINE
  5
B1D5
330
1F
100
AcDbEntity
  8
0
 48
5.0
100
AcDbLine
 10
10322.78329530623
 20
29310.15458525072
 30
0.0
 11
10322.80319960961
 21
29310.18242982856
 31
0.0
  0
LINE
  5
B1D6
330
1F
100
AcDbEntity
  8
0
 48
5.0
100
AcDbLine
 10
10322.80986157992
 20
29310.13307556484
 30
0.0
 11
10322.8111613242
 21
29310.14662965927
 31
0.0
  0
LINE
  5
B1D7
330
1F
100
AcDbEntity
  8
0
 48
5.0
100
AcDbLine
 10
10322.8111613242
 20
29310.14662965927
 30
0.0
 11
10322.806611773
 21
29310.16708689887
 31
0.0
  0
LINE
  5
B1D8
330
1F
100
AcDbEntity
  8
0
 48
5.0
100
AcDbLine
 10
10322.806611773
 20
29310.16708689887
 30
0.0
 11
10322.80319960961
 21
29310.18242982856
 31
0.0
  0
LINE
  5
B1D9
330
1F
100
AcDbEntity
  8
0
 48
5.0
100
AcDbLine
 10
10322.80319960961
 20
29310.18242982856
 30
0.0
 11
10322.79464765162
 21
29310.22143410178
 31
0.0
  0
LINE
  5
B1DA
330
1F
100
AcDbEntity
  8
0
 48
5.0
100
AcDbLine
 10
10322.86912669985
 20
29310.25737146769
 30
0.0
 11
10322.88143621497
 21
29310.24957158678
 31
0.0
  0
LINE
  5
B1DB
330
1F
100
AcDbEntity
  8
0
 48
5.0
100
AcDbLine
 10
10322.88143621497
 20
29310.24957158678
 30
0.0
 11
10322.89456332666
 21
29310.24287353936
 31
0.0
  0
LINE
  5
B1DC
330
1F
100
AcDbEntity
  8
0
 48
5.0
100
AcDbLine
 10
10322.89456332666
 20
29310.24287353936
 30
0.0
 11
10322.90573973345
 21
29310.23735465397
 31
0.0
  0
LINE
  5
B1DD
330
1F
100
AcDbEntity
  8
0
 48
5.0
100
AcDbLine
 10
10322.86912669985
 20
29310.25737146769
 30
0.0
 11
10322.85935772062
 21
29310.24305466199
 31
0.0
  0
LINE
  5
B1DE
330
1F
100
AcDbEntity
  8
0
 48
5.0
100
AcDbLine
 10
10322.85935772062
 20
29310.24305466199
 30
0.0
 11
10322.85610139646
 21
29310.2261348
 31
0.0
  0
LINE
  5
B1DF
330
1F
100
AcDbEntity
  8
0
 48
5.0
100
AcDbLine
 10
10322.85610139646
 20
29310.2261348
 30
0.0
 11
10322.85545013163
 21
29310.2040088293
 31
0.0
  0
LINE
  5
B1E0
330
1F
100
AcDbEntity
  8
0
 48
5.0
100
AcDbLine
 10
10322.85545013163
 20
29310.2040088293
 30
0.0
 11
10322.84112229858
 21
29310.19489813617
 31
0.0
  0
LINE
  5
B1E1
330
1F
100
AcDbEntity
  8
0
 48
5.0
100
AcDbLine
 10
10322.84112229858
 20
29310.19489813617
 30
0.0
 11
10322.82093308205
 21
29310.16626452476
 31
0.0
  0
LINE
  5
B1E2
330
1F
100
AcDbEntity
  8
0
 48
5.0
100
AcDbLine
 10
10322.82093308205
 20
29310.16626452476
 30
0.0
 11
10322.81897928756
 21
29310.1311232765
 31
0.0
  0
LINE
  5
B1E3
330
1F
100
AcDbEntity
  8
0
 48
5.0
100
AcDbLine
 10
10322.81897928756
 20
29310.1311232765
 30
0.0
 11
10322.8157229634
 21
29310.12591716393
 31
0.0
  0
LINE
  5
B1E4
330
1F
100
AcDbEntity
  8
0
 48
5.0
100
AcDbLine
 10
10322.8157229634
 20
29310.12591716393
 30
0.0
 11
10322.80986157992
 21
29310.13307556484
 31
0.0
  0
LINE
  5
B1E5
330
1F
100
AcDbEntity
  8
0
 48
5.0
100
AcDbLine
 10
10322.80986157992
 20
29310.13307556484
 30
0.0
 11
10322.80759787147
 21
29310.12440290781
 31
0.0
  0
LINE
  5
B1E6
330
1F
100
AcDbEntity
  8
0
 48
5.0
100
AcDbLine
 10
10322.80759787147
 20
29310.12440290781
 30
0.0
 11
10322.80679247783
 21
29310.09945488989
 31
0.0
  0
LINE
  5
B1E7
330
1F
100
AcDbEntity
  8
0
 48
5.0
100
AcDbLine
 10
10322.80679247783
 20
29310.09945488989
 30
0.0
 11
10322.78665760999
 21
29310.06484956909
 31
0.0
  0
LINE
  5
B1E8
330
1F
100
AcDbEntity
  8
0
 48
5.0
100
AcDbLine
 10
10322.78665760999
 20
29310.06484956909
 30
0.0
 11
10322.78182524144
 21
29310.04875407203
 31
0.0
  0
LINE
  5
B1E9
330
1F
100
AcDbEntity
  8
0
 48
5.0
100
AcDbLine
 10
10322.78182524144
 20
29310.04875407203
 30
0.0
 11
10322.7842414291
 21
29310.03668245021
 31
0.0
  0
LINE
  5
B1EA
330
1F
100
AcDbEntity
  8
0
 48
5.0
100
AcDbLine
 10
10322.7842414291
 20
29310.03668245021
 30
0.0
 11
10322.78987919128
 21
29310.02622037693
 31
0.0
  0
LINE
  5
B1EB
330
1F
100
AcDbEntity
  8
0
 48
5.0
100
AcDbLine
 10
10322.78987919128
 20
29310.02622037693
 30
0.0
 11
10322.81162484639
 21
29310.05277794726
 31
0.0
  0
LINE
  5
B1EC
330
1F
100
AcDbEntity
  8
0
 48
5.0
100
AcDbLine
 10
10322.81162484639
 20
29310.05277794726
 30
0.0
 11
10322.82692734568
 21
29310.08496894138
 31
0.0
  0
LINE
  5
B1ED
330
1F
100
AcDbEntity
  8
0
 48
5.0
100
AcDbLine
 10
10322.82692734568
 20
29310.08496894138
 30
0.0
 11
10322.83981365731
 21
29310.11233128599
 31
0.0
  0
LINE
  5
B1EE
330
1F
100
AcDbEntity
  8
0
 48
5.0
100
AcDbLine
 10
10322.83981365731
 20
29310.11233128599
 30
0.0
 11
10322.84222984497
 21
29310.13808408205
 31
0.0
  0
LINE
  5
B1EF
330
1F
100
AcDbEntity
  8
0
 48
5.0
100
AcDbLine
 10
10322.84222984497
 20
29310.13808408205
 30
0.0
 11
10322.8454514195
 21
29310.16705597908
 31
0.0
  0
LINE
  5
B1F0
330
1F
100
AcDbEntity
  8
0
 48
5.0
100
AcDbLine
 10
10322.8454514195
 20
29310.16705597908
 30
0.0
 11
10322.8551161566
 21
29310.17832282663
 31
0.0
  0
LINE
  5
B1F1
330
1F
100
AcDbEntity
  8
0
 48
5.0
100
AcDbLine
 10
10322.8551161566
 20
29310.17832282663
 30
0.0
 11
10322.87444563081
 21
29310.192003997
 31
0.0
  0
LINE
  5
B1F2
330
1F
100
AcDbEntity
  8
0
 48
5.0
100
AcDbLine
 10
10322.87444563081
 20
29310.192003997
 30
0.0
 11
10322.89135891736
 21
29310.20488039697
 31
0.0
  0
LINE
  5
B1F3
330
1F
100
AcDbEntity
  8
0
 48
5.0
100
AcDbLine
 10
10322.89135891736
 20
29310.20488039697
 30
0.0
 11
10322.89538588552
 21
29310.21775679307
 31
0.0
  0
LINE
  5
B1F4
330
1F
100
AcDbEntity
  8
0
 48
5.0
100
AcDbLine
 10
10322.89538588552
 20
29310.21775679307
 30
0.0
 11
10322.89538588552
 21
29310.23385229013
 31
0.0
  0
LINE
  5
B1F5
330
1F
100
AcDbEntity
  8
0
 48
5.0
100
AcDbLine
 10
10322.89538588552
 20
29310.23385229013
 30
0.0
 11
10322.89953499795
 21
29310.23735465397
 31
0.0
  0
LINE
  5
B1F6
330
1F
100
AcDbEntity
  8
0
 48
5.0
100
AcDbLine
 10
10322.89953499795
 20
29310.23735465397
 30
0.0
 11
10322.90573973345
 21
29310.23735465397
 31
0.0
  0
LINE
  5
B1F7
330
1F
100
AcDbEntity
  8
0
 48
5.0
100
AcDbLine
 10
10322.90573973345
 20
29310.23735465397
 30
0.0
 11
10322.92604614547
 21
29310.2334092266
 31
0.0
  0
LINE
  5
B1F8
330
1F
100
AcDbEntity
  8
0
 48
5.0
100
AcDbLine
 10
10322.92604614547
 20
29310.2334092266
 30
0.0
 11
10322.94071188824
 21
29310.21819113414
 31
0.0
  0
LINE
  5
B1F9
330
1F
100
AcDbEntity
  8
0
 48
5.0
100
AcDbLine
 10
10322.94071188824
 20
29310.21819113414
 30
0.0
 11
10322.94691662374
 21
29310.20410031437
 31
0.0
  0
LINE
  5
B1FA
330
1F
100
AcDbEntity
  8
0
 48
5.0
100
AcDbLine
 10
10322.94691662374
 20
29310.20410031437
 30
0.0
 11
10322.9463525575
 21
29310.19451855446
 31
0.0
  0
LINE
  5
B1FB
330
1F
100
AcDbEntity
  8
0
 48
5.0
100
AcDbLine
 10
10322.9463525575
 20
29310.19451855446
 30
0.0
 11
10322.93901968273
 21
29310.17817319703
 31
0.0
  0
LINE
  5
B1FC
330
1F
100
AcDbEntity
  8
0
 48
5.0
100
AcDbLine
 10
10322.93901968273
 20
29310.17817319703
 30
0.0
 11
10322.91871327071
 21
29310.14717338736
 31
0.0
  0
LINE
  5
B1FD
330
1F
100
AcDbEntity
  8
0
 48
5.0
100
AcDbLine
 10
10322.91871327071
 20
29310.14717338736
 30
0.0
 11
10322.9023553292
 21
29310.12688259869
 31
0.0
  0
LINE
  5
B1FE
330
1F
100
AcDbEntity
  8
0
 48
5.0
100
AcDbLine
 10
10322.9023553292
 20
29310.12688259869
 30
0.0
 11
10322.90175508007
 21
29310.10843607471
 31
0.0
  0
LINE
  5
B1FF
330
1F
100
AcDbEntity
  8
0
 48
5.0
100
AcDbLine
 10
10322.90175508007
 20
29310.10843607471
 30
0.0
 11
10322.90104696511
 21
29310.09640742608
 31
0.0
  0
LINE
  5
B200
330
1F
100
AcDbEntity
  8
0
 48
5.0
100
AcDbLine
 10
10322.90104696511
 20
29310.09640742608
 30
0.0
 11
10322.87909547592
 21
29310.06810471796
 31
0.0
  0
LINE
  5
B201
330
1F
100
AcDbEntity
  8
0
 48
5.0
100
AcDbLine
 10
10322.87909547592
 20
29310.06810471796
 30
0.0
 11
10322.85147908739
 21
29310.03414147363
 31
0.0
  0
LINE
  5
B202
330
1F
100
AcDbEntity
  8
0
 48
5.0
100
AcDbLine
 10
10322.85147908739
 20
29310.03414147363
 30
0.0
 11
10322.8224464757
 21
29310.01362201102
 31
0.0
  0
LINE
  5
B203
330
1F
100
AcDbEntity
  8
0
 48
5.0
100
AcDbLine
 10
10322.8224464757
 20
29310.01362201102
 30
0.0
 11
10322.8097004471
 21
29310.01220687793
 31
0.0
  0
LINE
  5
B204
330
1F
100
AcDbEntity
  8
0
 48
5.0
100
AcDbLine
 10
10322.8097004471
 20
29310.01220687793
 30
0.0
 11
10322.79663017202
 21
29310.01584418806
 31
0.0
  0
LINE
  5
B205
330
1F
100
AcDbEntity
  8
0
 48
5.0
100
AcDbLine
 10
10322.79663017202
 20
29310.01584418806
 30
0.0
 11
10322.78987919128
 21
29310.02622037693
 31
0.0
  0
LINE
  5
B206
330
1F
100
AcDbEntity
  8
0
 48
5.0
100
AcDbLine
 10
10322.50226090885
 20
29310.09659749581
 30
0.0
 11
10322.49513016334
 21
29310.10524494602
 31
0.0
  0
LINE
  5
B207
330
1F
100
AcDbEntity
  8
0
 48
5.0
100
AcDbLine
 10
10322.49513016334
 20
29310.10524494602
 30
0.0
 11
10322.49477708341
 21
29310.11337203413
 31
0.0
  0
LINE
  5
B208
330
1F
100
AcDbEntity
  8
0
 48
5.0
100
AcDbLine
 10
10322.38607058101
 20
29310.10747709521
 30
0.0
 11
10322.39444456769
 21
29310.11406979672
 31
0.0
  0
LINE
  5
B209
330
1F
100
AcDbEntity
  8
0
 48
5.0
100
AcDbLine
 10
10322.39444456769
 20
29310.11406979672
 30
0.0
 11
10322.4010094023
 21
29310.12458162082
 31
0.0
  0
LINE
  5
B20A
330
1F
100
AcDbEntity
  8
0
 48
5.0
100
AcDbLine
 10
10322.25961443983
 20
29310.05692226364
 30
0.0
 11
10322.25926492211
 21
29310.04305861502
 31
0.0
  0
LINE
  5
B20B
330
1F
100
AcDbEntity
  8
0
 48
5.0
100
AcDbLine
 10
10322.25926492211
 20
29310.04305861502
 30
0.0
 11
10322.27471402562
 21
29310.03070884295
 31
0.0
  0
LINE
  5
B20C
330
1F
100
AcDbEntity
  8
0
 48
5.0
100
AcDbLine
 10
10322.27471402562
 20
29310.03070884295
 30
0.0
 11
10322.29093558498
 21
29310.01913093065
 31
0.0
  0
LINE
  5
B20D
330
1F
100
AcDbEntity
  8
0
 48
5.0
100
AcDbLine
 10
10322.29093558498
 20
29310.01913093065
 30
0.0
 11
10322.34269007972
 21
29310.01527162785
 31
0.0
  0
LINE
  5
B20E
330
1F
100
AcDbEntity
  8
0
 48
5.0
100
AcDbLine
 10
10322.34269007972
 20
29310.01527162785
 30
0.0
 11
10322.39289966275
 21
29310.01295604462
 31
0.0
  0
LINE
  5
B20F
330
1F
100
AcDbEntity
  8
0
 48
5.0
100
AcDbLine
 10
10322.39289966275
 20
29310.01295604462
 30
0.0
 11
10322.46164816593
 21
29310.01295604462
 31
0.0
  0
LINE
  5
B210
330
1F
100
AcDbEntity
  8
0
 48
5.0
100
AcDbLine
 10
10322.46164816593
 20
29310.01295604462
 30
0.0
 11
10322.50104338056
 21
29310.0168153513
 31
0.0
  0
LINE
  5
B211
330
1F
100
AcDbEntity
  8
0
 48
5.0
100
AcDbLine
 10
10322.50104338056
 20
29310.0168153513
 30
0.0
 11
10322.51108529311
 21
29310.0253058167
 31
0.0
  0
LINE
  5
B212
330
1F
100
AcDbEntity
  8
0
 48
5.0
100
AcDbLine
 10
10322.51108529311
 20
29310.0253058167
 30
0.0
 11
10322.50887853619
 21
29310.05361599623
 31
0.0
  0
LINE
  5
B213
330
1F
100
AcDbEntity
  8
0
 48
5.0
100
AcDbLine
 10
10322.39306999677
 20
29310.09659749581
 30
0.0
 11
10322.38314354899
 21
29310.11202675147
 31
0.0
  0
LINE
  5
B214
330
1F
100
AcDbEntity
  8
0
 48
5.0
100
AcDbLine
 10
10322.38314354899
 20
29310.11202675147
 30
0.0
 11
10322.37983473532
 21
29310.11863929017
 31
0.0
  0
LINE
  5
B215
330
1F
100
AcDbEntity
  8
0
 48
5.0
100
AcDbLine
 10
10322.37983473532
 20
29310.11863929017
 30
0.0
 11
10322.36329065343
 21
29310.10100585623
 31
0.0
  0
LINE
  5
B216
330
1F
100
AcDbEntity
  8
0
 48
5.0
100
AcDbLine
 10
10322.36329065343
 20
29310.10100585623
 30
0.0
 11
10322.34343776463
 21
29310.08778077884
 31
0.0
  0
LINE
  5
B217
330
1F
100
AcDbEntity
  8
0
 48
5.0
100
AcDbLine
 10
10322.34343776463
 20
29310.08778077884
 30
0.0
 11
10322.32137899103
 21
29310.07896406187
 31
0.0
  0
LINE
  5
B218
330
1F
100
AcDbEntity
  8
0
 48
5.0
100
AcDbLine
 10
10322.32137899103
 20
29310.07896406187
 30
0.0
 11
10322.2838790847
 21
29310.07675987972
 31
0.0
  0
LINE
  5
B219
330
1F
100
AcDbEntity
  8
0
 48
5.0
100
AcDbLine
 10
10322.2838790847
 20
29310.07675987972
 30
0.0
 11
10322.26182031786
 21
29310.07345361231
 31
0.0
  0
LINE
  5
B21A
330
1F
100
AcDbEntity
  8
0
 48
5.0
100
AcDbLine
 10
10322.26182031786
 20
29310.07345361231
 30
0.0
 11
10322.25961443983
 21
29310.05692226364
 31
0.0
  0
LINE
  5
B21B
330
1F
100
AcDbEntity
  8
0
 48
5.0
100
AcDbLine
 10
10322.25961443983
 20
29310.05692226364
 30
0.0
 11
10322.27505557931
 21
29310.04259509712
 31
0.0
  0
LINE
  5
B21C
330
1F
100
AcDbEntity
  8
0
 48
5.0
100
AcDbLine
 10
10322.27505557931
 20
29310.04259509712
 30
0.0
 11
10322.32248193343
 21
29310.03047211273
 31
0.0
  0
LINE
  5
B21D
330
1F
100
AcDbEntity
  8
0
 48
5.0
100
AcDbLine
 10
10322.32248193343
 20
29310.03047211273
 30
0.0
 11
10322.36218771779
 21
29310.03157420187
 31
0.0
  0
LINE
  5
B21E
330
1F
100
AcDbEntity
  8
0
 48
5.0
100
AcDbLine
 10
10322.36218771779
 20
29310.03157420187
 30
0.0
 11
10322.39858468848
 21
29310.0459013684
 31
0.0
  0
LINE
  5
B21F
330
1F
100
AcDbEntity
  8
0
 48
5.0
100
AcDbLine
 10
10322.39858468848
 20
29310.0459013684
 30
0.0
 11
10322.42395227575
 21
29310.05030972495
 31
0.0
  0
LINE
  5
B220
330
1F
100
AcDbEntity
  8
0
 48
5.0
100
AcDbLine
 10
10322.42395227575
 20
29310.05030972495
 30
0.0
 11
10322.44270222892
 21
29310.04700345754
 31
0.0
  0
LINE
  5
B221
330
1F
100
AcDbEntity
  8
0
 48
5.0
100
AcDbLine
 10
10322.44270222892
 20
29310.04700345754
 30
0.0
 11
10322.46145218208
 21
29310.03928882971
 31
0.0
  0
LINE
  5
B222
330
1F
100
AcDbEntity
  8
0
 48
5.0
100
AcDbLine
 10
10322.46145218208
 20
29310.03928882971
 30
0.0
 11
10322.49123152543
 21
29310.04149300798
 31
0.0
  0
LINE
  5
B223
330
1F
100
AcDbEntity
  8
0
 48
5.0
100
AcDbLine
 10
10322.49123152543
 20
29310.04149300798
 30
0.0
 11
10322.50887853619
 21
29310.05361599623
 31
0.0
  0
LINE
  5
B224
330
1F
100
AcDbEntity
  8
0
 48
5.0
100
AcDbLine
 10
10322.50887853619
 20
29310.05361599623
 30
0.0
 11
10322.50887853619
 21
29310.07455570145
 31
0.0
  0
LINE
  5
B225
330
1F
100
AcDbEntity
  8
0
 48
5.0
100
AcDbLine
 10
10322.50887853619
 20
29310.07455570145
 30
0.0
 11
10322.50226090885
 21
29310.09659749581
 31
0.0
  0
LINE
  5
B226
330
1F
100
AcDbEntity
  8
0
 48
5.0
100
AcDbLine
 10
10322.50226090885
 20
29310.09659749581
 30
0.0
 11
10322.48020213525
 21
29310.08447450756
 31
0.0
  0
LINE
  5
B227
330
1F
100
AcDbEntity
  8
0
 48
5.0
100
AcDbLine
 10
10322.48020213525
 20
29310.08447450756
 30
0.0
 11
10322.4526286767
 21
29310.07124943017
 31
0.0
  0
LINE
  5
B228
330
1F
100
AcDbEntity
  8
0
 48
5.0
100
AcDbLine
 10
10322.4526286767
 20
29310.07124943017
 30
0.0
 11
10322.43829047285
 21
29310.07235152318
 31
0.0
  0
LINE
  5
B229
330
1F
100
AcDbEntity
  8
0
 48
5.0
100
AcDbLine
 10
10322.43829047285
 20
29310.07235152318
 30
0.0
 11
10322.41733464165
 21
29310.07896406187
 31
0.0
  0
LINE
  5
B22A
330
1F
100
AcDbEntity
  8
0
 48
5.0
100
AcDbLine
 10
10322.41733464165
 20
29310.07896406187
 30
0.0
 11
10322.39196706113
 21
29310.07896406187
 31
0.0
  0
LINE
  5
B22B
330
1F
100
AcDbEntity
  8
0
 48
5.0
100
AcDbLine
 10
10322.39196706113
 20
29310.07896406187
 30
0.0
 11
10322.37321710121
 21
29310.07014734103
 31
0.0
  0
LINE
  5
B22C
330
1F
100
AcDbEntity
  8
0
 48
5.0
100
AcDbLine
 10
10322.37321710121
 20
29310.07014734103
 30
0.0
 11
10322.36439359583
 21
29310.06684107362
 31
0.0
  0
LINE
  5
B22D
330
1F
100
AcDbEntity
  8
0
 48
5.0
100
AcDbLine
 10
10322.36439359583
 20
29310.06684107362
 30
0.0
 11
10322.36663618407
 21
29310.07393304135
 31
0.0
  0
LINE
  5
B22E
330
1F
100
AcDbEntity
  8
0
 48
5.0
100
AcDbLine
 10
10322.36663618407
 20
29310.07393304135
 30
0.0
 11
10322.37590564753
 21
29310.08010792739
 31
0.0
  0
LINE
  5
B22F
330
1F
100
AcDbEntity
  8
0
 48
5.0
100
AcDbLine
 10
10322.37590564753
 20
29310.08010792739
 30
0.0
 11
10322.38594756684
 21
29310.08859839278
 31
0.0
  0
LINE
  5
B230
330
1F
100
AcDbEntity
  8
0
 48
5.0
100
AcDbLine
 10
10322.38594756684
 20
29310.08859839278
 30
0.0
 11
10322.39306999677
 21
29310.09659749581
 31
0.0
  0
LINE
  5
B231
330
1F
100
AcDbEntity
  8
0
 48
5.0
100
AcDbLine
 10
10322.55056542799
 20
29310.59808113801
 30
0.0
 11
10322.63089628666
 21
29310.41593215928
 31
0.0
  0
LINE
  5
B232
330
1F
100
AcDbEntity
  8
0
 48
5.0
100
AcDbLine
 10
10322.63089628666
 20
29310.41593215928
 30
0.0
 11
10322.67106171261
 21
29310.30170314286
 31
0.0
  0
LINE
  5
B233
330
1F
100
AcDbEntity
  8
0
 48
5.0
100
AcDbLine
 10
10322.67106171261
 20
29310.30170314286
 30
0.0
 11
10322.79464765162
 21
29310.22143410178
 31
0.0
  0
LINE
  5
B234
330
1F
100
AcDbEntity
  8
0
 48
5.0
100
AcDbLine
 10
10322.6803306555
 20
29310.63821565855
 30
0.0
 11
10322.74212362838
 21
29310.45915395242
 31
0.0
  0
LINE
  5
B235
330
1F
100
AcDbEntity
  8
0
 48
5.0
100
AcDbLine
 10
10322.74212362838
 20
29310.45915395242
 30
0.0
 11
10322.81009588977
 21
29310.35418674604
 31
0.0
  0
LINE
  5
B236
330
1F
100
AcDbEntity
  8
0
 48
5.0
100
AcDbLine
 10
10322.49495175713
 20
29310.1133796228
 30
0.0
 11
10322.47950351222
 21
29310.20599774653
 31
0.0
  0
LINE
  5
B237
330
1F
100
AcDbEntity
  8
0
 48
5.0
100
AcDbLine
 10
10322.47950351222
 20
29310.20599774653
 30
0.0
 11
10322.40535194881
 21
29310.44371759717
 31
0.0
  0
LINE
  5
B238
330
1F
100
AcDbEntity
  8
0
 48
5.0
100
AcDbLine
 10
10322.40535194881
 20
29310.44371759717
 30
0.0
 11
10322.35282792558
 21
29310.57647024145
 31
0.0
  0
LINE
  5
B239
330
1F
100
AcDbEntity
  8
0
 48
5.0
100
AcDbLine
 10
10322.33726235042
 20
29310.84874110552
 30
0.0
 11
10322.34973827795
 21
29310.7400955962
 31
0.0
  0
LINE
  5
B23A
330
1F
100
AcDbEntity
  8
0
 48
5.0
100
AcDbLine
 10
10322.34973827795
 20
29310.7400955962
 30
0.0
 11
10322.39299335829
 21
29310.62895384463
 31
0.0
  0
LINE
  5
B23B
330
1F
100
AcDbEntity
  8
0
 48
5.0
100
AcDbLine
 10
10322.39299335829
 20
29310.62895384463
 30
0.0
 11
10322.47332421696
 21
29310.50855028688
 31
0.0
  0
LINE
  5
B23C
330
1F
100
AcDbEntity
  8
0
 48
5.0
100
AcDbLine
 10
10322.47332421696
 20
29310.50855028688
 30
0.0
 11
10322.55983437088
 21
29310.36036128737
 31
0.0
  0
LINE
  5
B23D
330
1F
100
AcDbEntity
  8
0
 48
5.0
100
AcDbLine
 10
10322.55983437088
 20
29310.36036128737
 30
0.0
 11
10322.62780663903
 21
29310.17821230864
 31
0.0
  0
LINE
  5
B23E
330
1F
100
AcDbEntity
  8
0
 48
5.0
100
AcDbLine
 10
10322.62780663903
 20
29310.17821230864
 30
0.0
 11
10322.64167628363
 21
29310.14698157362
 31
0.0
  0
LINE
  5
B23F
330
1F
100
AcDbEntity
  8
0
 48
5.0
100
AcDbLine
 10
10322.3837883684
 20
29311.2432948487
 30
0.0
 11
10322.35282792558
 21
29311.15378988425
 31
0.0
  0
LINE
  5
B240
330
1F
100
AcDbEntity
  8
0
 48
5.0
100
AcDbLine
 10
10322.35282792558
 20
29311.15378988425
 30
0.0
 11
10322.34973827795
 21
29311.07660811189
 31
0.0
  0
LINE
  5
B241
330
1F
100
AcDbEntity
  8
0
 48
5.0
100
AcDbLine
 10
10322.34973827795
 20
29311.07660811189
 30
0.0
 11
10322.34973827795
 21
29310.95003000895
 31
0.0
  0
LINE
  5
B242
330
1F
100
AcDbEntity
  8
0
 48
5.0
100
AcDbLine
 10
10322.34973827795
 20
29310.95003000895
 30
0.0
 11
10322.32502109015
 21
29310.74935740625
 31
0.0
  0
LINE
  5
B243
330
1F
100
AcDbEntity
  8
0
 48
5.0
100
AcDbLine
 10
10322.32502109015
 20
29310.74935740625
 30
0.0
 11
10322.34046933506
 21
29310.47150303507
 31
0.0
  0
LINE
  5
B244
330
1F
100
AcDbEntity
  8
0
 48
5.0
100
AcDbLine
 10
10322.34046933506
 20
29310.47150303507
 30
0.0
 11
10322.36209687523
 21
29310.23687045315
 31
0.0
  0
LINE
  5
B245
330
1F
100
AcDbEntity
  8
0
 48
5.0
100
AcDbLine
 10
10322.36209687523
 20
29310.23687045315
 30
0.0
 11
10322.37445546575
 21
29310.1411650607
 31
0.0
  0
LINE
  5
B246
330
1F
100
AcDbEntity
  8
0
 48
5.0
100
AcDbLine
 10
10322.37445546575
 20
29310.1411650607
 30
0.0
 11
10322.42388984135
 21
29310.1102923502
 31
0.0
  0
LINE
  5
B247
330
1F
100
AcDbEntity
  8
0
 48
5.0
100
AcDbLine
 10
10322.42388984135
 20
29310.1102923502
 30
0.0
 11
10322.49495175713
 21
29310.1133796228
 31
0.0
  0
LINE
  5
B248
330
1F
100
AcDbEntity
  8
0
 48
5.0
100
AcDbLine
 10
10322.49495175713
 20
29310.1133796228
 30
0.0
 11
10322.56601366614
 21
29310.1133796228
 31
0.0
  0
LINE
  5
B249
330
1F
100
AcDbEntity
  8
0
 48
5.0
100
AcDbLine
 10
10322.56601366614
 20
29310.1133796228
 30
0.0
 11
10322.64943417244
 21
29310.15042687075
 31
0.0
  0
LINE
  5
B24A
330
1F
100
AcDbEntity
  8
0
 48
5.0
100
AcDbLine
 10
10322.64943417244
 20
29310.15042687075
 30
0.0
 11
10322.7050478433
 21
29310.17203776732
 31
0.0
  0
LINE
  5
B24B
330
1F
100
AcDbEntity
  8
0
 48
5.0
100
AcDbLine
 10
10322.7050478433
 20
29310.17203776732
 30
0.0
 11
10322.79464765162
 21
29310.22143410178
 31
0.0
  0
LINE
  5
B24C
330
1F
100
AcDbEntity
  8
0
 48
5.0
100
AcDbLine
 10
10322.79464765162
 20
29310.22143410178
 30
0.0
 11
10322.86570956063
 21
29310.26465589104
 31
0.0
  0
LINE
  5
B24D
330
1F
100
AcDbEntity
  8
0
 48
5.0
100
AcDbLine
 10
10322.86570956063
 20
29310.26465589104
 30
0.0
 11
10322.81009588977
 21
29310.35418674604
 31
0.0
  0
LINE
  5
B24E
330
1F
100
AcDbEntity
  8
0
 48
5.0
100
AcDbLine
 10
10322.81009588977
 20
29310.35418674604
 30
0.0
 11
10322.79155800398
 21
29310.44371759717
 31
0.0
  0
LINE
  5
B24F
330
1F
100
AcDbEntity
  8
0
 48
5.0
100
AcDbLine
 10
10322.79155800398
 20
29310.44371759717
 30
0.0
 11
10322.77302011144
 21
29310.58573205536
 31
0.0
  0
LINE
  5
B250
330
1F
100
AcDbEntity
  8
0
 48
5.0
100
AcDbLine
 10
10322.77302011144
 20
29310.58573205536
 30
0.0
 11
10322.7544822189
 21
29310.71539742704
 31
0.0
  0
LINE
  5
B251
330
1F
100
AcDbEntity
  8
0
 48
5.0
100
AcDbLine
 10
10322.7544822189
 20
29310.71539742704
 30
0.0
 11
10322.73265258327
 21
29310.80004021371
 31
0.0
  0
LINE
  5
B252
330
1F
100
AcDbEntity
  8
0
 48
5.0
100
AcDbLine
 10
10322.72298508783
 20
29310.80560206456
 30
0.0
 11
10322.73265258327
 21
29310.80004021371
 31
0.0
  0
LINE
  5
B253
330
1F
100
AcDbEntity
  8
0
 48
5.0
100
AcDbLine
 10
10322.73265258327
 20
29310.80004021371
 30
0.0
 11
10322.75638188105
 21
29310.80179658767
 31
0.0
  0
LINE
  5
B254
330
1F
100
AcDbEntity
  8
0
 48
5.0
100
AcDbLine
 10
10322.75638188105
 20
29310.80179658767
 30
0.0
 11
10322.77161550306
 21
29310.80121112968
 31
0.0
  0
LINE
  5
B255
330
1F
100
AcDbEntity
  8
0
 48
5.0
100
AcDbLine
 10
10322.77161550306
 20
29310.80121112968
 30
0.0
 11
10322.77165862234
 21
29310.83581538923
 31
0.0
  0
LINE
  5
B256
330
1F
100
AcDbEntity
  8
0
 48
5.0
100
AcDbLine
 10
10322.77165862234
 20
29310.83581538923
 30
0.0
 11
10322.7761611128
 21
29310.92243210771
 31
0.0
  0
LINE
  5
B257
330
1F
100
AcDbEntity
  8
0
 48
5.0
100
AcDbLine
 10
10322.7761611128
 20
29310.92243210771
 30
0.0
 11
10322.77975953827
 21
29310.98955104113
 31
0.0
  0
LINE
  5
B258
330
1F
100
AcDbEntity
  8
0
 48
5.0
100
AcDbLine
 10
10322.77975953827
 20
29310.98955104113
 30
0.0
 11
10322.7773918446
 21
29311.04683103003
 31
0.0
  0
LINE
  5
B259
330
1F
100
AcDbEntity
  8
0
 48
5.0
100
AcDbLine
 10
10322.7773918446
 20
29311.04683103003
 30
0.0
 11
10322.76785223266
 21
29311.0840179678
 31
0.0
  0
LINE
  5
B25A
330
1F
100
AcDbEntity
  8
0
 48
5.0
100
AcDbLine
 10
10322.68261359117
 20
29310.87104942783
 30
0.0
 11
10322.6666219743
 21
29310.85007658347
 31
0.0
  0
LINE
  5
B25B
330
1F
100
AcDbEntity
  8
0
 48
5.0
100
AcDbLine
 10
10322.6666219743
 20
29310.85007658347
 30
0.0
 11
10322.6546282684
 21
29310.8370933954
 31
0.0
  0
LINE
  5
B25C
330
1F
100
AcDbEntity
  8
0
 48
5.0
100
AcDbLine
 10
10322.6546282684
 20
29310.8370933954
 30
0.0
 11
10322.6546282684
 21
29310.81811796222
 31
0.0
  0
LINE
  5
B25D
330
1F
100
AcDbEntity
  8
0
 48
5.0
100
AcDbLine
 10
10322.6546282684
 20
29310.81811796222
 30
0.0
 11
10322.65472674371
 21
29310.80940753758
 31
0.0
  0
LINE
  5
B25E
330
1F
100
AcDbEntity
  8
0
 48
5.0
100
AcDbLine
 10
10322.65472674371
 20
29310.80940753758
 30
0.0
 11
10322.65121129144
 21
29310.80384569061
 31
0.0
  0
LINE
  5
B25F
330
1F
100
AcDbEntity
  8
0
 48
5.0
100
AcDbLine
 10
10322.65121129144
 20
29310.80384569061
 30
0.0
 11
10322.64447333843
 21
29310.79974748472
 31
0.0
  0
LINE
  5
B260
330
1F
100
AcDbEntity
  8
0
 48
5.0
100
AcDbLine
 10
10322.64447333843
 20
29310.79974748472
 30
0.0
 11
10322.64535220657
 21
29310.79360017977
 31
0.0
  0
LINE
  5
B261
330
1F
100
AcDbEntity
  8
0
 48
5.0
100
AcDbLine
 10
10322.64535220657
 20
29310.79360017977
 30
0.0
 11
10322.64740288086
 21
29310.78979470674
 31
0.0
  0
LINE
  5
B262
330
1F
100
AcDbEntity
  8
0
 48
5.0
100
AcDbLine
 10
10322.64740288086
 20
29310.78979470674
 30
0.0
 11
10322.65326197249
 21
29310.78745287481
 31
0.0
  0
LINE
  5
B263
330
1F
100
AcDbEntity
  8
0
 48
5.0
100
AcDbLine
 10
10322.65326197249
 20
29310.78745287481
 30
0.0
 11
10322.66117173842
 21
29310.79008743574
 31
0.0
  0
LINE
  5
B264
330
1F
100
AcDbEntity
  8
0
 48
5.0
100
AcDbLine
 10
10322.66117173842
 20
29310.79008743574
 30
0.0
 11
10322.66732377482
 21
29310.79389290876
 31
0.0
  0
LINE
  5
B265
330
1F
100
AcDbEntity
  8
0
 48
5.0
100
AcDbLine
 10
10322.66732377482
 20
29310.79389290876
 30
0.0
 11
10322.6708392271
 21
29310.79828384363
 31
0.0
  0
LINE
  5
B266
330
1F
100
AcDbEntity
  8
0
 48
5.0
100
AcDbLine
 10
10322.6708392271
 20
29310.79828384363
 30
0.0
 11
10322.67933490286
 21
29310.80794389262
 31
0.0
  0
LINE
  5
B267
330
1F
100
AcDbEntity
  8
0
 48
5.0
100
AcDbLine
 10
10322.67933490286
 20
29310.80794389262
 30
0.0
 11
10322.68226444529
 21
29310.81262755649
 31
0.0
  0
LINE
  5
B268
330
1F
100
AcDbEntity
  8
0
 48
5.0
100
AcDbLine
 10
10322.68226444529
 20
29310.81262755649
 30
0.0
 11
10322.67508706498
 21
29310.80311386812
 31
0.0
  0
LINE
  5
B269
330
1F
100
AcDbEntity
  8
0
 48
5.0
100
AcDbLine
 10
10322.67508706498
 20
29310.80311386812
 30
0.0
 11
10322.66424775662
 21
29310.79199017224
 31
0.0
  0
LINE
  5
B26A
330
1F
100
AcDbEntity
  8
0
 48
5.0
100
AcDbLine
 10
10322.66424775662
 20
29310.79199017224
 30
0.0
 11
10322.65853514752
 21
29310.78247648582
 31
0.0
  0
LINE
  5
B26B
330
1F
100
AcDbEntity
  8
0
 48
5.0
100
AcDbLine
 10
10322.65853514752
 20
29310.78247648582
 30
0.0
 11
10322.656777418
 21
29310.77076733003
 31
0.0
  0
LINE
  5
B26C
330
1F
100
AcDbEntity
  8
0
 48
5.0
100
AcDbLine
 10
10322.656777418
 20
29310.77076733003
 30
0.0
 11
10322.66146468996
 21
29310.75788726213
 31
0.0
  0
LINE
  5
B26D
330
1F
100
AcDbEntity
  8
0
 48
5.0
100
AcDbLine
 10
10322.66146468996
 20
29310.75788726213
 30
0.0
 11
10322.66644491345
 21
29310.74471446525
 31
0.0
  0
LINE
  5
B26E
330
1F
100
AcDbEntity
  8
0
 48
5.0
100
AcDbLine
 10
10322.66644491345
 20
29310.74471446525
 30
0.0
 11
10322.67699127026
 21
29310.73622532835
 31
0.0
  0
LINE
  5
B26F
330
1F
100
AcDbEntity
  8
0
 48
5.0
100
AcDbLine
 10
10322.67699127026
 20
29310.73622532835
 30
0.0
 11
10322.68724466878
 21
29310.72715073348
 31
0.0
  0
LINE
  5
B270
330
1F
100
AcDbEntity
  8
0
 48
5.0
100
AcDbLine
 10
10322.68724466878
 20
29310.72715073348
 30
0.0
 11
10322.69720511576
 21
29310.72129615752
 31
0.0
  0
LINE
  5
B271
330
1F
100
AcDbEntity
  8
0
 48
5.0
100
AcDbLine
 10
10322.69720511576
 20
29310.72129615752
 30
0.0
 11
10322.7112669181
 21
29310.71807613861
 31
0.0
  0
LINE
  5
B272
330
1F
100
AcDbEntity
  8
0
 48
5.0
100
AcDbLine
 10
10322.7112669181
 20
29310.71807613861
 30
0.0
 11
10322.72210622646
 21
29310.71778340962
 31
0.0
  0
LINE
  5
B273
330
1F
100
AcDbEntity
  8
0
 48
5.0
100
AcDbLine
 10
10322.72210622646
 20
29310.71778340962
 30
0.0
 11
10322.72503576889
 21
29310.72100342853
 31
0.0
  0
LINE
  5
B274
330
1F
100
AcDbEntity
  8
0
 48
5.0
100
AcDbLine
 10
10322.72503576889
 20
29310.72100342853
 30
0.0
 11
10322.72122736508
 21
29310.7265652755
 31
0.0
  0
LINE
  5
B275
330
1F
100
AcDbEntity
  8
0
 48
5.0
100
AcDbLine
 10
10322.72122736508
 20
29310.7265652755
 30
0.0
 11
10322.70980214688
 21
29310.73651805735
 31
0.0
  0
LINE
  5
B276
330
1F
100
AcDbEntity
  8
0
 48
5.0
100
AcDbLine
 10
10322.70980214688
 20
29310.73651805735
 30
0.0
 11
10322.70159942942
 21
29310.74676356431
 31
0.0
  0
LINE
  5
B277
330
1F
100
AcDbEntity
  8
0
 48
5.0
100
AcDbLine
 10
10322.70159942942
 20
29310.74676356431
 30
0.0
 11
10322.69925579006
 21
29310.75671634616
 31
0.0
  0
LINE
  5
B278
330
1F
100
AcDbEntity
  8
0
 48
5.0
100
AcDbLine
 10
10322.69925579006
 20
29310.75671634616
 30
0.0
 11
10322.70687260445
 21
29310.76227819314
 31
0.0
  0
LINE
  5
B279
330
1F
100
AcDbEntity
  8
0
 48
5.0
100
AcDbLine
 10
10322.70687260445
 20
29310.76227819314
 30
0.0
 11
10322.71214577948
 21
29310.771645517
 31
0.0
  0
LINE
  5
B27A
330
1F
100
AcDbEntity
  8
0
 48
5.0
100
AcDbLine
 10
10322.71214577948
 20
29310.771645517
 30
0.0
 11
10322.71683305143
 21
29310.77925646691
 31
0.0
  0
LINE
  5
B27B
330
1F
100
AcDbEntity
  8
0
 48
5.0
100
AcDbLine
 10
10322.71683305143
 20
29310.77925646691
 30
0.0
 11
10322.72122736508
 21
29310.79360017977
 31
0.0
  0
LINE
  5
B27C
330
1F
100
AcDbEntity
  8
0
 48
5.0
100
AcDbLine
 10
10322.72122736508
 20
29310.79360017977
 30
0.0
 11
10322.72298508783
 21
29310.80560206456
 31
0.0
  0
LINE
  5
B27D
330
1F
100
AcDbEntity
  8
0
 48
5.0
100
AcDbLine
 10
10322.72298508783
 20
29310.80560206456
 30
0.0
 11
10322.72386394921
 21
29310.81174936951
 31
0.0
  0
LINE
  5
B27E
330
1F
100
AcDbEntity
  8
0
 48
5.0
100
AcDbLine
 10
10322.72386394921
 20
29310.81174936951
 30
0.0
 11
10322.7227399544
 21
29310.81865346402
 31
0.0
  0
LINE
  5
B27F
330
1F
100
AcDbEntity
  8
0
 48
5.0
100
AcDbLine
 10
10322.66362354782
 20
29310.8570675303
 30
0.0
 11
10322.66762145204
 21
29310.87903908023
 31
0.0
  0
LINE
  5
B280
330
1F
100
AcDbEntity
  8
0
 48
5.0
100
AcDbLine
 10
10322.66762145204
 20
29310.87903908023
 30
0.0
 11
10322.67261883401
 21
29310.90200933962
 31
0.0
  0
LINE
  5
B281
330
1F
100
AcDbEntity
  8
0
 48
5.0
100
AcDbLine
 10
10322.67261883401
 20
29310.90200933962
 30
0.0
 11
10322.67261883401
 21
29310.91898735777
 31
0.0
  0
LINE
  5
B282
330
1F
100
AcDbEntity
  8
0
 48
5.0
100
AcDbLine
 10
10322.67261883401
 20
29310.91898735777
 30
0.0
 11
10322.67973756587
 21
29310.95557956431
 31
0.0
  0
LINE
  5
B283
330
1F
100
AcDbEntity
  8
0
 48
5.0
100
AcDbLine
 10
10322.66362354782
 20
29310.8570675303
 30
0.0
 11
10322.68261359117
 21
29310.87104942783
 31
0.0
  0
LINE
  5
B284
330
1F
100
AcDbEntity
  8
0
 48
5.0
100
AcDbLine
 10
10322.68261359117
 20
29310.87104942783
 30
0.0
 11
10322.69660625932
 21
29310.8680533072
 31
0.0
  0
LINE
  5
B285
330
1F
100
AcDbEntity
  8
0
 48
5.0
100
AcDbLine
 10
10322.69660625932
 20
29310.8680533072
 30
0.0
 11
10322.70334104326
 21
29310.86997901325
 31
0.0
  0
LINE
  5
B286
330
1F
100
AcDbEntity
  8
0
 48
5.0
100
AcDbLine
 10
10322.51711947811
 20
29310.76461459065
 30
0.0
 11
10322.53244280703
 21
29310.72806983311
 31
0.0
  0
LINE
  5
B287
330
1F
100
AcDbEntity
  8
0
 48
5.0
100
AcDbLine
 10
10322.53244280703
 20
29310.72806983311
 30
0.0
 11
10322.54383828523
 21
29310.69011413298
 31
0.0
  0
LINE
  5
B288
330
1F
100
AcDbEntity
  8
0
 48
5.0
100
AcDbLine
 10
10322.54383828523
 20
29310.69011413298
 30
0.0
 11
10322.54953602771
 21
29310.68189039963
 31
0.0
  0
LINE
  5
B289
330
1F
100
AcDbEntity
  8
0
 48
5.0
100
AcDbLine
 10
10322.54953602771
 20
29310.68189039963
 30
0.0
 11
10322.55649992767
 21
29310.65911698032
 31
0.0
  0
LINE
  5
B28A
330
1F
100
AcDbEntity
  8
0
 48
5.0
100
AcDbLine
 10
10322.55649992767
 20
29310.65911698032
 30
0.0
 11
10322.56409691313
 21
29310.63697615589
 31
0.0
  0
LINE
  5
B28B
330
1F
100
AcDbEntity
  8
0
 48
5.0
100
AcDbLine
 10
10322.56409691313
 20
29310.63697615589
 30
0.0
 11
10322.58055705506
 21
29310.63191539691
 31
0.0
  0
LINE
  5
B28C
330
1F
100
AcDbEntity
  8
0
 48
5.0
100
AcDbLine
 10
10322.58055705506
 20
29310.63191539691
 30
0.0
 11
10322.60461417569
 21
29310.64013913026
 31
0.0
  0
LINE
  5
B28D
330
1F
100
AcDbEntity
  8
0
 48
5.0
100
AcDbLine
 10
10322.60461417569
 20
29310.64013913026
 30
0.0
 11
10322.61664273263
 21
29310.65215843672
 31
0.0
  0
LINE
  5
B28E
330
1F
100
AcDbEntity
  8
0
 48
5.0
100
AcDbLine
 10
10322.61664273263
 20
29310.65215843672
 30
0.0
 11
10322.61537656838
 21
29310.67493185602
 31
0.0
  0
LINE
  5
B28F
330
1F
100
AcDbEntity
  8
0
 48
5.0
100
AcDbLine
 10
10322.61537656838
 20
29310.67493185602
 30
0.0
 11
10322.61537656838
 21
29310.69327710734
 31
0.0
  0
LINE
  5
B290
330
1F
100
AcDbEntity
  8
0
 48
5.0
100
AcDbLine
 10
10322.61537656838
 20
29310.69327710734
 30
0.0
 11
10322.62044122536
 21
29310.6983378702
 31
0.0
  0
LINE
  5
B291
330
1F
100
AcDbEntity
  8
0
 48
5.0
100
AcDbLine
 10
10322.62044122536
 20
29310.6983378702
 30
0.0
 11
10322.61790889687
 21
29310.71921350101
 31
0.0
  0
LINE
  5
B292
330
1F
100
AcDbEntity
  8
0
 48
5.0
100
AcDbLine
 10
10322.61790889687
 20
29310.71921350101
 30
0.0
 11
10322.60461417569
 21
29310.72490685874
 31
0.0
  0
LINE
  5
B293
330
1F
100
AcDbEntity
  8
0
 48
5.0
100
AcDbLine
 10
10322.60461417569
 20
29310.72490685874
 30
0.0
 11
10322.6020818472
 21
29310.74325211006
 31
0.0
  0
LINE
  5
B294
330
1F
100
AcDbEntity
  8
0
 48
5.0
100
AcDbLine
 10
10322.6020818472
 20
29310.74325211006
 30
0.0
 11
10322.59005328351
 21
29310.75337363191
 31
0.0
  0
LINE
  5
B295
330
1F
100
AcDbEntity
  8
0
 48
5.0
100
AcDbLine
 10
10322.59005328351
 20
29310.75337363191
 30
0.0
 11
10322.57549239132
 21
29310.76096477038
 31
0.0
  0
LINE
  5
B296
330
1F
100
AcDbEntity
  8
0
 48
5.0
100
AcDbLine
 10
10322.57549239132
 20
29310.76096477038
 30
0.0
 11
10322.57052415105
 21
29310.77295648027
 31
0.0
  0
LINE
  5
B297
330
1F
100
AcDbEntity
  8
0
 48
5.0
100
AcDbLine
 10
10322.50895750831
 20
29310.76417183188
 30
0.0
 11
10322.54468245106
 21
29310.76610978704
 31
0.0
  0
LINE
  5
B298
330
1F
100
AcDbEntity
  8
0
 48
5.0
100
AcDbLine
 10
10322.54468245106
 20
29310.76610978704
 30
0.0
 11
10322.59636585103
 21
29310.77980317349
 31
0.0
  0
LINE
  5
B299
330
1F
100
AcDbEntity
  8
0
 48
5.0
100
AcDbLine
 10
10322.59636585103
 20
29310.77980317349
 30
0.0
 11
10322.64579075846
 21
29310.8073548957
 31
0.0
  0
LINE
  5
B29A
330
1F
100
AcDbEntity
  8
0
 48
5.0
100
AcDbLine
 10
10322.62487353127
 20
29311.26873858143
 30
0.0
 11
10322.63697739055
 21
29311.21872528745
 31
0.0
  0
LINE
  5
B29B
330
1F
100
AcDbEntity
  8
0
 48
5.0
100
AcDbLine
 10
10322.63697739055
 20
29311.21872528745
 30
0.0
 11
10322.64512218296
 21
29311.19024044192
 31
0.0
  0
LINE
  5
B29C
330
1F
100
AcDbEntity
  8
0
 48
5.0
100
AcDbLine
 10
10322.64512218296
 20
29311.19024044192
 30
0.0
 11
10322.64783711601
 21
29311.1264886433
 31
0.0
  0
LINE
  5
B29D
330
1F
100
AcDbEntity
  8
0
 48
5.0
100
AcDbLine
 10
10322.64783711601
 20
29311.1264886433
 30
0.0
 11
10322.65055204906
 21
29311.08172674042
 31
0.0
  0
LINE
  5
B29E
330
1F
100
AcDbEntity
  8
0
 48
5.0
100
AcDbLine
 10
10322.65055204906
 20
29311.08172674042
 30
0.0
 11
10322.6573393817
 21
29311.02882631079
 31
0.0
  0
LINE
  5
B29F
330
1F
100
AcDbEntity
  8
0
 48
5.0
100
AcDbLine
 10
10322.6573393817
 20
29311.02882631079
 30
0.0
 11
10322.67091404021
 21
29310.98949009627
 31
0.0
  0
LINE
  5
B2A0
330
1F
100
AcDbEntity
  8
0
 48
5.0
100
AcDbLine
 10
10322.67091404021
 20
29310.98949009627
 30
0.0
 11
10322.68856109154
 21
29310.92166903235
 31
0.0
  0
LINE
  5
B2A1
330
1F
100
AcDbEntity
  8
0
 48
5.0
100
AcDbLine
 10
10322.68856109154
 20
29310.92166903235
 30
0.0
 11
10322.70756561616
 21
29310.85520438761
 31
0.0
  0
LINE
  5
B2A2
330
1F
100
AcDbEntity
  8
0
 48
5.0
100
AcDbLine
 10
10322.70756561616
 20
29310.85520438761
 30
0.0
 11
10322.7227399544
 21
29310.81865346402
 31
0.0
  0
ARC
  5
B2A3
330
1F
100
AcDbEntity
  8
0
 48
5.0
100
AcDbCircle
 10
10322.71722559264
 20
29311.21551113206
 30
0.0
 40
0.244552717824413
100
AcDbArc
 50
208.5875685274568
 51
238.4369898034754
  0
ARC
  5
B2A4
330
1F
100
AcDbEntity
  8
0
 48
5.0
100
AcDbCircle
 10
10322.57560743304
 20
29310.98498075309
 30
0.0
 40
0.0260021911288391
100
AcDbArc
 50
18.0760918829413
 51
58.43698980694386
  0
ARC
  5
B2A5
330
1F
100
AcDbEntity
  8
0
 48
5.0
100
AcDbCircle
 10
10322.02489228388
 20
29310.80523361081
 30
0.0
 40
0.6053088548803646
100
AcDbArc
 50
8.876915635371416
 51
18.07609193620188
  0
ARC
  5
B2A6
330
1F
100
AcDbEntity
  8
0
 48
5.0
100
AcDbCircle
 10
10323.13879432187
 20
29310.97920624952
 30
0.0
 40
0.5220971186972531
100
AcDbArc
 50
188.8769156334697
 51
199.2175508678304
  0
ARC
  5
B2A7
330
1F
100
AcDbEntity
  8
0
 48
5.0
100
AcDbCircle
 10
10322.01090164197
 20
29310.98912493874
 30
0.0
 40
0.5545379544791414
100
AcDbArc
 50
3.625326743260788
 51
16.1664716455967
  0
ARC
  5
B2A8
330
1F
100
AcDbEntity
  8
0
 48
5.0
100
AcDbCircle
 10
10322.66274473072
 20
29311.1780892908
 30
0.0
 40
0.1241423374830641
100
AcDbArc
 50
174.7229889865576
 51
196.1664716614299
  0
ARC
  5
B2A9
330
1F
100
AcDbEntity
  8
0
 48
5.0
100
AcDbCircle
 10
10322.14966849315
 20
29311.22547830685
 30
0.0
 40
0.3911177370351634
100
AcDbArc
 50
354.7229890097977
 51
3.071807148950262
  0
ARC
  5
B2AA
330
1F
100
AcDbEntity
  8
0
 48
5.0
100
AcDbCircle
 10
10322.39936591749
 20
29311.24241131808
 30
0.0
 40
0.1729481613898746
100
AcDbArc
 50
346.769001310833
 51
36.49822740291054
  0
ARC
  5
B2AB
330
1F
100
AcDbEntity
  8
0
 48
5.0
100
AcDbCircle
 10
10323.05290361444
 20
29311.08875235382
 30
0.0
 40
0.4984106090298185
100
AcDbArc
 50
166.7690013787089
 51
178.3960497430919
  0
ARC
  5
B2AC
330
1F
100
AcDbEntity
  8
0
 48
5.0
100
AcDbCircle
 10
10322.4260789701
 20
29311.29067239314
 30
0.0
 40
0.024992326762879
100
AcDbArc
 50
112.2849530415468
 51
185.7462983281161
  0
ARC
  5
B2AD
330
1F
100
AcDbEntity
  8
0
 48
5.0
100
AcDbCircle
 10
10322.23513267471
 20
29311.27145757381
 30
0.0
 40
0.1669183217350178
100
AcDbArc
 50
347.7994157434967
 51
5.746298247455729
  0
ARC
  5
B2AE
330
1F
100
AcDbEntity
  8
0
 48
5.0
100
AcDbCircle
 10
10322.53820723213
 20
29311.20592730005
 30
0.0
 40
0.1431597396169953
100
AcDbArc
 50
167.7994157270824
 51
194.7207422324687
  0
ARC
  5
B2AF
330
1F
100
AcDbEntity
  8
0
 48
5.0
100
AcDbCircle
 10
10322.50390826292
 20
29311.19691586103
 30
0.0
 40
0.107696726185775
100
AcDbArc
 50
194.7207421690937
 51
205.9559749382539
  0
ARC
  5
B2B0
330
1F
100
AcDbEntity
  8
0
 48
5.0
100
AcDbCircle
 10
10321.34196218439
 20
29310.79020059044
 30
0.0
 40
1.12417155372786
100
AcDbArc
 50
13.3722966667273
 51
18.65451288859407
  0
ARC
  5
B2B1
330
1F
100
AcDbEntity
  8
0
 48
5.0
100
AcDbCircle
 10
10323.27947604616
 20
29311.25079162968
 30
0.0
 40
0.8673364352055896
100
AcDbArc
 50
193.3722966634926
 51
200.797112473404
  0
ARC
  5
B2B2
330
1F
100
AcDbEntity
  8
0
 48
5.0
100
AcDbCircle
 10
10321.85989636457
 20
29310.71162575861
 30
0.0
 40
0.6511846574772409
100
AcDbArc
 50
4.628403119814788
 51
20.79711248722456
  0
ARC
  5
B2B3
330
1F
100
AcDbEntity
  8
0
 48
5.0
100
AcDbCircle
 10
10322.51213392312
 20
29311.46272777173
 30
0.0
 40
0.0986001434948234
100
AcDbArc
 50
186.8060436911716
 51
201.7784281776572
  0
ARC
  5
B2B4
330
1F
100
AcDbEntity
  8
0
 48
5.0
100
AcDbCircle
 10
10322.25080622065
 20
29311.35831826065
 30
0.0
 40
0.182813278501167
100
AcDbArc
 50
17.55882399193645
 51
21.77842816217463
  0
ARC
  5
B2B5
330
1F
100
AcDbEntity
  8
0
 48
5.0
100
AcDbCircle
 10
10322.27540194363
 20
29311.36610103337
 30
0.0
 40
0.157015582087532
100
AcDbArc
 50
7.727902130993641
 51
17.55882401250348
  0
ARC
  5
B2B6
330
1F
100
AcDbEntity
  8
0
 48
5.0
100
AcDbCircle
 10
10322.40097800502
 20
29311.38314185853
 30
0.0
 40
0.0302885647814607
100
AcDbArc
 50
334.3123668286935
 51
7.727902207151347
  0
ARC
  5
B2B7
330
1F
100
AcDbEntity
  8
0
 48
5.0
100
AcDbCircle
 10
10322.46410955842
 20
29311.35277547456
 30
0.0
 40
0.0397664872182246
100
AcDbArc
 50
154.3123668603909
 51
168.7896623180194
  0
ARC
  5
B2B8
330
1F
100
AcDbEntity
  8
0
 48
5.0
100
AcDbCircle
 10
10322.52380142294
 20
29311.44615607628
 30
0.0
 40
0.1177277701311048
100
AcDbArc
 50
174.9715494340132
 51
187.1133656828846
  0
ARC
  5
B2B9
330
1F
100
AcDbEntity
  8
0
 48
5.0
100
AcDbCircle
 10
10322.37433276966
 20
29311.42750336205
 30
0.0
 40
0.0329002553531982
100
AcDbArc
 50
352.8866343133278
 51
7.11336568667227
  0
ARC
  5
B2BA
330
1F
100
AcDbEntity
  8
0
 48
5.0
100
AcDbCircle
 10
10322.39252496875
 20
29311.4252330941
 30
0.0
 40
0.0145669462040391
100
AcDbArc
 50
330.2152230166478
 51
352.8866343755064
  0
ARC
  5
B2BB
330
1F
100
AcDbEntity
  8
0
 48
5.0
100
AcDbCircle
 10
10322.40179789962
 20
29311.41992570785
 30
0.0
 40
0.0038825839908297
100
AcDbArc
 50
237.835440264716
 51
330.2152230015233
  0
ARC
  5
B2BC
330
1F
100
AcDbEntity
  8
0
 48
5.0
100
AcDbCircle
 10
10322.40434353382
 20
29311.42397365697
 30
0.0
 40
0.0086644398594824
100
AcDbArc
 50
212.2116193574796
 51
237.8354401167253
  0
ARC
  5
B2BD
330
1F
100
AcDbEntity
  8
0
 48
5.0
100
AcDbCircle
 10
10322.15507006266
 20
29311.34433933642
 30
0.0
 40
0.2826210382138287
100
AcDbArc
 50
18.07593229696756
 51
22.01750481365184
  0
ARC
  5
B2BE
330
1F
100
AcDbEntity
  8
0
 48
5.0
100
AcDbCircle
 10
10322.43001108798
 20
29311.43407610297
 30
0.0
 40
0.0065938553749908
100
AcDbArc
 50
198.0759322674035
 51
274.5870401031524
  0
ARC
  5
B2BF
330
1F
100
AcDbEntity
  8
0
 48
5.0
100
AcDbCircle
 10
10322.43006586148
 20
29311.43339340049
 30
0.0
 40
0.0059089591707128
100
AcDbArc
 50
274.5870402999339
 51
337.4231100186441
  0
ARC
  5
B2C0
330
1F
100
AcDbEntity
  8
0
 48
5.0
100
AcDbCircle
 10
10322.4186708598
 20
29311.42563354129
 30
0.0
 40
0.1276316774604217
100
AcDbArc
 50
12.42246720344095
 51
54.14324786501738
  0
ARC
  5
B2C1
330
1F
100
AcDbEntity
  8
0
 48
5.0
100
AcDbCircle
 10
10322.55860693224
 20
29311.52210525825
 30
0.0
 40
0.0178980166941877
100
AcDbArc
 50
355.7763272968921
 51
74.03286934209546
  0
ARC
  5
B2C2
330
1F
100
AcDbEntity
  8
0
 48
5.0
100
AcDbCircle
 10
10322.62834405464
 20
29311.51695511486
 30
0.0
 40
0.0520290182591531
100
AcDbArc
 50
175.7763273821655
 51
191.3276943383175
  0
ARC
  5
B2C3
330
1F
100
AcDbEntity
  8
0
 48
5.0
100
AcDbCircle
 10
10322.85660884582
 20
29310.8787642853
 30
0.0
 40
0.1680383886331244
100
AcDbArc
 50
128.85808291935
 51
145.4737422290641
  0
ARC
  5
B2C4
330
1F
100
AcDbEntity
  8
0
 48
5.0
100
AcDbCircle
 10
10322.73562800304
 20
29311.02892213963
 30
0.0
 40
0.0247924842490926
100
AcDbArc
 50
308.8580829112112
 51
344.6357515185763
  0
ARC
  5
B2C5
330
1F
100
AcDbEntity
  8
0
 48
5.0
100
AcDbCircle
 10
10322.53511525116
 20
29311.08401796773
 30
0.0
 40
0.232736981512953
100
AcDbArc
 50
344.6357514398928
 51
6.022951355452891
  0
ARC
  5
B2C6
330
1F
100
AcDbEntity
  8
0
 48
5.0
100
AcDbCircle
 10
10322.2442857119
 20
29311.05333276039
 30
0.0
 40
0.5251808271554018
100
AcDbArc
 50
6.022951307240298
 51
11.40578473603547
  0
ARC
  5
B2C7
330
1F
100
AcDbEntity
  8
0
 48
5.0
100
AcDbCircle
 10
10325.60748967342
 20
29311.73182700371
 30
0.0
 40
2.905780455779965
100
AcDbArc
 50
190.5354505141111
 51
191.4057847283706
  0
ARC
  5
B2C8
330
1F
100
AcDbEntity
  8
0
 48
5.0
100
AcDbCircle
 10
10322.44397238059
 20
29311.14347890413
 30
0.0
 40
0.3119819885699766
100
AcDbArc
 50
10.53545047637642
 51
36.73723620101243
  0
ARC
  5
B2C9
330
1F
100
AcDbEntity
  8
0
 48
5.0
100
AcDbCircle
 10
10323.0010474213
 20
29311.55927329983
 30
0.0
 40
0.3831565447202317
100
AcDbArc
 50
212.8183738040513
 51
216.7372361800637
  0
ARC
  5
B2CA
330
1F
100
AcDbEntity
  8
0
 48
5.0
100
AcDbCircle
 10
10325.57286646285
 20
29313.21786508605
 30
0.0
 40
3.443414686745256
100
AcDbArc
 50
210.4432611666937
 51
212.8183738083284
  0
ARC
  5
B2CB
330
1F
100
AcDbEntity
  8
0
 48
5.0
100
AcDbCircle
 10
10322.47552248202
 20
29311.3975191302
 30
0.0
 40
0.1492443750904356
100
AcDbArc
 50
30.44326115870407
 51
46.05472450731098
  0
ARC
  5
B2CC
330
1F
100
AcDbEntity
  8
0
 48
5.0
100
AcDbCircle
 10
10322.63011633312
 20
29311.55791204355
 30
0.0
 40
0.0735226454725086
100
AcDbArc
 50
200.0996299417349
 51
226.0547245127662
  0
ARC
  5
B2CD
330
1F
100
AcDbEntity
  8
0
 48
5.0
100
AcDbCircle
 10
10322.44258510614
 20
29311.46427874681
 30
0.0
 40
0.1459018617151818
100
AcDbArc
 50
45.50458174237838
 51
63.70542393227847
  0
ARC
  5
B2CE
330
1F
100
AcDbEntity
  8
0
 48
5.0
100
AcDbCircle
 10
10322.472320114
 20
29311.5150933864
 30
0.0
 40
0.0872715306881312
100
AcDbArc
 50
66.42976602379235
 51
122.1805701496503
  0
ARC
  5
B2CF
330
1F
100
AcDbEntity
  8
0
 48
5.0
100
AcDbCircle
 10
10322.46790822364
 20
29311.52209376596
 30
0.0
 40
0.0789968673389915
100
AcDbArc
 50
122.1763769863026
 51
156.500567343716
  0
ARC
  5
B2D0
330
1F
100
AcDbEntity
  8
0
 48
5.0
100
AcDbCircle
 10
10322.53595034503
 20
29311.5491168814
 30
0.0
 40
0.023443902647277
100
AcDbArc
 50
354.0143022807911
 51
46.5046130132653
  0
ARC
  5
B2D1
330
1F
100
AcDbEntity
  8
0
 48
5.0
100
AcDbCircle
 10
10322.54622044722
 20
29311.5599410562
 30
0.0
 40
0.0085228517764995
100
AcDbArc
 50
46.50461302240806
 51
99.31615279844336
  0
ARC
  5
B2D2
330
1F
100
AcDbEntity
  8
0
 48
5.0
100
AcDbCircle
 10
10322.54113439962
 20
29311.5644939656
 30
0.0
 40
0.0053495375985816
100
AcDbArc
 50
289.1573591773865
 51
46.14499311831856
  0
ARC
  5
B2D3
330
1F
100
AcDbEntity
  8
0
 48
5.0
100
AcDbCircle
 10
10322.49891297794
 20
29311.71554713811
 30
0.0
 40
0.1621826062966233
100
AcDbArc
 50
264.3591435205304
 51
285.7331255567427
  0
ARC
  5
B2D4
330
1F
100
AcDbEntity
  8
0
 48
5.0
100
AcDbCircle
 10
10322.46738902647
 20
29311.37075686868
 30
0.0
 40
0.1840538462687064
100
AcDbArc
 50
85.14333539512795
 51
102.7795267086868
  0
ARC
  5
B2D5
330
1F
100
AcDbEntity
  8
0
 48
5.0
100
AcDbCircle
 10
10322.41487746831
 20
29311.61137907326
 30
0.0
 40
0.0622559472892126
100
AcDbArc
 50
255.5711781555312
 51
280.9248608576673
  0
ARC
  5
B2D6
330
1F
100
AcDbEntity
  8
0
 48
5.0
100
AcDbCircle
 10
10322.40098102811
 20
29311.55789333399
 30
0.0
 40
0.0069958049502842
100
AcDbArc
 50
217.9305069531336
 51
256.6416520191896
  0
ARC
  5
B2D7
330
1F
100
AcDbEntity
  8
0
 48
5.0
100
AcDbCircle
 10
10322.39360958017
 20
29311.54441891503
 30
0.0
 40
0.0093594177915913
100
AcDbArc
 50
78.57813634344028
 51
173.1722614778443
  0
ARC
  5
B2D8
330
1F
100
AcDbEntity
  8
0
 48
5.0
100
AcDbCircle
 10
10322.54295578759
 20
29311.53230687366
 30
0.0
 40
0.0217347218580831
100
AcDbArc
 50
18.80427334922376
 51
78.33863022048531
  0
ARC
  5
B2D9
330
1F
100
AcDbEntity
  8
0
 48
5.0
100
AcDbCircle
 10
10322.52956004025
 20
29311.46740090923
 30
0.0
 40
0.0880086252043227
100
AcDbArc
 50
78.3386303091323
 51
93.2983727138135
  0
ARC
  5
B2DA
330
1F
100
AcDbEntity
  8
0
 48
5.0
100
AcDbCircle
 10
10322.53367596833
 20
29311.39598243907
 30
0.0
 40
0.1595455998622007
100
AcDbArc
 50
93.29837276330001
 51
105.9104908439432
  0
ARC
  5
B2DB
330
1F
100
AcDbEntity
  8
0
 48
5.0
100
AcDbCircle
 10
10322.53230071984
 20
29311.46371214126
 30
0.0
 40
0.0817969954652327
100
AcDbArc
 50
67.55507153456767
 51
113.9948565266084
  0
ARC
  5
B2DC
330
1F
100
AcDbEntity
  8
0
 48
5.0
100
AcDbCircle
 10
10322.45835894216
 20
29311.62982822429
 30
0.0
 40
0.1000324288031476
100
AcDbArc
 50
273.9375110906077
 51
293.9948565726084
  0
ARC
  5
B2DD
330
1F
100
AcDbEntity
  8
0
 48
5.0
100
AcDbCircle
 10
10322.36377249569
 20
29313.00401355738
 30
0.0
 40
1.477469151677682
100
AcDbArc
 50
271.3230672098996
 51
273.9375110513272
  0
ARC
  5
B2DE
330
1F
100
AcDbEntity
  8
0
 48
5.0
100
AcDbCircle
 10
10322.39734883431
 20
29311.55023968719
 30
0.0
 40
0.0233075938880162
100
AcDbArc
 50
230.1260043900869
 51
271.3230671351549
  0
ARC
  5
B2DF
330
1F
100
AcDbEntity
  8
0
 48
5.0
100
AcDbCircle
 10
10322.38769404704
 20
29311.53868203559
 30
0.0
 40
0.0082479050562586
100
AcDbArc
 50
149.6985776766008
 51
230.126004421312
  0
ARC
  5
B2E0
330
1F
100
AcDbEntity
  8
0
 48
5.0
100
AcDbCircle
 10
10322.38546094309
 20
29311.53998703056
 30
0.0
 40
0.0056614470248233
100
AcDbArc
 50
92.18774937124988
 51
149.6985777982749
  0
ARC
  5
B2E1
330
1F
100
AcDbEntity
  8
0
 48
5.0
100
AcDbCircle
 10
10322.42960891874
 20
29311.73252697371
 30
0.0
 40
0.1920762550381221
100
AcDbArc
 50
256.6457387861321
 51
283.6524314224689
  0
ARC
  5
B2E2
330
1F
100
AcDbEntity
  8
0
 48
5.0
100
AcDbCircle
 10
10322.29525301503
 20
29311.59712573042
 30
0.0
 40
0.2798327922106194
100
AcDbArc
 50
301.427260034413
 51
312.5622627518503
  0
ARC
  5
B2E3
330
1F
100
AcDbEntity
  8
0
 48
5.0
100
AcDbCircle
 10
10322.58314181501
 20
29311.12599235933
 30
0.0
 40
0.2722963724898897
100
AcDbArc
 50
121.4272600316067
 51
126.5681563792115
  0
ARC
  5
B2E4
330
1F
100
AcDbEntity
  8
0
 48
5.0
100
AcDbCircle
 10
10322.47307989526
 20
29311.27436306346
 30
0.0
 40
0.087560095537371
100
AcDbArc
 50
126.5681563832965
 51
156.8584205521979
  0
ARC
  5
B2E5
330
1F
100
AcDbEntity
  8
0
 48
5.0
100
AcDbCircle
 10
10322.49352831736
 20
29311.26562352757
 30
0.0
 40
0.1097978439349141
100
AcDbArc
 50
156.8584204859908
 51
183.556126855847
  0
ARC
  5
B2E6
330
1F
100
AcDbEntity
  8
0
 48
5.0
100
AcDbCircle
 10
10322.27622307217
 20
29311.25211888836
 30
0.0
 40
0.1079266261333327
100
AcDbArc
 50
347.064441595827
 51
3.556126837891037
  0
ARC
  5
B2E7
330
1F
100
AcDbEntity
  8
0
 48
5.0
100
AcDbCircle
 10
10322.60681251518
 20
29311.20395528157
 30
0.0
 40
0.2266762379855648
100
AcDbArc
 50
173.9213146591043
 51
196.5350485316732
  0
ARC
  5
B2E8
330
1F
100
AcDbEntity
  8
0
 48
5.0
100
AcDbCircle
 10
10322.19160631864
 20
29311.08068928075
 30
0.0
 40
0.2064411740521682
100
AcDbArc
 50
359.9773859059128
 51
16.535048520822
  0
ARC
  5
B2E9
330
1F
100
AcDbEntity
  8
0
 48
5.0
100
AcDbCircle
 10
10322.5306002085
 20
29311.31506094855
 30
0.0
 40
0.1102262577376827
100
AcDbArc
 50
125.1261302289322
 51
157.1647705499692
  0
ARC
  5
B2EA
330
1F
100
AcDbEntity
  8
0
 48
5.0
100
AcDbCircle
 10
10322.44229313007
 20
29311.35224573464
 30
0.0
 40
0.0144095138099079
100
AcDbArc
 50
157.1647704716909
 51
189.6495026961316
  0
ARC
  5
B2EB
330
1F
100
AcDbEntity
  8
0
 48
5.0
100
AcDbCircle
 10
10322.48733397038
 20
29311.50295813365
 30
0.0
 40
0.1094106094842479
100
AcDbArc
 50
177.875080923403
 51
202.8245698846421
  0
ARC
  5
B2EC
330
1F
100
AcDbEntity
  8
0
 48
5.0
100
AcDbCircle
 10
10322.28104677257
 20
29311.41613886909
 30
0.0
 40
0.1144017956254309
100
AcDbArc
 50
4.497674364812571
 51
22.82456987418747
  0
ARC
  5
B2ED
330
1F
100
AcDbEntity
  8
0
 48
5.0
100
AcDbCircle
 10
10322.51886353773
 20
29311.44155625609
 30
0.0
 40
0.1248551664956699
100
AcDbArc
 50
187.5691033970346
 51
223.4922610313633
  0
ARC
  5
B2EE
330
1F
100
AcDbEntity
  8
0
 48
5.0
100
AcDbCircle
 10
10322.44894446559
 20
29311.20552076492
 30
0.0
 40
0.206588402553223
100
AcDbArc
 50
52.51106845551973
 51
78.95228014150454
  0
ARC
  5
B2EF
330
1F
100
AcDbEntity
  8
0
 48
5.0
100
AcDbCircle
 10
10322.50112858081
 20
29311.47279609686
 30
0.0
 40
0.0657336217881091
100
AcDbArc
 50
222.6925516938584
 51
258.9522801304671
  0
ARC
  5
B2F0
330
1F
100
AcDbEntity
  8
0
 48
5.0
100
AcDbCircle
 10
10322.72326438964
 20
29311.72951276335
 30
0.0
 40
0.4048678025771235
100
AcDbArc
 50
213.3957457115251
 51
228.0873925906815
  0
ARC
  5
B2F1
330
1F
100
AcDbEntity
  8
0
 48
5.0
100
AcDbCircle
 10
10322.42078207644
 20
29311.51593785715
 30
0.0
 40
0.0367268976377083
100
AcDbArc
 50
158.2845212914955
 51
194.6228900208447
  0
ARC
  5
B2F2
330
1F
100
AcDbEntity
  8
0
 48
5.0
100
AcDbCircle
 10
10322.3905540356
 20
29311.24681713627
 30
0.0
 40
0.2232573253779297
100
AcDbArc
 50
41.45990698146598
 51
66.34590306451113
  0
ARC
  5
B2F3
330
1F
100
AcDbEntity
  8
0
 48
5.0
100
AcDbCircle
 10
10322.56812822716
 20
29311.65222460744
 30
0.0
 40
0.2193348245582414
100
AcDbArc
 50
227.2334937185521
 51
246.3459030681514
  0
ARC
  5
B2F4
330
1F
100
AcDbEntity
  8
0
 48
5.0
100
AcDbCircle
 10
10322.45705940179
 20
29311.53214045138
 30
0.0
 40
0.055760717480263
100
AcDbArc
 50
185.261579115324
 51
227.2334937311645
  0
ARC
  5
B2F5
330
1F
100
AcDbEntity
  8
0
 48
5.0
100
AcDbCircle
 10
10322.571738345
 20
29311.59673247679
 30
0.0
 40
0.1543389038205161
100
AcDbArc
 50
212.2838624167592
 51
252.8980322145941
  0
ARC
  5
B2F6
330
1F
100
AcDbEntity
  8
0
 48
5.0
100
AcDbCircle
 10
10322.40437022751
 20
29311.23916011104
 30
0.0
 40
0.2429068193001518
100
AcDbArc
 50
26.35775636694523
 51
59.85614644315436
  0
ARC
  5
B2F7
330
1F
100
AcDbEntity
  8
0
 48
5.0
100
AcDbCircle
 10
10321.85083028146
 20
29310.98364693926
 30
0.0
 40
0.8741187154992967
100
AcDbArc
 50
22.26620163554594
 51
39.93319259595472
  0
ARC
  5
B2F8
330
1F
100
AcDbEntity
  8
0
 48
5.0
100
AcDbCircle
 10
10322.11331051223
 20
29311.13388676636
 30
0.0
 40
0.5589713983366301
100
AcDbArc
 50
21.75923118190684
 51
46.36467726066892
  0
ARC
  5
B2F9
330
1F
100
AcDbEntity
  8
0
 48
5.0
100
AcDbCircle
 10
10322.57497346915
 20
29311.47791269024
 30
0.0
 40
0.1149736210877055
100
AcDbArc
 50
236.4407182498128
 51
266.0704146980106
  0
ARC
  5
B2FA
330
1F
100
AcDbEntity
  8
0
 48
5.0
100
AcDbCircle
 10
10322.55803253025
 20
29311.23129075908
 30
0.0
 40
0.1322294782930171
100
AcDbArc
 50
36.9225310236852
 51
86.07041467398202
  0
ARC
  5
B2FB
330
1F
100
AcDbEntity
  8
0
 48
5.0
100
AcDbCircle
 10
10322.31665418374
 20
29311.04991029709
 30
0.0
 40
0.4341605600900841
100
AcDbArc
 50
13.77311703895659
 51
36.92253103029288
  0
ARC
  5
B2FC
330
1F
100
AcDbEntity
  8
0
 48
5.0
100
AcDbCircle
 10
10322.63221780646
 20
29311.0996248168
 30
0.0
 40
0.1189044153474155
100
AcDbArc
 50
330.1361679729981
 51
26.82058735730358
  0
ARC
  5
B2FD
330
1F
100
AcDbEntity
  8
0
 48
5.0
100
AcDbCircle
 10
10322.84753580335
 20
29310.97599227351
 30
0.0
 40
0.1293834126783327
100
AcDbArc
 50
150.1361679831329
 51
201.2247718421191
  0
ARC
  5
B2FE
330
1F
100
AcDbEntity
  8
0
 48
5.0
100
AcDbCircle
 10
10322.56451055124
 20
29310.86607321394
 30
0.0
 40
0.1742372272447444
100
AcDbArc
 50
350.5772907551734
 51
21.2247718052298
  0
ARC
  5
B2FF
330
1F
100
AcDbEntity
  8
0
 48
5.0
100
AcDbCircle
 10
10322.69063485581
 20
29310.84514210773
 30
0.0
 40
0.0463878963547471
100
AcDbArc
 50
328.280002556961
 51
350.5772908443372
  0
ARC
  5
B300
330
1F
100
AcDbEntity
  8
0
 48
5.0
100
AcDbCircle
 10
10322.72526514254
 20
29310.82373730601
 30
0.0
 40
0.005676444697668
100
AcDbArc
 50
243.5860131514368
 51
328.2800025454495
  0
ARC
  5
B301
330
1F
100
AcDbEntity
  8
0
 48
5.0
100
AcDbCircle
 10
10322.24441835323
 20
29310.86507882471
 30
0.0
 40
0.5546957199127917
100
AcDbArc
 50
30.67010562474217
 51
46.69507868164677
  0
ARC
  5
B302
330
1F
100
AcDbEntity
  8
0
 48
5.0
100
AcDbCircle
 10
10358.22845430932
 20
29349.04383952185
 30
0.0
 40
51.90927870118807
100
AcDbArc
 50
226.5786485380865
 51
226.6950786792896
  0
ARC
  5
B303
330
1F
100
AcDbEntity
  8
0
 48
5.0
100
AcDbCircle
 10
10322.38924995013
 20
29311.17322278836
 30
0.0
 40
0.2312255241625057
100
AcDbArc
 50
46.57864853941653
 51
54.3479200937329
  0
ARC
  5
B304
330
1F
100
AcDbEntity
  8
0
 48
5.0
100
AcDbCircle
 10
10323.08169641898
 20
29312.13856674142
 30
0.0
 40
0.9567858646439281
100
AcDbArc
 50
224.657139375376
 51
234.3479200935635
  0
ARC
  5
B305
330
1F
100
AcDbEntity
  8
0
 48
5.0
100
AcDbCircle
 10
10322.46484128208
 20
29311.52905035671
 30
0.0
 40
0.0895947189579516
100
AcDbArc
 50
194.2377444771256
 51
224.6571393888623
  0
ARC
  5
B306
330
1F
100
AcDbEntity
  8
0
 48
5.0
100
AcDbCircle
 10
10322.39168761295
 20
29311.51048834742
 30
0.0
 40
0.0141228202347744
100
AcDbArc
 50
145.1362412421524
 51
194.2377446025011
  0
ARC
  5
B307
330
1F
100
AcDbEntity
  8
0
 48
5.0
100
AcDbCircle
 10
10322.38981362666
 20
29311.51179389694
 30
0.0
 40
0.0118389016441794
100
AcDbArc
 50
112.1378230506596
 51
145.1362413058723
  0
ENDSEC
  0
SECTION
  2
OBJECTS
  0
DICTIONARY
  5
C
330
0
100
AcDbDictionary
281
     1
  3
ACAD_CIP_PREVIOUS_PRODUCT_INFO
350
1A5
  3
ACAD_COLOR
350
73
  3
ACAD_DETAILVIEWSTYLE
350
1AB
  3
ACAD_GROUP
350
D
  3
ACAD_LAYOUT
350
1A
  3
ACAD_MATERIAL
350
72
  3
ACAD_MLEADERSTYLE
350
D7
  3
ACAD_MLINESTYLE
350
17
  3
ACAD_PLOTSETTINGS
350
19
  3
ACAD_PLOTSTYLENAME
350
E
  3
ACAD_SCALELIST
350
B6
  3
ACAD_SECTIONVIEWSTYLE
350
1A8
  3
ACAD_TABLESTYLE
350
86
  3
ACAD_VISUALSTYLE
350
99
  3
ACDB_RECOMPOSE_DATA
350
B35F
  3
AcDbVariableDictionary
350
66
  3
AEC_PROPERTY_SET_DEFS
350
268B
  0
DICTIONARY
  5
18E
330
2
100
AcDbDictionary
280
     1
281
     1
  3
ACAD_LAYERSTATES
360
18F
  0
DICTIONARY
  5
E6
330
10
100
AcDbDictionary
280
     1
281
     1
  0
DICTIONARY
  5
15D
330
1F
100
AcDbDictionary
280
     1
281
     1
  3
ACAD_SORTENTS
360
28E
  0
XRECORD
  5
1A5
102
{ACAD_REACTORS
330
C
102
}
330
C
100
AcDbXrecord
280
     1
300
ACD
300
2022
300

  0
DICTIONARY
  5
73
102
{ACAD_REACTORS
330
C
102
}
330
C
100
AcDbDictionary
281
     1
  0
DICTIONARY
  5
1AB
102
{ACAD_REACTORS
330
C
102
}
330
C
100
AcDbDictionary
281
     1
  3
Imperial24
350
1AC
  3
Metric50
350
224
  0
DICTIONARY
  5
D
102
{ACAD_REACTORS
330
C
102
}
330
C
100
AcDbDictionary
281
     1
  0
DICTIONARY
  5
1A
102
{ACAD_REACTORS
330
C
102
}
330
C
100
AcDbDictionary
281
     1
  3
Layout1
350
59
  3
Layout2
350
5E
  3
Model
350
22
  0
DICTIONARY
  5
72
102
{ACAD_REACTORS
330
C
102
}
330
C
100
AcDbDictionary
281
     1
  3
ByBlock
350
97
  3
ByLayer
350
96
  3
Global
350
98
  0
DICTIONARY
  5
D7
102
{ACAD_REACTORS
330
C
102
}
330
C
100
AcDbDictionary
281
     1
  3
Standard
350
D8
  0
DICTIONARY
  5
17
102
{ACAD_REACTORS
330
C
102
}
330
C
100
AcDbDictionary
281
     1
  3
Standard
350
18
  0
DICTIONARY
  5
19
102
{ACAD_REACTORS
330
C
102
}
330
C
100
AcDbDictionary
281
     1
  0
ACDBDICTIONARYWDFLT
  5
E
102
{ACAD_REACTORS
330
C
102
}
330
C
100
AcDbDictionary
281
     1
  3
Normal
350
F
100
AcDbDictionaryWithDefault
340
F
  0
DICTIONARY
  5
B6
102
{ACAD_REACTORS
330
C
102
}
330
C
100
AcDbDictionary
281
     1
  3
*A1
350
47D1
  3
*A2
350
8BD6
  3
A0
350
B7
  3
A1
350
124
  3
A2
350
125
  3
A3
350
126
  3
A4
350
127
  3
A5
350
128
  3
A6
350
129
  3
A7
350
12A
  3
A8
350
12B
  3
A9
350
12C
  3
B0
350
12D
  3
B1
350
12E
  3
B2
350
12F
  3
B3
350
130
  3
B4
350
131
  3
B5
350
132
  3
B6
350
133
  3
B7
350
134
  3
B8
350
135
  3
B9
350
136
  3
C0
350
137
  3
C1
350
138
  3
C2
350
139
  3
C3
350
13A
  3
C4
350
13B
  3
C5
350
13C
  3
C6
350
13D
  3
C7
350
13E
  3
C8
350
13F
  3
C9
350
140
  3
D0
350
141
  3
D1
350
142
  3
D2
350
143
  0
DICTIONARY
  5
1A8
102
{ACAD_REACTORS
330
C
102
}
330
C
100
AcDbDictionary
281
     1
  3
Imperial24
350
1AA
  3
Metric50
350
223
  0
DICTIONARY
  5
86
102
{ACAD_REACTORS
330
C
102
}
330
C
100
AcDbDictionary
281
     1
  3
Standard
350
87
  0
DICTIONARY
  5
99
102
{ACAD_REACTORS
330
C
102
}
330
C
100
AcDbDictionary
281
     1
  3
2dWireframe
350
9F
  3
3dWireframe
350
2684
  3
Basic
350
9E
  3
Brighten
350
A5
  3
ColorChange
350
A9
  3
Conceptual
350
A2
  3
Dim
350
A4
  3
EdgeColorOff
350
175
  3
Facepattern
350
A8
  3
Flat
350
9A
  3
FlatWithEdges
350
9B
  3
Gouraud
350
9C
  3
GouraudWithEdges
350
9D
  3
Hidden
350
A1
  3
JitterOff
350
173
  3
Linepattern
350
A7
  3
OverhangOff
350
174
  3
Realistic
350
A3
  3
Shaded
350
182
  3
Shaded with edges
350
181
  3
Shades of Gray
350
17E
  3
Sketchy
350
17F
  3
Thicken
350
A6
  3
Wireframe
350
A0
  3
X-Ray
350
180
  0
XRECORD
  5
B35F
102
{ACAD_REACTORS
330
C
102
}
330
C
100
AcDbXrecord
280
     1
 90
        1
330
87
  0
DICTIONARY
  5
66
102
{ACAD_REACTORS
330
C
102
}
330
C
100
AcDbDictionary
281
     1
  3
CANNOSCALE
350
F0
  3
CMLEADERSTYLE
350
EF
  3
CTABLESTYLE
350
89
  3
CVIEWDETAILSTYLE
350
1B7
  3
CVIEWSECTIONSTYLE
350
1B8
  3
DIMASSOC
350
67
  3
HIDETEXT
350
6B
  3
LAYEREVAL
350
14D
  3
LAYERNOTIFY
350
14E
  0
DICTIONARY
  5
268B
102
{ACAD_REACTORS
330
C
102
}
330
C
100
AcDbDictionary
281
     1
  0
DICTIONARY
  5
18F
102
{ACAD_REACTORS
330
18E
102
}
330
18E
100
AcDbDictionary
281
     1
  0
SORTENTSTABLE
  5
28E
102
{ACAD_REACTORS
330
15D
102
}
330
15D
100
AcDbSortentsTable
330
1F
  0
ACDBDETAILVIEWSTYLE
  5
1AC
102
{ACAD_REACTORS
330
1AB
102
}
330
1AB
100
AcDbModelDocViewStyle
 70
     0
  3
Imperial24
290
     0
300
Imperial24
 90
        0
100
AcDbDetailViewStyle
 70
     0
 71
     0
 90
        3
 71
     1
340
11
 62
   256
 40
0.24
340
0
 62
   256
 40
0.24
300

 40
0.36
280
     3
 71
     2
340
16
 90
       25
 62
   256
 71
     3
340
11
 62
   256
 40
0.24
 90
        1
 40
0.75
 90
        1
300
%<\AcVar ViewType \f "%tc1">% %<\AcVar ViewDetailId>%\PSCALE %<\AcVar ViewScale \f "%sn">%
 71
     4
340
16
 90
       25
 62
   256
340
16
 90
       25
 62
   256
280
     0
  0
ACDBDETAILVIEWSTYLE
  5
224
102
{ACAD_REACTORS
330
1AB
102
}
330
1AB
100
AcDbModelDocViewStyle
 70
     0
  3
Metric50
290
     0
300
Metric50
 90
        0
100
AcDbDetailViewStyle
 70
     0
 71
     0
 90
        3
 71
     1
340
11
 62
   256
 40
5.0
340
0
 62
   256
 40
5.0
300

 40
0.0
280
     1
 71
     2
340
16
 90
       25
 62
   256
 71
     3
340
11
 62
   256
 40
5.0
 90
        0
 40
15.0
 90
        1
300
%<\AcVar ViewDetailId>% (%<\AcVar ViewScale \f "%sn">%)
 71
     4
340
16
 90
       25
 62
   256
340
16
 90
       25
 62
   256
280
     0
  0
LAYOUT
  5
59
102
{ACAD_REACTORS
330
1A
102
}
330
1A
100
AcDbPlotSettings
  1

  2
None
  4

  6

 40
0.0
 41
0.0
 42
0.0
 43
0.0
 44
0.0
 45
0.0
 46
0.0
 47
0.0
 48
0.0
 49
0.0
140
0.0
141
0.0
142
1.0
143
1.0
 70
   688
 72
     0
 73
     0
 74
     5
  7

 75
    16
147
1.0
 76
     0
 77
     2
 78
   300
148
0.0
149
0.0
100
AcDbLayout
  1
Layout1
 70
     1
 71
     1
 10
0.0
 20
0.0
 11
12.0
 21
9.0
 12
0.0
 22
0.0
 32
0.0
 14
0.0
 24
0.0
 34
0.0
 15
0.0
 25
0.0
 35
0.0
146
0.0
 13
0.0
 23
0.0
 33
0.0
 16
1.0
 26
0.0
 36
0.0
 17
0.0
 27
1.0
 37
0.0
 76
     0
330
58
  0
LAYOUT
  5
5E
102
{ACAD_REACTORS
330
1A
102
}
330
1A
100
AcDbPlotSettings
  1

  2
None
  4

  6

 40
0.0
 41
0.0
 42
0.0
 43
0.0
 44
0.0
 45
0.0
 46
0.0
 47
0.0
 48
0.0
 49
0.0
140
0.0
141
0.0
142
1.0
143
1.0
 70
   688
 72
     0
 73
     0
 74
     5
  7

 75
    16
147
1.0
 76
     0
 77
     2
 78
   300
148
0.0
149
0.0
100
AcDbLayout
  1
Layout2
 70
     1
 71
     2
 10
0.0
 20
0.0
 11
12.0
 21
9.0
 12
0.0
 22
0.0
 32
0.0
 14
0.0
 24
0.0
 34
0.0
 15
0.0
 25
0.0
 35
0.0
146
0.0
 13
0.0
 23
0.0
 33
0.0
 16
1.0
 26
0.0
 36
0.0
 17
0.0
 27
1.0
 37
0.0
 76
     0
330
5D
  0
LAYOUT
  5
22
102
{ACAD_XDICTIONARY
360
194
102
}
102
{ACAD_REACTORS
330
1A
102
}
330
1A
100
AcDbPlotSettings
  1

  2
none_device
  4
ANSI_A_(8.50_x_11.00_Inches)
  6

 40
6.349999904632568
 41
19.04999923706055
 42
6.350006103515625
 43
19.04998779296875
 44
215.8999938964844
 45
279.3999938964844
 46
0.0
 47
0.0
 48
0.0
 49
0.0
140
0.0
141
0.0
142
1.0
143
2.584895464708373
 70
 11952
 72
     0
 73
     1
 74
     0
  7

 75
     0
147
0.3868628397755418
 76
     0
 77
     2
 78
   300
148
0.0
149
0.0
100
AcDbLayout
  1
Model
 70
     1
 71
     0
 10
0.0
 20
0.0
 11
12.0
 21
9.0
 12
0.0
 22
0.0
 32
0.0
 14
0.0
 24
0.0
 34
0.0
 15
0.0
 25
0.0
 35
0.0
146
0.0
 13
0.0
 23
0.0
 33
0.0
 16
1.0
 26
0.0
 36
0.0
 17
0.0
 27
1.0
 37
0.0
 76
     0
330
1F
331
94
  0
MATERIAL
  5
97
102
{ACAD_XDICTIONARY
360
188
102
}
102
{ACAD_REACTORS
330
72
102
}
330
72
100
AcDbMaterial
  1
ByBlock
 94
       63
  0
MATERIAL
  5
96
102
{ACAD_XDICTIONARY
360
186
102
}
102
{ACAD_REACTORS
330
72
102
}
330
72
100
AcDbMaterial
  1
ByLayer
 94
       63
  0
MATERIAL
  5
98
102
{ACAD_XDICTIONARY
360
110
102
}
102
{ACAD_REACTORS
330
72
102
}
330
72
100
AcDbMaterial
  1
Global
 43
0.0208000000566244
 43
0.0
 43
0.0
 43
0.0
 43
0.0
 43
0.0208000000566244
 43
0.0
 43
0.0
 43
0.0
 43
0.0
 43
1.0
 43
0.0
 43
0.0
 43
0.0
 43
0.0
 43
1.0
 49
0.0208000000566244
 49
0.0
 49
0.0
 49
0.0
 49
0.0
 49
0.0208000000566244
 49
0.0
 49
0.0
 49
0.0
 49
0.0
 49
1.0
 49
0.0
 49
0.0
 49
0.0
 49
0.0
 49
1.0
142
0.0208000000566244
142
0.0
142
0.0
142
0.0
142
0.0
142
0.0208000000566244
142
0.0
142
0.0
142
0.0
142
0.0
142
1.0
142
0.0
142
0.0
142
0.0
142
0.0
142
1.0
144
0.0208000000566244
144
0.0
144
0.0
144
0.0
144
0.0
144
0.0208000000566244
144
0.0
144
0.0
144
0.0
144
0.0
144
1.0
144
0.0
144
0.0
144
0.0
144
0.0
144
1.0
 94
       63
1001
ACAD
1070
    -1
1070
     3
1070
     0
1000

1071
        0
1070
     0
  0
MLEADERSTYLE
  5
D8
102
{ACAD_REACTORS
330
D7
102
}
330
D7
100
AcDbMLeaderStyle
179
     2
170
     2
171
     1
172
     0
 90
        2
 40
0.0
 41
0.0
173
     1
 91
-1056964608
340
14
 92
       -2
290
     1
 42
0.09
291
     1
 43
0.36
  3
Standard
 44
0.18
300

342
11
174
     1
178
     1
175
     1
176
     0
 93
-1056964608
 45
0.18
292
     0
297
     0
 46
0.18
 94
-1056964608
 47
1.0
 49
1.0
140
1.0
293
     1
141
0.0
294
     1
177
     0
142
1.0
295
     0
296
     0
143
0.125
271
     0
272
     9
273
     9
298
     0
  0
MLINESTYLE
  5
18
102
{ACAD_REACTORS
330
17
102
}
330
17
100
AcDbMlineStyle
  2
STANDARD
 70
     0
  3

 62
   256
 51
90.0
 52
90.0
 71
     2
 49
0.5
 62
   256
  6
BYLAYER
 49
-0.5
 62
   256
  6
BYLAYER
  0
ACDBPLACEHOLDER
  5
F
102
{ACAD_REACTORS
330
E
102
}
330
E
  0
SCALE
  5
47D1
102
{ACAD_REACTORS
330
B6
102
}
330
B6
100
AcDbScale
 70
     0
300
1:100_1_XREF_XREF_XREF_XREF
140
1.0
141
0.1
290
     0
  0
SCALE
  5
8BD6
102
{ACAD_REACTORS
330
B6
102
}
330
B6
100
AcDbScale
 70
     0
300
1:100_1_XREF_XREF_XREF_XREF_XREF_XREF_XREF_XREF_XREF
140
1.0
141
0.1
290
     0
1001
ACAD
1000
AcRTDxfName
1000
SCALE
1000
AcRTDxfName
1000
SCALE
1000
AcRTDxfName
1000
SCALE
1000
AcRTDxfName
1000
SCALE
  0
SCALE
  5
B7
102
{ACAD_REACTORS
330
B6
102
}
330
B6
100
AcDbScale
 70
     0
300
1:1
140
1.0
141
1.0
290
     1
  0
SCALE
  5
124
102
{ACAD_REACTORS
330
B6
102
}
330
B6
100
AcDbScale
 70
     0
300
1:2
140
1.0
141
2.0
290
     0
  0
SCALE
  5
125
102
{ACAD_REACTORS
330
B6
102
}
330
B6
100
AcDbScale
 70
     0
300
1:4
140
1.0
141
4.0
290
     0
  0
SCALE
  5
126
102
{ACAD_REACTORS
330
B6
102
}
330
B6
100
AcDbScale
 70
     0
300
1:5
140
1.0
141
5.0
290
     0
  0
SCALE
  5
127
102
{ACAD_REACTORS
330
B6
102
}
330
B6
100
AcDbScale
 70
     0
300
1:8
140
1.0
141
8.0
290
     0
  0
SCALE
  5
128
102
{ACAD_REACTORS
330
B6
102
}
330
B6
100
AcDbScale
 70
     0
300
1:10
140
1.0
141
10.0
290
     0
  0
SCALE
  5
129
102
{ACAD_REACTORS
330
B6
102
}
330
B6
100
AcDbScale
 70
     0
300
1:16
140
1.0
141
16.0
290
     0
  0
SCALE
  5
12A
102
{ACAD_REACTORS
330
B6
102
}
330
B6
100
AcDbScale
 70
     0
300
1:20
140
1.0
141
20.0
290
     0
  0
SCALE
  5
12B
102
{ACAD_REACTORS
330
B6
102
}
330
B6
100
AcDbScale
 70
     0
300
1:30
140
1.0
141
30.0
290
     0
  0
SCALE
  5
12C
102
{ACAD_REACTORS
330
B6
102
}
330
B6
100
AcDbScale
 70
     0
300
1:40
140
1.0
141
40.0
290
     0
  0
SCALE
  5
12D
102
{ACAD_REACTORS
330
B6
102
}
330
B6
100
AcDbScale
 70
     0
300
1:50
140
1.0
141
50.0
290
     0
  0
SCALE
  5
12E
102
{ACAD_REACTORS
330
B6
102
}
330
B6
100
AcDbScale
 70
     0
300
1:100
140
1.0
141
100.0
290
     0
  0
SCALE
  5
12F
102
{ACAD_REACTORS
330
B6
102
}
330
B6
100
AcDbScale
 70
     0
300
2:1
140
2.0
141
1.0
290
     0
  0
SCALE
  5
130
102
{ACAD_REACTORS
330
B6
102
}
330
B6
100
AcDbScale
 70
     0
300
4:1
140
4.0
141
1.0
290
     0
  0
SCALE
  5
131
102
{ACAD_REACTORS
330
B6
102
}
330
B6
100
AcDbScale
 70
     0
300
8:1
140
8.0
141
1.0
290
     0
  0
SCALE
  5
132
102
{ACAD_REACTORS
330
B6
102
}
330
B6
100
AcDbScale
 70
     0
300
10:1
140
10.0
141
1.0
290
     0
  0
SCALE
  5
133
102
{ACAD_REACTORS
330
B6
102
}
330
B6
100
AcDbScale
 70
     0
300
100:1
140
100.0
141
1.0
290
     0
  0
SCALE
  5
134
102
{ACAD_REACTORS
330
B6
102
}
330
B6
100
AcDbScale
 70
     0
300
1/128" = 1'-0"
140
0.0078125
141
12.0
290
     0
  0
SCALE
  5
135
102
{ACAD_REACTORS
330
B6
102
}
330
B6
100
AcDbScale
 70
     0
300
1/64" = 1'-0"
140
0.015625
141
12.0
290
     0
  0
SCALE
  5
136
102
{ACAD_REACTORS
330
B6
102
}
330
B6
100
AcDbScale
 70
     0
300
1/32" = 1'-0"
140
0.03125
141
12.0
290
     0
  0
SCALE
  5
137
102
{ACAD_REACTORS
330
B6
102
}
330
B6
100
AcDbScale
 70
     0
300
1/16" = 1'-0"
140
0.0625
141
12.0
290
     0
  0
SCALE
  5
138
102
{ACAD_REACTORS
330
B6
102
}
330
B6
100
AcDbScale
 70
     0
300
3/32" = 1'-0"
140
0.09375
141
12.0
290
     0
  0
SCALE
  5
139
102
{ACAD_REACTORS
330
B6
102
}
330
B6
100
AcDbScale
 70
     0
300
1/8" = 1'-0"
140
0.125
141
12.0
290
     0
  0
SCALE
  5
13A
102
{ACAD_REACTORS
330
B6
102
}
330
B6
100
AcDbScale
 70
     0
300
3/16" = 1'-0"
140
0.1875
141
12.0
290
     0
  0
SCALE
  5
13B
102
{ACAD_REACTORS
330
B6
102
}
330
B6
100
AcDbScale
 70
     0
300
1/4" = 1'-0"
140
0.25
141
12.0
290
     0
  0
SCALE
  5
13C
102
{ACAD_REACTORS
330
B6
102
}
330
B6
100
AcDbScale
 70
     0
300
3/8" = 1'-0"
140
0.375
141
12.0
290
     0
  0
SCALE
  5
13D
102
{ACAD_REACTORS
330
B6
102
}
330
B6
100
AcDbScale
 70
     0
300
1/2" = 1'-0"
140
0.5
141
12.0
290
     0
  0
SCALE
  5
13E
102
{ACAD_REACTORS
330
B6
102
}
330
B6
100
AcDbScale
 70
     0
300
3/4" = 1'-0"
140
0.75
141
12.0
290
     0
  0
SCALE
  5
13F
102
{ACAD_REACTORS
330
B6
102
}
330
B6
100
AcDbScale
 70
     0
300
1" = 1'-0"
140
1.0
141
12.0
290
     0
  0
SCALE
  5
140
102
{ACAD_REACTORS
330
B6
102
}
330
B6
100
AcDbScale
 70
     0
300
1-1/2" = 1'-0"
140
1.5
141
12.0
290
     0
  0
SCALE
  5
141
102
{ACAD_REACTORS
330
B6
102
}
330
B6
100
AcDbScale
 70
     0
300
3" = 1'-0"
140
3.0
141
12.0
290
     0
  0
SCALE
  5
142
102
{ACAD_REACTORS
330
B6
102
}
330
B6
100
AcDbScale
 70
     0
300
6" = 1'-0"
140
6.0
141
12.0
290
     0
  0
SCALE
  5
143
102
{ACAD_REACTORS
330
B6
102
}
330
B6
100
AcDbScale
 70
     0
300
1'-0" = 1'-0"
140
12.0
141
12.0
290
     0
  0
ACDBSECTIONVIEWSTYLE
  5
1AA
102
{ACAD_REACTORS
330
1A8
102
}
330
1A8
100
AcDbModelDocViewStyle
 70
     0
  3
Imperial24
290
     0
300
Imperial24
 90
        0
100
AcDbSectionViewStyle
 70
     0
 71
     0
 90
       78
 71
     1
340
11
 62
   256
 40
0.24
340
0
340
0
 62
   256
 40
0.24
300
I, O, Q, S, X, Z
 40
0.48
 90
        3
 40
0.18
 90
        1
 71
     2
340
16
 90
       25
 62
   256
340
16
 90
       50
 62
   256
 40
0.24
 40
0.0
 40
0.24
 71
     3
340
11
 62
   256
 40
0.24
 90
        1
 40
0.75
 90
        1
300
%<\AcVar ViewType \f "%tc1">% %<\AcVar ViewSectionStartId>%-%<\AcVar ViewSectionEndId>%\PSCALE %<\AcVar ViewScale \f "%sn">%
 71
     4
 62
   256
 62
   257
300
ANSI31
 40
1.0
 90
        0
290
     0
290
     0
 90
        6
 40
0.0
 40
1.570796326794896
 40
0.2617993877991494
 40
1.308996938995747
 40
-0.2617993877991494
 40
1.832595714594046
  0
ACDBSECTIONVIEWSTYLE
  5
223
102
{ACAD_REACTORS
330
1A8
102
}
330
1A8
100
AcDbModelDocViewStyle
 70
     0
  3
Metric50
290
     0
300
Metric50
 90
        0
100
AcDbSectionViewStyle
 70
     0
 71
     0
 90
      102
 71
     1
340
11
 62
   256
 40
5.0
340
0
340
0
 62
   256
 40
5.0
300
I, O, Q, S, X, Z
 40
10.0
 90
        0
 40
2.5
 90
        0
 71
     2
340
16
 90
       25
 62
   256
340
16
 90
       50
 62
   256
 40
5.0
 40
2.5
 40
5.0
 71
     3
340
11
 62
   256
 40
5.0
 90
        0
 40
15.0
 90
        1
300
%<\AcVar ViewSectionStartId>%-%<\AcVar ViewSectionEndId>% (%<\AcVar ViewScale \f "%sn">%)
 71
     4
 62
   256
 62
   257
300
ANSI31
 40
1.0
 90
        0
290
     0
290
     0
 90
        6
 40
0.0
 40
1.570796326794896
 40
0.2617993877991494
 40
1.308996938995747
 40
-0.2617993877991494
 40
1.832595714594046
  0
TABLESTYLE
  5
87
102
{ACAD_XDICTIONARY
360
104
102
}
102
{ACAD_REACTORS
330
86
102
}
330
86
100
AcDbTableStyle
280
     0
  3
Standard
 70
     0
 71
     0
 40
0.06
 41
0.06
280
     0
281
     0
  7
Standard
140
0.18
170
     2
 62
     0
 63
     7
283
     0
 90
      512
 91
        0
  1

274
    -2
284
     1
 64
     0
275
    -2
285
     1
 65
     0
276
    -2
286
     1
 66
     0
277
    -2
287
     1
 67
     0
278
    -2
288
     1
 68
     0
279
    -2
289
     1
 69
     0
  7
Standard
140
0.25
170
     5
 62
     0
 63
     7
283
     0
 90
      512
 91
        0
  1

274
    -2
284
     1
 64
     0
275
    -2
285
     1
 65
     0
276
    -2
286
     1
 66
     0
277
    -2
287
     1
 67
     0
278
    -2
288
     1
 68
     0
279
    -2
289
     1
 69
     0
  7
Standard
140
0.18
170
     5
 62
     0
 63
     7
283
     0
 90
      512
 91
        0
  1

274
    -2
284
     1
 64
     0
275
    -2
285
     1
 65
     0
276
    -2
286
     1
 66
     0
277
    -2
287
     1
 67
     0
278
    -2
288
     1
 68
     0
279
    -2
289
     1
 69
     0
  0
VISUALSTYLE
  5
9F
102
{ACAD_REACTORS
330
99
102
}
330
99
100
AcDbVisualStyle
  2
2dWireframe
 70
     4
177
     3
291
     0
 70
    58
 90
        0
176
     1
 90
        2
176
     1
 90
        1
176
     1
 90
        0
176
     1
 40
0.6
176
     1
 40
30.0
176
     1
 62
     7
420
 16777215
176
     1
 90
        1
176
     1
 90
        4
176
     1
 62
     7
176
     1
 62
   257
176
     1
 90
        1
176
     1
 90
        1
176
     1
 40
1.0
176
     1
 90
        0
176
     1
 62
   257
176
     1
 40
1.0
176
     1
 90
        1
176
     1
 90
        6
176
     1
 90
        2
176
     1
 62
     7
176
     1
 90
        5
176
     1
 90
        0
176
     1
 90
        0
176
     1
290
     0
176
     1
 90
        1
176
     1
 40
0.0
176
     1
 90
        0
176
     1
290
     1
176
     1
290
     1
176
     1
290
     0
176
     1
290
     0
176
     1
290
     0
176
     1
290
     0
176
     1
290
     0
176
     1
290
     0
176
     1
290
     0
176
     1
 90
       50
176
     1
 40
0.0
176
     1
 40
1.0
176
     1
 90
        0
176
     1
 62
    18
420
        0
176
     1
 90
       50
176
     1
 90
        3
176
     1
 62
     5
420
      255
176
     1
290
     0
176
     1
 90
       50
176
     1
 90
       50
176
     1
 90
       50
176
     1
290
     0
176
     1
 90
       50
176
     1
 62
   256
176
     0
 40
1.0
176
     0
 90
        2
176
     1
  1
strokes_ogs.tif
176
     1
290
     0
176
     1
 40
1.0
176
     1
 40
1.0
176
     1
  0
VISUALSTYLE
  5
2684
102
{ACAD_REACTORS
330
99
102
}
330
99
100
AcDbVisualStyle
  2
3dWireframe
 70
     5
177
     3
291
     0
 70
    58
 90
        0
176
     1
 90
        2
176
     1
 90
        0
176
     1
 90
        0
176
     1
 40
0.6
176
     1
 40
30.0
176
     1
 62
     7
176
     1
 90
        1
176
     1
 90
        4
176
     1
 62
     7
176
     1
 62
   257
176
     1
 90
        1
176
     1
 90
        1
176
     1
 40
1.0
176
     1
 90
        0
176
     1
 62
   257
176
     1
 40
1.0
176
     1
 90
        1
176
     1
 90
        6
176
     1
 90
        2
176
     1
 62
     7
176
     1
 90
        5
176
     1
 90
        0
176
     1
 90
        0
176
     1
290
     0
176
     1
 90
        1
176
     1
 40
0.0
176
     1
 90
        0
176
     1
290
     0
176
     1
290
     1
176
     1
290
     1
176
     1
290
     0
176
     1
290
     0
176
     1
290
     0
176
     1
290
     0
176
     1
290
     0
176
     1
290
     0
176
     1
 90
       50
176
     1
 40
0.0
176
     1
 40
1.0
176
     1
 90
        0
176
     1
 62
    18
420
        0
176
     1
 90
       50
176
     1
 90
        3
176
     1
 62
     5
420
      255
176
     1
290
     0
176
     1
 90
       50
176
     1
 90
       50
176
     1
 90
       50
176
     1
290
     0
176
     1
 90
       50
176
     1
 62
   256
176
     0
 40
1.0
176
     0
 90
        2
176
     1
  1
strokes_ogs.tif
176
     1
290
     0
176
     1
 40
1.0
176
     1
 40
1.0
176
     1
1001
ACAD
1000
AcRTDxfName
1000
VISUALSTYLE
  0
VISUALSTYLE
  5
9E
102
{ACAD_REACTORS
330
99
102
}
330
99
100
AcDbVisualStyle
  2
Basic
 70
     7
177
     3
291
     1
 70
    58
 90
        1
176
     1
 90
        0
176
     1
 90
        1
176
     1
 90
        0
176
     1
 40
0.6
176
     1
 40
30.0
176
     1
 62
     7
420
 16777215
176
     1
 90
        0
176
     1
 90
        4
176
     1
 62
     7
176
     1
 62
   257
176
     1
 90
        1
176
     1
 90
        1
176
     1
 40
1.0
176
     1
 90
        8
176
     1
 62
     7
176
     1
 40
1.0
176
     1
 90
        1
176
     1
 90
        6
176
     1
 90
        2
176
     1
 62
     7
176
     1
 90
        5
176
     1
 90
        0
176
     1
 90
        0
176
     1
290
     0
176
     1
 90
        1
176
     1
 40
0.0
176
     1
 90
        0
176
     1
290
     0
176
     1
290
     1
176
     1
290
     1
176
     1
290
     0
176
     1
290
     0
176
     1
290
     0
176
     1
290
     0
176
     1
290
     0
176
     1
290
     0
176
     1
 90
       50
176
     1
 40
0.0
176
     1
 40
1.0
176
     1
 90
        0
176
     1
 62
    18
420
        0
176
     1
 90
       50
176
     1
 90
        3
176
     1
 62
     5
420
      255
176
     1
290
     0
176
     1
 90
       50
176
     1
 90
       50
176
     1
 90
       50
176
     1
290
     0
176
     1
 90
       50
176
     1
 62
   256
176
     0
 40
1.0
176
     0
 90
        2
176
     1
  1
strokes_ogs.tif
176
     1
290
     0
176
     1
 40
1.0
176
     1
 40
1.0
176
     1
  0
VISUALSTYLE
  5
A5
102
{ACAD_REACTORS
330
99
102
}
330
99
100
AcDbVisualStyle
  2
Brighten
 70
    12
177
     3
291
     1
 70
    58
 90
        2
176
     1
 90
        2
176
     1
 90
        1
176
     1
 90
        0
176
     1
 40
0.6
176
     1
 40
30.0
176
     1
 62
     7
420
 16777215
176
     1
 90
        1
176
     1
 90
        4
176
     1
 62
     7
176
     1
 62
   257
176
     1
 90
        1
176
     1
 90
        1
176
     1
 40
1.0
176
     1
 90
        8
176
     1
 62
     7
176
     1
 40
1.0
176
     1
 90
        1
176
     1
 90
        6
176
     1
 90
        2
176
     1
 62
     7
176
     1
 90
        5
176
     1
 90
        0
176
     1
 90
        0
176
     1
290
     0
176
     1
 90
        1
176
     1
 40
50.0
176
     1
 90
        0
176
     1
290
     0
176
     1
290
     1
176
     1
290
     1
176
     1
290
     0
176
     1
290
     0
176
     1
290
     0
176
     1
290
     0
176
     1
290
     0
176
     1
290
     0
176
     1
 90
       50
176
     1
 40
0.0
176
     1
 40
1.0
176
     1
 90
        0
176
     1
 62
    18
420
        0
176
     1
 90
       50
176
     1
 90
        3
176
     1
 62
     5
420
      255
176
     1
290
     0
176
     1
 90
       50
176
     1
 90
       50
176
     1
 90
       50
176
     1
290
     0
176
     1
 90
       50
176
     1
 62
   256
176
     0
 40
1.0
176
     0
 90
        2
176
     1
  1
strokes_ogs.tif
176
     1
290
     0
176
     1
 40
1.0
176
     1
 40
1.0
176
     1
  0
VISUALSTYLE
  5
A9
102
{ACAD_REACTORS
330
99
102
}
330
99
100
AcDbVisualStyle
  2
ColorChange
 70
    16
177
     3
291
     1
 70
    58
 90
        2
176
     1
 90
        2
176
     1
 90
        3
176
     1
 90
        0
176
     1
 40
0.6
176
     1
 40
30.0
176
     1
 62
     8
420
  8421504
176
     1
 90
        1
176
     1
 90
        4
176
     1
 62
     7
176
     1
 62
   257
176
     1
 90
        1
176
     1
 90
        1
176
     1
 40
1.0
176
     1
 90
        8
176
     1
 62
     8
420
  8421504
176
     1
 40
1.0
176
     1
 90
        1
176
     1
 90
        6
176
     1
 90
        2
176
     1
 62
     7
176
     1
 90
        5
176
     1
 90
        0
176
     1
 90
        0
176
     1
290
     0
176
     1
 90
        1
176
     1
 40
0.0
176
     1
 90
        0
176
     1
290
     0
176
     1
290
     1
176
     1
290
     1
176
     1
290
     0
176
     1
290
     0
176
     1
290
     0
176
     1
290
     0
176
     1
290
     0
176
     1
290
     0
176
     1
 90
       50
176
     1
 40
0.0
176
     1
 40
1.0
176
     1
 90
        0
176
     1
 62
    18
420
        0
176
     1
 90
       50
176
     1
 90
        3
176
     1
 62
     5
420
      255
176
     1
290
     0
176
     1
 90
       50
176
     1
 90
       50
176
     1
 90
       50
176
     1
290
     0
176
     1
 90
       50
176
     1
 62
   256
176
     0
 40
1.0
176
     0
 90
        2
176
     1
  1
strokes_ogs.tif
176
     1
290
     0
176
     1
 40
1.0
176
     1
 40
1.0
176
     1
  0
VISUALSTYLE
  5
A2
102
{ACAD_REACTORS
330
99
102
}
330
99
100
AcDbVisualStyle
  2
Conceptual
 70
     9
177
     3
291
     0
 70
    58
 90
        3
176
     1
 90
        2
176
     1
 90
        1
176
     1
 90
        0
176
     1
 40
0.6
176
     1
 40
30.0
176
     1
 62
     7
420
 16777215
176
     1
 90
        2
176
     1
 90
        2
176
     1
 62
     7
176
     1
 62
   257
176
     1
 90
        1
176
     1
 90
        1
176
     1
 40
40.0
176
     1
 90
        8
176
     1
 62
     7
176
     1
 40
1.0
176
     1
 90
        1
176
     1
 90
        6
176
     1
 90
        2
176
     1
 62
     7
176
     1
 90
        3
176
     1
 90
        0
176
     1
 90
        0
176
     1
290
     0
176
     1
 90
        1
176
     1
 40
0.0
176
     1
 90
        0
176
     1
290
     0
176
     1
290
     1
176
     1
290
     1
176
     1
290
     0
176
     1
290
     0
176
     1
290
     0
176
     1
290
     0
176
     1
290
     0
176
     1
290
     0
176
     1
 90
       50
176
     1
 40
0.0
176
     1
 40
1.0
176
     1
 90
        0
176
     1
 62
    18
420
        0
176
     1
 90
       50
176
     1
 90
        3
176
     1
 62
     5
420
      255
176
     1
290
     0
176
     1
 90
       50
176
     1
 90
       50
176
     1
 90
       50
176
     1
290
     0
176
     1
 90
       50
176
     1
 62
   256
176
     0
 40
1.0
176
     0
 90
        2
176
     1
  1
strokes_ogs.tif
176
     1
290
     0
176
     1
 40
1.0
176
     1
 40
1.0
176
     1
  0
VISUALSTYLE
  5
A4
102
{ACAD_REACTORS
330
99
102
}
330
99
100
AcDbVisualStyle
  2
Dim
 70
    11
177
     3
291
     1
 70
    58
 90
        2
176
     1
 90
        2
176
     1
 90
        1
176
     1
 90
        0
176
     1
 40
0.6
176
     1
 40
30.0
176
     1
 62
     7
420
 16777215
176
     1
 90
        1
176
     1
 90
        4
176
     1
 62
     7
176
     1
 62
   257
176
     1
 90
        1
176
     1
 90
        1
176
     1
 40
1.0
176
     1
 90
        8
176
     1
 62
     7
176
     1
 40
1.0
176
     1
 90
        1
176
     1
 90
        6
176
     1
 90
        2
176
     1
 62
     7
176
     1
 90
        5
176
     1
 90
        0
176
     1
 90
        0
176
     1
290
     0
176
     1
 90
        1
176
     1
 40
-50.0
176
     1
 90
        0
176
     1
290
     0
176
     1
290
     1
176
     1
290
     1
176
     1
290
     0
176
     1
290
     0
176
     1
290
     0
176
     1
290
     0
176
     1
290
     0
176
     1
290
     0
176
     1
 90
       50
176
     1
 40
0.0
176
     1
 40
1.0
176
     1
 90
        0
176
     1
 62
    18
420
        0
176
     1
 90
       50
176
     1
 90
        3
176
     1
 62
     5
420
      255
176
     1
290
     0
176
     1
 90
       50
176
     1
 90
       50
176
     1
 90
       50
176
     1
290
     0
176
     1
 90
       50
176
     1
 62
   256
176
     0
 40
1.0
176
     0
 90
        2
176
     1
  1
strokes_ogs.tif
176
     1
290
     0
176
     1
 40
1.0
176
     1
 40
1.0
176
     1
  0
VISUALSTYLE
  5
175
102
{ACAD_REACTORS
330
99
102
}
330
99
100
AcDbVisualStyle
  2
EdgeColorOff
 70
    22
177
     3
291
     1
 70
    58
 90
        2
176
     0
 90
        2
176
     0
 90
        0
176
     0
 90
        0
176
     0
 40
0.6
176
     0
 40
30.0
176
     0
 62
     7
420
 16777215
176
     0
 90
        1
176
     0
 90
        4
176
     0
 62
     7
176
     0
 62
   257
176
     0
 90
        1
176
     0
 90
        1
176
     0
 40
1.0
176
     0
 90
        8
176
     2
 62
     7
176
     0
 40
1.0
176
     0
 90
        1
176
     0
 90
        6
176
     0
 90
        2
176
     0
 62
     7
176
     0
 90
        5
176
     0
 90
        0
176
     0
 90
        0
176
     0
290
     0
176
     0
 90
        1
176
     0
 40
0.0
176
     0
 90
        0
176
     0
290
     0
176
     1
290
     1
176
     1
290
     1
176
     1
290
     0
176
     1
290
     0
176
     1
290
     0
176
     1
290
     0
176
     1
290
     0
176
     1
290
     0
176
     1
 90
       50
176
     1
 40
0.0
176
     1
 40
1.0
176
     1
 90
        0
176
     1
 62
    18
420
        0
176
     1
 90
       50
176
     1
 90
        3
176
     1
 62
     5
420
      255
176
     1
290
     0
176
     1
 90
       50
176
     1
 90
       50
176
     1
 90
       50
176
     1
290
     0
176
     1
 90
       50
176
     1
 62
   256
176
     0
 40
1.0
176
     0
 90
        2
176
     1
  1
strokes_ogs.tif
176
     1
290
     0
176
     1
 40
1.0
176
     1
 40
1.0
176
     1
  0
VISUALSTYLE
  5
A8
102
{ACAD_REACTORS
330
99
102
}
330
99
100
AcDbVisualStyle
  2
Facepattern
 70
    15
177
     3
291
     1
 70
    58
 90
        2
176
     1
 90
        2
176
     1
 90
        1
176
     1
 90
        0
176
     1
 40
0.6
176
     1
 40
30.0
176
     1
 62
     7
420
 16777215
176
     1
 90
        1
176
     1
 90
        4
176
     1
 62
     7
176
     1
 62
   257
176
     1
 90
        1
176
     1
 90
        1
176
     1
 40
1.0
176
     1
 90
        8
176
     1
 62
     7
176
     1
 40
1.0
176
     1
 90
        1
176
     1
 90
        6
176
     1
 90
        2
176
     1
 62
     7
176
     1
 90
        5
176
     1
 90
        0
176
     1
 90
        0
176
     1
290
     0
176
     1
 90
        1
176
     1
 40
0.0
176
     1
 90
        0
176
     1
290
     0
176
     1
290
     1
176
     1
290
     1
176
     1
290
     0
176
     1
290
     0
176
     1
290
     0
176
     1
290
     0
176
     1
290
     0
176
     1
290
     0
176
     1
 90
       50
176
     1
 40
0.0
176
     1
 40
1.0
176
     1
 90
        0
176
     1
 62
    18
420
        0
176
     1
 90
       50
176
     1
 90
        3
176
     1
 62
     5
420
      255
176
     1
290
     0
176
     1
 90
       50
176
     1
 90
       50
176
     1
 90
       50
176
     1
290
     0
176
     1
 90
       50
176
     1
 62
   256
176
     0
 40
1.0
176
     0
 90
        2
176
     1
  1
strokes_ogs.tif
176
     1
290
     0
176
     1
 40
1.0
176
     1
 40
1.0
176
     1
  0
VISUALSTYLE
  5
9A
102
{ACAD_REACTORS
330
99
102
}
330
99
100
AcDbVisualStyle
  2
Flat
 70
     0
177
     3
291
     1
 70
    58
 90
        2
176
     1
 90
        1
176
     1
 90
        1
176
     1
 90
        2
176
     1
 40
0.6
176
     1
 40
30.0
176
     1
 62
     7
420
 16777215
176
     1
 90
        0
176
     1
 90
        0
176
     1
 62
     7
176
     1
 62
   257
176
     1
 90
        1
176
     1
 90
        1
176
     1
 40
1.0
176
     1
 90
        8
176
     1
 62
     7
176
     1
 40
1.0
176
     1
 90
        1
176
     1
 90
        6
176
     1
 90
        2
176
     1
 62
     7
176
     1
 90
        5
176
     1
 90
        0
176
     1
 90
        0
176
     1
290
     0
176
     1
 90
       13
176
     1
 40
0.0
176
     1
 90
        0
176
     1
290
     0
176
     1
290
     1
176
     1
290
     1
176
     1
290
     0
176
     1
290
     0
176
     1
290
     0
176
     1
290
     0
176
     1
290
     0
176
     1
290
     0
176
     1
 90
       50
176
     1
 40
0.0
176
     1
 40
1.0
176
     1
 90
        0
176
     1
 62
    18
420
        0
176
     1
 90
       50
176
     1
 90
        3
176
     1
 62
     5
420
      255
176
     1
290
     0
176
     1
 90
       50
176
     1
 90
       50
176
     1
 90
       50
176
     1
290
     0
176
     1
 90
       50
176
     1
 62
   256
176
     0
 40
1.0
176
     0
 90
        2
176
     1
  1
strokes_ogs.tif
176
     1
290
     0
176
     1
 40
1.0
176
     1
 40
1.0
176
     1
  0
VISUALSTYLE
  5
9B
102
{ACAD_REACTORS
330
99
102
}
330
99
100
AcDbVisualStyle
  2
FlatWithEdges
 70
     1
177
     3
291
     1
 70
    58
 90
        2
176
     1
 90
        1
176
     1
 90
        1
176
     1
 90
        2
176
     1
 40
0.6
176
     1
 40
30.0
176
     1
 62
     7
420
 16777215
176
     1
 90
        1
176
     1
 90
        0
176
     1
 62
     7
176
     1
 62
   257
176
     1
 90
        1
176
     1
 90
        1
176
     1
 40
1.0
176
     1
 90
        0
176
     1
 62
   257
176
     1
 40
1.0
176
     1
 90
        1
176
     1
 90
        6
176
     1
 90
        2
176
     1
 62
     7
176
     1
 90
        5
176
     1
 90
        0
176
     1
 90
        0
176
     1
290
     0
176
     1
 90
       13
176
     1
 40
0.0
176
     1
 90
        0
176
     1
290
     0
176
     1
290
     1
176
     1
290
     1
176
     1
290
     0
176
     1
290
     0
176
     1
290
     0
176
     1
290
     0
176
     1
290
     0
176
     1
290
     0
176
     1
 90
       50
176
     1
 40
0.0
176
     1
 40
1.0
176
     1
 90
        0
176
     1
 62
    18
420
        0
176
     1
 90
       50
176
     1
 90
        3
176
     1
 62
     5
420
      255
176
     1
290
     0
176
     1
 90
       50
176
     1
 90
       50
176
     1
 90
       50
176
     1
290
     0
176
     1
 90
       50
176
     1
 62
   256
176
     0
 40
1.0
176
     0
 90
        2
176
     1
  1
strokes_ogs.tif
176
     1
290
     0
176
     1
 40
1.0
176
     1
 40
1.0
176
     1
  0
VISUALSTYLE
  5
9C
102
{ACAD_REACTORS
330
99
102
}
330
99
100
AcDbVisualStyle
  2
Gouraud
 70
     2
177
     3
291
     1
 70
    58
 90
        2
176
     1
 90
        2
176
     1
 90
        1
176
     1
 90
        2
176
     1
 40
0.6
176
     1
 40
30.0
176
     1
 62
     7
420
 16777215
176
     1
 90
        0
176
     1
 90
        0
176
     1
 62
     7
176
     1
 62
   257
176
     1
 90
        1
176
     1
 90
        1
176
     1
 40
1.0
176
     1
 90
        0
176
     1
 62
     7
176
     1
 40
1.0
176
     1
 90
        1
176
     1
 90
        6
176
     1
 90
        2
176
     1
 62
     7
176
     1
 90
        5
176
     1
 90
        0
176
     1
 90
        0
176
     1
290
     0
176
     1
 90
       13
176
     1
 40
0.0
176
     1
 90
        0
176
     1
290
     0
176
     1
290
     1
176
     1
290
     1
176
     1
290
     0
176
     1
290
     0
176
     1
290
     0
176
     1
290
     0
176
     1
290
     0
176
     1
290
     0
176
     1
 90
       50
176
     1
 40
0.0
176
     1
 40
1.0
176
     1
 90
        0
176
     1
 62
    18
420
        0
176
     1
 90
       50
176
     1
 90
        3
176
     1
 62
     5
420
      255
176
     1
290
     0
176
     1
 90
       50
176
     1
 90
       50
176
     1
 90
       50
176
     1
290
     0
176
     1
 90
       50
176
     1
 62
   256
176
     0
 40
1.0
176
     0
 90
        2
176
     1
  1
strokes_ogs.tif
176
     1
290
     0
176
     1
 40
1.0
176
     1
 40
1.0
176
     1
  0
VISUALSTYLE
  5
9D
102
{ACAD_REACTORS
330
99
102
}
330
99
100
AcDbVisualStyle
  2
GouraudWithEdges
 70
     3
177
     3
291
     1
 70
    58
 90
        2
176
     1
 90
        2
176
     1
 90
        1
176
     1
 90
        2
176
     1
 40
0.6
176
     1
 40
30.0
176
     1
 62
     7
420
 16777215
176
     1
 90
        1
176
     1
 90
        0
176
     1
 62
     7
176
     1
 62
   257
176
     1
 90
        1
176
     1
 90
        1
176
     1
 40
1.0
176
     1
 90
        0
176
     1
 62
   257
176
     1
 40
1.0
176
     1
 90
        1
176
     1
 90
        6
176
     1
 90
        2
176
     1
 62
     7
176
     1
 90
        5
176
     1
 90
        0
176
     1
 90
        0
176
     1
290
     0
176
     1
 90
       13
176
     1
 40
0.0
176
     1
 90
        0
176
     1
290
     0
176
     1
290
     1
176
     1
290
     1
176
     1
290
     0
176
     1
290
     0
176
     1
290
     0
176
     1
290
     0
176
     1
290
     0
176
     1
290
     0
176
     1
 90
       50
176
     1
 40
0.0
176
     1
 40
1.0
176
     1
 90
        0
176
     1
 62
    18
420
        0
176
     1
 90
       50
176
     1
 90
        3
176
     1
 62
     5
420
      255
176
     1
290
     0
176
     1
 90
       50
176
     1
 90
       50
176
     1
 90
       50
176
     1
290
     0
176
     1
 90
       50
176
     1
 62
   256
176
     0
 40
1.0
176
     0
 90
        2
176
     1
  1
strokes_ogs.tif
176
     1
290
     0
176
     1
 40
1.0
176
     1
 40
1.0
176
     1
  0
VISUALSTYLE
  5
A1
102
{ACAD_REACTORS
330
99
102
}
330
99
100
AcDbVisualStyle
  2
Hidden
 70
     6
177
     3
291
     0
 70
    58
 90
        1
176
     1
 90
        2
176
     1
 90
        2
176
     1
 90
        0
176
     1
 40
0.6
176
     1
 40
30.0
176
     1
 62
     7
420
 16777215
176
     1
 90
        2
176
     1
 90
        2
176
     1
 62
     7
176
     1
 62
   257
176
     1
 90
        2
176
     1
 90
        1
176
     1
 40
40.0
176
     1
 90
        0
176
     1
 62
   257
176
     1
 40
1.0
176
     1
 90
        1
176
     1
 90
        6
176
     1
 90
        2
176
     1
 62
     7
176
     1
 90
        3
176
     1
 90
        0
176
     1
 90
        0
176
     1
290
     0
176
     1
 90
        1
176
     1
 40
0.0
176
     1
 90
        0
176
     1
290
     0
176
     1
290
     1
176
     1
290
     1
176
     1
290
     0
176
     1
290
     0
176
     1
290
     0
176
     1
290
     0
176
     1
290
     0
176
     1
290
     0
176
     1
 90
       50
176
     1
 40
0.0
176
     1
 40
1.0
176
     1
 90
        0
176
     1
 62
    18
420
        0
176
     1
 90
       50
176
     1
 90
        3
176
     1
 62
     5
420
      255
176
     1
290
     0
176
     1
 90
       50
176
     1
 90
       50
176
     1
 90
       50
176
     1
290
     0
176
     1
 90
       50
176
     1
 62
   256
176
     0
 40
1.0
176
     0
 90
        2
176
     1
  1
strokes_ogs.tif
176
     1
290
     0
176
     1
 40
1.0
176
     1
 40
1.0
176
     1
  0
VISUALSTYLE
  5
173
102
{ACAD_REACTORS
330
99
102
}
330
99
100
AcDbVisualStyle
  2
JitterOff
 70
    20
177
     3
291
     1
 70
    58
 90
        2
176
     0
 90
        2
176
     0
 90
        0
176
     0
 90
        0
176
     0
 40
0.6
176
     0
 40
30.0
176
     0
 62
     7
420
 16777215
176
     0
 90
        1
176
     0
 90
        4
176
     0
 62
     7
176
     0
 62
   257
176
     0
 90
        1
176
     0
 90
        1
176
     0
 40
1.0
176
     0
 90
       10
176
     2
 62
     7
176
     0
 40
1.0
176
     0
 90
        1
176
     0
 90
        6
176
     0
 90
        2
176
     0
 62
     7
176
     0
 90
        5
176
     0
 90
        0
176
     0
 90
        0
176
     0
290
     0
176
     0
 90
        1
176
     0
 40
0.0
176
     0
 90
        0
176
     0
290
     0
176
     1
290
     1
176
     1
290
     1
176
     1
290
     0
176
     1
290
     0
176
     1
290
     0
176
     1
290
     0
176
     1
290
     0
176
     1
290
     0
176
     1
 90
       50
176
     1
 40
0.0
176
     1
 40
1.0
176
     1
 90
        0
176
     1
 62
    18
420
        0
176
     1
 90
       50
176
     1
 90
        3
176
     1
 62
     5
420
      255
176
     1
290
     0
176
     1
 90
       50
176
     1
 90
       50
176
     1
 90
       50
176
     1
290
     0
176
     1
 90
       50
176
     1
 62
   256
176
     0
 40
1.0
176
     0
 90
        2
176
     1
  1
strokes_ogs.tif
176
     1
290
     0
176
     1
 40
1.0
176
     1
 40
1.0
176
     1
  0
VISUALSTYLE
  5
A7
102
{ACAD_REACTORS
330
99
102
}
330
99
100
AcDbVisualStyle
  2
Linepattern
 70
    14
177
     3
291
     1
 70
    58
 90
        2
176
     1
 90
        2
176
     1
 90
        1
176
     1
 90
        0
176
     1
 40
0.6
176
     1
 40
30.0
176
     1
 62
     7
420
 16777215
176
     1
 90
        1
176
     1
 90
        4
176
     1
 62
     7
176
     1
 62
   257
176
     1
 90
        7
176
     1
 90
        7
176
     1
 40
1.0
176
     1
 90
        8
176
     1
 62
     7
176
     1
 40
1.0
176
     1
 90
        1
176
     1
 90
        6
176
     1
 90
        2
176
     1
 62
     7
176
     1
 90
        5
176
     1
 90
        0
176
     1
 90
        0
176
     1
290
     0
176
     1
 90
        1
176
     1
 40
0.0
176
     1
 90
        0
176
     1
290
     0
176
     1
290
     1
176
     1
290
     1
176
     1
290
     0
176
     1
290
     0
176
     1
290
     0
176
     1
290
     0
176
     1
290
     0
176
     1
290
     0
176
     1
 90
       50
176
     1
 40
0.0
176
     1
 40
1.0
176
     1
 90
        0
176
     1
 62
    18
420
        0
176
     1
 90
       50
176
     1
 90
        3
176
     1
 62
     5
420
      255
176
     1
290
     0
176
     1
 90
       50
176
     1
 90
       50
176
     1
 90
       50
176
     1
290
     0
176
     1
 90
       50
176
     1
 62
   256
176
     0
 40
1.0
176
     0
 90
        2
176
     1
  1
strokes_ogs.tif
176
     1
290
     0
176
     1
 40
1.0
176
     1
 40
1.0
176
     1
  0
VISUALSTYLE
  5
174
102
{ACAD_REACTORS
330
99
102
}
330
99
100
AcDbVisualStyle
  2
OverhangOff
 70
    21
177
     3
291
     1
 70
    58
 90
        2
176
     0
 90
        2
176
     0
 90
        0
176
     0
 90
        0
176
     0
 40
0.6
176
     0
 40
30.0
176
     0
 62
     7
420
 16777215
176
     0
 90
        1
176
     0
 90
        4
176
     0
 62
     7
176
     0
 62
   257
176
     0
 90
        1
176
     0
 90
        1
176
     0
 40
1.0
176
     0
 90
        9
176
     2
 62
     7
176
     0
 40
1.0
176
     0
 90
        1
176
     0
 90
        6
176
     0
 90
        2
176
     0
 62
     7
176
     0
 90
        5
176
     0
 90
        0
176
     0
 90
        0
176
     0
290
     0
176
     0
 90
        1
176
     0
 40
0.0
176
     0
 90
        0
176
     0
290
     0
176
     1
290
     1
176
     1
290
     1
176
     1
290
     0
176
     1
290
     0
176
     1
290
     0
176
     1
290
     0
176
     1
290
     0
176
     1
290
     0
176
     1
 90
       50
176
     1
 40
0.0
176
     1
 40
1.0
176
     1
 90
        0
176
     1
 62
    18
420
        0
176
     1
 90
       50
176
     1
 90
        3
176
     1
 62
     5
420
      255
176
     1
290
     0
176
     1
 90
       50
176
     1
 90
       50
176
     1
 90
       50
176
     1
290
     0
176
     1
 90
       50
176
     1
 62
   256
176
     0
 40
1.0
176
     0
 90
        2
176
     1
  1
strokes_ogs.tif
176
     1
290
     0
176
     1
 40
1.0
176
     1
 40
1.0
176
     1
  0
VISUALSTYLE
  5
A3
102
{ACAD_REACTORS
330
99
102
}
330
99
100
AcDbVisualStyle
  2
Realistic
 70
     8
177
     3
291
     0
 70
    58
 90
        2
176
     1
 90
        2
176
     1
 90
        0
176
     1
 90
        2
176
     1
 40
0.6
176
     1
 40
30.0
176
     1
 62
     7
420
 16777215
176
     1
 90
        0
176
     1
 90
        0
176
     1
 62
     7
176
     1
 62
   257
176
     1
 90
        1
176
     1
 90
        1
176
     1
 40
1.0
176
     1
 90
        8
176
     1
 62
   257
176
     1
 40
1.0
176
     1
 90
        1
176
     1
 90
        6
176
     1
 90
        2
176
     1
 62
     7
176
     1
 90
        3
176
     1
 90
        0
176
     1
 90
        0
176
     1
290
     0
176
     1
 90
       13
176
     1
 40
0.0
176
     1
 90
        0
176
     1
290
     0
176
     1
290
     1
176
     1
290
     1
176
     1
290
     0
176
     1
290
     0
176
     1
290
     0
176
     1
290
     0
176
     1
290
     0
176
     1
290
     0
176
     1
 90
       50
176
     1
 40
0.0
176
     1
 40
1.0
176
     1
 90
        0
176
     1
 62
    18
420
        0
176
     1
 90
       50
176
     1
 90
        3
176
     1
 62
     5
420
      255
176
     1
290
     0
176
     1
 90
       50
176
     1
 90
       50
176
     1
 90
       50
176
     1
290
     0
176
     1
 90
       50
176
     1
 62
   256
176
     0
 40
1.0
176
     0
 90
        2
176
     1
  1
strokes_ogs.tif
176
     1
290
     0
176
     1
 40
1.0
176
     1
 40
1.0
176
     1
  0
VISUALSTYLE
  5
182
102
{ACAD_REACTORS
330
99
102
}
330
99
100
AcDbVisualStyle
  2
Shaded
 70
    27
177
     3
291
     0
 70
    58
 90
        2
176
     1
 90
        2
176
     1
 90
        1
176
     1
 90
        2
176
     1
 40
0.6
176
     1
 40
30.0
176
     1
 62
     7
420
 16777215
176
     1
 90
        0
176
     1
 90
        4
176
     1
 62
     7
176
     1
 62
   257
176
     1
 90
        1
176
     1
 90
        1
176
     1
 40
1.0
176
     1
 90
        8
176
     1
 62
   257
176
     1
 40
1.0
176
     1
 90
        1
176
     1
 90
        6
176
     1
 90
        2
176
     1
 62
     8
420
  7895160
176
     1
 90
        3
176
     1
 90
        0
176
     1
 90
        0
176
     1
290
     0
176
     1
 90
        5
176
     1
 40
0.0
176
     1
 90
        0
176
     1
290
     0
176
     1
290
     1
176
     1
290
     1
176
     1
290
     0
176
     1
290
     0
176
     1
290
     0
176
     1
290
     0
176
     1
290
     0
176
     1
290
     0
176
     1
 90
       50
176
     1
 40
0.0
176
     1
 40
1.0
176
     1
 90
        0
176
     1
 62
    18
420
        0
176
     1
 90
       50
176
     1
 90
        3
176
     1
 62
     5
420
      255
176
     1
290
     0
176
     1
 90
       50
176
     1
 90
       50
176
     1
 90
       50
176
     1
290
     0
176
     1
 90
       50
176
     1
 62
   256
176
     0
 40
1.0
176
     0
 90
        2
176
     1
  1
strokes_ogs.tif
176
     1
290
     0
176
     1
 40
1.0
176
     1
 40
1.0
176
     1
  0
VISUALSTYLE
  5
181
102
{ACAD_REACTORS
330
99
102
}
330
99
100
AcDbVisualStyle
  2
Shaded with edges
 70
    26
177
     3
291
     0
 70
    58
 90
        2
176
     1
 90
        2
176
     1
 90
        1
176
     1
 90
        2
176
     1
 40
0.6
176
     1
 40
30.0
176
     1
 62
     7
420
 16777215
176
     1
 90
        1
176
     1
 90
        2
176
     1
 62
     7
176
     1
 62
   257
176
     1
 90
        2
176
     1
 90
        1
176
     1
 40
1.0
176
     1
 90
        8
176
     1
 62
   257
176
     1
 40
1.0
176
     1
 90
        1
176
     1
 90
        6
176
     1
 90
        2
176
     1
 62
     7
176
     1
 90
        3
176
     1
 90
        0
176
     1
 90
        0
176
     1
290
     0
176
     1
 90
        5
176
     1
 40
0.0
176
     1
 90
        0
176
     1
290
     0
176
     1
290
     1
176
     1
290
     1
176
     1
290
     0
176
     1
290
     0
176
     1
290
     0
176
     1
290
     0
176
     1
290
     0
176
     1
290
     0
176
     1
 90
       50
176
     1
 40
0.0
176
     1
 40
1.0
176
     1
 90
        0
176
     1
 62
    18
420
        0
176
     1
 90
       50
176
     1
 90
        3
176
     1
 62
     5
420
      255
176
     1
290
     0
176
     1
 90
       50
176
     1
 90
       50
176
     1
 90
       50
176
     1
290
     0
176
     1
 90
       50
176
     1
 62
   256
176
     0
 40
1.0
176
     0
 90
        2
176
     1
  1
strokes_ogs.tif
176
     1
290
     0
176
     1
 40
1.0
176
     1
 40
1.0
176
     1
  0
VISUALSTYLE
  5
17E
102
{ACAD_REACTORS
330
99
102
}
330
99
100
AcDbVisualStyle
  2
Shades of Gray
 70
    23
177
     3
291
     0
 70
    58
 90
        2
176
     1
 90
        2
176
     1
 90
        3
176
     1
 90
        0
176
     1
 40
0.6
176
     1
 40
30.0
176
     1
 62
     7
420
 16777215
176
     1
 90
        2
176
     1
 90
        2
176
     1
 62
     7
176
     1
 62
     7
176
     1
 90
        1
176
     1
 90
        1
176
     1
 40
40.0
176
     1
 90
        8
176
     1
 62
     7
176
     1
 40
1.0
176
     1
 90
        1
176
     1
 90
        6
176
     1
 90
        2
176
     1
 62
     7
176
     1
 90
        3
176
     1
 90
        0
176
     1
 90
        0
176
     1
290
     0
176
     1
 90
        1
176
     1
 40
0.0
176
     1
 90
        0
176
     1
290
     0
176
     1
290
     1
176
     1
290
     1
176
     1
290
     0
176
     1
290
     0
176
     1
290
     0
176
     1
290
     0
176
     1
290
     0
176
     1
290
     0
176
     1
 90
       50
176
     1
 40
0.0
176
     1
 40
1.0
176
     1
 90
        0
176
     1
 62
    18
420
        0
176
     1
 90
       50
176
     1
 90
        3
176
     1
 62
     5
420
      255
176
     1
290
     0
176
     1
 90
       50
176
     1
 90
       50
176
     1
 90
       50
176
     1
290
     0
176
     1
 90
       50
176
     1
 62
   256
176
     0
 40
1.0
176
     0
 90
        2
176
     1
  1
strokes_ogs.tif
176
     1
290
     0
176
     1
 40
1.0
176
     1
 40
1.0
176
     1
  0
VISUALSTYLE
  5
17F
102
{ACAD_REACTORS
330
99
102
}
330
99
100
AcDbVisualStyle
  2
Sketchy
 70
    24
177
     3
291
     0
 70
    58
 90
        1
176
     1
 90
        2
176
     1
 90
        2
176
     1
 90
        0
176
     1
 40
0.6
176
     1
 40
30.0
176
     1
 62
     7
420
 16777215
176
     1
 90
        2
176
     1
 90
        2
176
     1
 62
     7
176
     1
 62
     7
176
     1
 90
        1
176
     1
 90
        1
176
     1
 40
40.0
176
     1
 90
       11
176
     1
 62
     7
176
     1
 40
1.0
176
     1
 90
        1
176
     1
 90
        6
176
     1
 90
        2
176
     1
 62
     7
176
     1
 90
        6
176
     1
 90
        0
176
     1
 90
        0
176
     1
290
     0
176
     1
 90
        1
176
     1
 40
0.0
176
     1
 90
        0
176
     1
290
     0
176
     1
290
     1
176
     1
290
     1
176
     1
290
     0
176
     1
290
     0
176
     1
290
     0
176
     1
290
     0
176
     1
290
     0
176
     1
290
     0
176
     1
 90
       50
176
     1
 40
0.0
176
     1
 40
1.0
176
     1
 90
        0
176
     1
 62
    18
420
        0
176
     1
 90
       50
176
     1
 90
        3
176
     1
 62
     5
420
      255
176
     1
290
     0
176
     1
 90
       50
176
     1
 90
       50
176
     1
 90
       50
176
     1
290
     0
176
     1
 90
       50
176
     1
 62
   256
176
     0
 40
1.0
176
     0
 90
        2
176
     1
  1
strokes_ogs.tif
176
     1
290
     0
176
     1
 40
1.0
176
     1
 40
1.0
176
     1
  0
VISUALSTYLE
  5
A6
102
{ACAD_REACTORS
330
99
102
}
330
99
100
AcDbVisualStyle
  2
Thicken
 70
    13
177
     3
291
     1
 70
    58
 90
        2
176
     1
 90
        2
176
     1
 90
        1
176
     1
 90
        0
176
     1
 40
0.6
176
     1
 40
30.0
176
     1
 62
     7
420
 16777215
176
     1
 90
        1
176
     1
 90
        4
176
     1
 62
     7
176
     1
 62
   257
176
     1
 90
        1
176
     1
 90
        1
176
     1
 40
1.0
176
     1
 90
       12
176
     1
 62
     7
176
     1
 40
1.0
176
     1
 90
        1
176
     1
 90
        6
176
     1
 90
        2
176
     1
 62
     7
176
     1
 90
        5
176
     1
 90
        0
176
     1
 90
        0
176
     1
290
     0
176
     1
 90
        1
176
     1
 40
0.0
176
     1
 90
        0
176
     1
290
     0
176
     1
290
     1
176
     1
290
     1
176
     1
290
     0
176
     1
290
     0
176
     1
290
     0
176
     1
290
     0
176
     1
290
     0
176
     1
290
     0
176
     1
 90
       50
176
     1
 40
0.0
176
     1
 40
1.0
176
     1
 90
        0
176
     1
 62
    18
420
        0
176
     1
 90
       50
176
     1
 90
        3
176
     1
 62
     5
420
      255
176
     1
290
     0
176
     1
 90
       50
176
     1
 90
       50
176
     1
 90
       50
176
     1
290
     0
176
     1
 90
       50
176
     1
 62
   256
176
     0
 40
1.0
176
     0
 90
        2
176
     1
  1
strokes_ogs.tif
176
     1
290
     0
176
     1
 40
1.0
176
     1
 40
1.0
176
     1
  0
VISUALSTYLE
  5
A0
102
{ACAD_REACTORS
330
99
102
}
330
99
100
AcDbVisualStyle
  2
Wireframe
 70
     5
177
     3
291
     0
 70
    58
 90
        0
176
     1
 90
        2
176
     1
 90
        0
176
     1
 90
        0
176
     1
 40
0.6
176
     1
 40
30.0
176
     1
 62
     7
420
 16777215
176
     1
 90
        1
176
     1
 90
        4
176
     1
 62
     7
176
     1
 62
   257
176
     1
 90
        1
176
     1
 90
        1
176
     1
 40
1.0
176
     1
 90
        0
176
     1
 62
   257
176
     1
 40
1.0
176
     1
 90
        1
176
     1
 90
        6
176
     1
 90
        2
176
     1
 62
     7
176
     1
 90
        3
176
     1
 90
        0
176
     1
 90
        0
176
     1
290
     0
176
     1
 90
        1
176
     1
 40
0.0
176
     1
 90
        0
176
     1
290
     0
176
     1
290
     1
176
     1
290
     1
176
     1
290
     0
176
     1
290
     0
176
     1
290
     0
176
     1
290
     0
176
     1
290
     0
176
     1
290
     0
176
     1
 90
       50
176
     1
 40
0.0
176
     1
 40
1.0
176
     1
 90
        0
176
     1
 62
    18
420
        0
176
     1
 90
       50
176
     1
 90
        3
176
     1
 62
     5
420
      255
176
     1
290
     0
176
     1
 90
       50
176
     1
 90
       50
176
     1
 90
       50
176
     1
290
     0
176
     1
 90
       50
176
     1
 62
   256
176
     0
 40
1.0
176
     0
 90
        2
176
     1
  1
strokes_ogs.tif
176
     1
290
     0
176
     1
 40
1.0
176
     1
 40
1.0
176
     1
  0
VISUALSTYLE
  5
180
102
{ACAD_REACTORS
330
99
102
}
330
99
100
AcDbVisualStyle
  2
X-Ray
 70
    25
177
     3
291
     0
 70
    58
 90
        2
176
     1
 90
        2
176
     1
 90
        1
176
     1
 90
        1
176
     1
 40
0.5
176
     1
 40
30.0
176
     1
 62
     7
420
 16777215
176
     1
 90
        1
176
     1
 90
        0
176
     1
 62
     7
176
     1
 62
   257
176
     1
 90
        1
176
     1
 90
        1
176
     1
 40
1.0
176
     1
 90
        8
176
     1
 62
     7
176
     1
 40
1.0
176
     1
 90
        1
176
     1
 90
        6
176
     1
 90
        2
176
     1
 62
     7
176
     1
 90
        3
176
     1
 90
        0
176
     1
 90
        0
176
     1
290
     0
176
     1
 90
       13
176
     1
 40
0.0
176
     1
 90
        0
176
     1
290
     0
176
     1
290
     1
176
     1
290
     1
176
     1
290
     0
176
     1
290
     0
176
     1
290
     0
176
     1
290
     0
176
     1
290
     0
176
     1
290
     0
176
     1
 90
       50
176
     1
 40
0.0
176
     1
 40
1.0
176
     1
 90
        0
176
     1
 62
    18
420
        0
176
     1
 90
       50
176
     1
 90
        3
176
     1
 62
     5
420
      255
176
     1
290
     0
176
     1
 90
       50
176
     1
 90
       50
176
     1
 90
       50
176
     1
290
     0
176
     1
 90
       50
176
     1
 62
   256
176
     0
 40
1.0
176
     0
 90
        2
176
     1
  1
strokes_ogs.tif
176
     1
290
     0
176
     1
 40
1.0
176
     1
 40
1.0
176
     1
  0
DICTIONARYVAR
  5
F0
102
{ACAD_REACTORS
330
66
102
}
330
66
100
DictionaryVariables
280
     0
  1
1:1
  0
DICTIONARYVAR
  5
EF
102
{ACAD_REACTORS
330
66
102
}
330
66
100
DictionaryVariables
280
     0
  1
STANDARD
  0
DICTIONARYVAR
  5
89
102
{ACAD_REACTORS
330
66
102
}
330
66
100
DictionaryVariables
280
     0
  1
STANDARD
  0
DICTIONARYVAR
  5
1B7
102
{ACAD_REACTORS
330
66
102
}
330
66
100
DictionaryVariables
280
     0
  1
Imperial24
  0
DICTIONARYVAR
  5
1B8
102
{ACAD_REACTORS
330
66
102
}
330
66
100
DictionaryVariables
280
     0
  1
Imperial24
  0
DICTIONARYVAR
  5
67
102
{ACAD_REACTORS
330
66
102
}
330
66
100
DictionaryVariables
280
     0
  1
2
  0
DICTIONARYVAR
  5
6B
102
{ACAD_REACTORS
330
66
102
}
330
66
100
DictionaryVariables
280
     0
  1
1
  0
DICTIONARYVAR
  5
14D
102
{ACAD_REACTORS
330
66
102
}
330
66
100
DictionaryVariables
280
     0
  1
0
  0
DICTIONARYVAR
  5
14E
102
{ACAD_REACTORS
330
66
102
}
330
66
100
DictionaryVariables
280
     0
  1
0
  0
DICTIONARY
  5
194
330
22
100
AcDbDictionary
280
     1
281
     1
  0
DICTIONARY
  5
188
330
97
100
AcDbDictionary
280
     1
281
     1
  3
FBXASSET
360
189
  0
DICTIONARY
  5
186
330
96
100
AcDbDictionary
280
     1
281
     1
  3
FBXASSET
360
187
  0
DICTIONARY
  5
110
330
98
100
AcDbDictionary
280
     1
281
     1
  3
BUMPTILE
360
112
  3
DIFFUSETILE
360
111
  3
FBXASSET
360
18A
  3
OPACITYTILE
360
113
  3
REFLECTIONTILE
360
114
  0
DICTIONARY
  5
104
330
87
100
AcDbDictionary
280
     1
281
     1
  3
ACAD_ROUNDTRIP_2008_TABLESTYLE_CELLSTYLEMAP
360
B35E
  0
XRECORD
  5
189
102
{ACAD_REACTORS
330
188
102
}
330
188
100
AcDbXrecord
280
     1
 70
     1
 90
429727718
  1
508B35C9-AEE7-456F-BE74-D52651303AC6
310
504B03040A0000080000B670623B3DEE336E79000000790000001B0000006175746F6465736B2D64657369676E2D7061636B6167652E786D6C3C3F786D6C2076657273696F6E3D22312E302220656E636F64696E673D227574662D3822203F3E3C666F726D6174733E3C666F726D61743E687474703A2F2F736368656D612E
310
6175746F6465736B2E636F6D2F64657369676E2D7061636B6167652F323030393C2F666F726D61743E3C2F666F726D6174733E504B0304140006080800B670623BD486FD9CA0000000F4000000130000005B436F6E74656E745F54797065735D2E786D6C7D8EC10E82300C865F65E91D8A1E8C310C0EEA1BF002731658846E
310
D98AC1B77784ABF1D8FE5FBFBF75BBCE937A534CCEB38643598122B6FEE978D0B0485F9C41B54DDD7D022595594E1A469170414C76A4D9A4D207E29CF43ECE46F218070CC6BECC4078ACAA135ACF422C856C0E68EA1BF5669944DDD7BCDE7B1F8E415D77AECB980613C2E4AC91FC167A2B244592486606FC29C8FD7F045B9A
310
EF7053A7E60B504B0304140006080800B670623B28ED286BEB0000007C01000008000000636F72652E786D6C8D90416EC3201045AF82665B6183218D6D61A254764FD00B204C5C94182C03558F5F9C3852BBEB6A467FFE9B197D71FA9E6FE8CBACC17AD7012D0820E3B41FAD9B3A48F1826B40272956EFE32F1B20A766D3C1
310
268314D3EAD3B24BDABB685CCCAAF3A3D94515828980F42D371D04FD696655A814B3235C8B45E9AB9A4C419F5D8653B2237A1CB163DE672FD6AC209BF3C08E0D1B30EB19C3FC9D72FCC6EB231EFA33EDE96BDD341517E5064B11EDFCBCAF57A3A2194156843498524CAA0FCA5B7268F9E185D42D21A2DCEC7FA0B48CFF8492
310
759155FBBB0F2C80A4F991FB408A72CB22977B50B96EB9C91F504B0304140006080800B670623B55019EA25F0000007C00000007000000636E782E786D6C4DCB3B0E80201045D1AD90E915ED2CF8AC45050C11660C8261F98AB1B07AC9C97D42D718D865D3E909258CFD00CCE24AC6E326A164D74DC0B4128928FF32603847
310
2BA13128B1252AC747C6BAB984FC68F0B87FE8960A5C09FE86CFB69FBA01504B0304140006080800B670623B7BC41AC871010000D40300000C0000006662782F636F72652E786D6CC553ED6E8320147D15C2DF4501B56B6D90A64BBB27D80B50A5CE54C120983EFEAE1F4DD7A56BBA5FF3879273EEE59E7310BE393735EA95
310
ED2AA333CC428A91D2B9292A5D66D8BB63B0C26823B835C67D2BC348CB46657880B1E0A535BE9DA1DC68A7B403549B42CDA0EC3AE530CA6B5864B8CB3F552343E91D5474A7B095F949962A6421D0502778E72C0840D390E18DC5F170E664C205F7BE2A66B62A605A75AC94C522DDEEE3651AEF837817C741F2CE92E02D592D
310
83FD6ECB76EC7595A651C2C9D02CB8AB9A8BBADC2AE954814544691A3016D0E883256BBA58278B17BA5A53CAC9507ED3E4DBE2C9265F691747B3DCA9ADC382819091F8E1162272A8933DE82182932144F88C09DF060D8140C84E1EEA8B8F1340BDCA9DB1093085F157AA97B557309586747CD0EF0B4EA64E983A6E0EAEEFCE
310
889E9EF17847386AA94B30211D2C0FDE0D3AF9A4610EAD5536E8DD1969631B593F67E381C33F5157F17725E5A636F6BF1491F980C8FC7B90E13E8A2F504B0304140006080800B670623B70102A487D0000009D0000000B0000006662782F636E782E786D6C4DCCD10A83201886E15B91FFDC95A5C30335ACCDFB886521330D
310
A76397BF1A1DECE883878F57749FD5A3B74D2F17830472A901D9F088930B8B849267CC01754AA418F3DF0D5018572BE160506249B16C274D761E8BCFBB7A179E27F65CB39A0F14D396184C9921B81F34C3ACA1B4B99ABB6E6F062A25AA5F69DF23ACBE504B0304140006080800B670623B3610CA3329010000120200003100
310
00006662782F42384135303843342D343331462D343546312D424341352D3532343432364645413344462F636F72652E786D6C8D515B6EC32010BC0AE22B55850D0E446E848992B43E412FE000495162B07854397EA176A4F62F3F2C9A9D991D58BEBB8F37F0AD7D30CE76905418026DA553C65E3A98E219B510EC04F7CEC5
310
3F3408EC30EA0E16180A7EF12E4D0B249D8DDAC68C5AA7F4020E21E80881BCE54B0783FCD2E3500D296646B856D320AFC34557A4CAEDCC133C449F0380794839A138B47B86DB2345744D7A44594FD0E1B867883594369BFE63BF7EEF793D0B054FC9A8456E548E63CE46FB674D8A58F068C6477CE9F510B582A2C1F80D1182
310
70F349E816B32D65AFB8DD62CCEB42FF274A937A52948C8DEB66893BCB021484D7734370E5D2E9F608A3EF93F3119479ABA0E50B14B8C298119A43CCC4FCFCECB8A18B6388CEE7EF5D5D4F994BD86CBBA182D76543B9FCAE2FD7B24DF103504B0304140006080800B670623B1B8617914E0100003303000030000000666278
310
2F42384135303843342D343331462D343546312D424341352D3532343432364645413344462F636E782E786D6CD593C16EC32010447F0571AD6CE3D489D20813A9877E410FBD62D82434182CC055F3F75D1292E692438FBD206B7698593D61BEFD1E2DF982108D773D6D6B460938E5B571FB9ECE6957AD29D90A1EBC4F7736
310
4A9C1CA1A759A682EF839FA72269D8C9D92654AD71C72206887E0E0A22CAF926B15E498B01E0AA19451807D01A34B919F16B070157417138917400F2F6FA41FCF0092A45DEE414C19BDC21783E4BD39D891265658C3D8DEA00A3ACE59CBC8678ACB54CB26EEB6BD7839D7E9348BE70AD9C8321B9BCA7F9A4A26C542347DEE0
310
50F09802D22BA6749A800A394DD62899107273365E3C82CFC6A55557BC06C10774B7ABE7AEC3B0F34CF06446280E154026D0542C187BA9DAB6628BF7B6DBB0E5A65B3EB1F58631DE64BBE083F7B65CC218087E22CABB042E51D1F2268F1FE12B3EA24D40D63E9CFE00120194D60B9D5BC67FE6D39CDF37E20AF817881F504B
310
0304140006080800B670623BBFEF2E3B690500003C100000340000006662782F42384135303843342D343331462D343546312D424341352D3532343432364645413344462F6F626A656374732E786D6CAD575D739B3814FD2B0CFB0C98D84E931D4227B6938EA793B6534F3BFB90198F0099B001899144EAECAFDF231018B0
310
D37A3FFC609090EEE7B94757C1FB7D915B2F54C88CB31BDB7727B64559CC938CA53776A576CE956DBD0F03C1B9EA2DB32D460A7A63EB693B0C52C1ABD24C257447AA5C8D66EF177F5832A68CDA569C13296F6C193FD182B8A4523CA1F2D94D88226EBADBBBBEDB2C1C8A4D05299F46424B222853B014F30C52ACC6287F389C
310
D85E1878FA7B18E87FB36AFAF62AAFF667A83F635211161F291B8999FAB3D5DDC5FCDA99CF6653677679E13B8BFBC5CAF1DF4D27CBCBE5F2FAF6EE1A8AA51290642C117467871F101B91C581D77CEA2C36869F3229E68CD1B8F61F1ED6361B89092D294B90C78C4A68EB793D190E7D1D9BDEE7A91E1B95FDE9F3BCEAEFE809
310
6A6D6F9F7D4B79F4275C90E7A04248AA51D5C4C738DAE06F72885AC4796EBE65D22A88A22223B995679120E2D50EB1542F098381188D4EA111AE3DB043FF20AF6F2B4AE3D7D83D65E5AECA730D4D3BAC91BD05FEA992B565D95F549CD6069B90AB2A63EACA38A45E4B6A87D781574F86817E4C2FCCC72690D62E2729520E37
310
9BAF234797BAF6D62B3BFC781FED37BA1E4F2B2F052FA9501A3E80569BB8F6A9A364D4FA67654E6F803383981F82F21591FF84F23D9882BC896C3FDBCF8C162508933B2E0AE4C69DD43F6BD2BE38DDDBF10BF86CB4FA784D37F3AF16075E67EC9030DECA1FC0A55373F5DFF3378C591FA9BDF485C10B0A8C8BA909E5262639
310
A8E72163488806A595734C81CB77D1DE0ED7604A303B76913CEC0272F412782FF88EFF4636D8AA56DF7B322474C4B767303F625997056C7B032C473C592B36CEBD15F3F9FF5233B7ABCDC74D257624A60F8658567497B14CE1EC3C80B76FD02011038F9EE9EB0F2E12387A9C844D3F09855125116D1D731DF8B43D2CF4E0A0
310
79A020C6BE946BCE0B7EA1E1219331CD73C228AF5A2DDD31A4B1DA918CE91350854D40A71723140BFA92E94E62B0626016CEFA5864A50E5977E8753CEDBEE1CBB7F52780D20E17AF0BA0F5F9B02A3AD07DCC732EB6D1EBB661421BE0C39E21BABF0FE16D22EA6929407C8DE596724C88B749B6DB5512BC7B228ADFD7CB7EA6
310
3A22397E690BA8D5D8D4E40CEC8CDA23C2C0B7D5898640101CEC9C6D331CE328CB93CAFBBAC70A642DF70DF95155945B52F08AA973C23469FD69ADEF84F7BB18F983A8F8C90E37F5D35980B2139A1C523540813E824EF83448CF7C72B598CE97D7CEEDDDDD3B6736BFBC771677EF66CE6A7E7139F7A793E9EDF2B2B3A8B624
310
0CDA13AA5F8388264EC4A0129909F3B7F5A16CEDF08128E97D680ACA4B9BE7B7B58BB638F0B00700EF36AE8B32A705658A68F83EE897FC2B41573190D1CCAF0B92D233A47CFEB019D9809933F67DD1A5467F8CF69AD9A5AE859342D45355448C64F968A371DC2D596ADC6E43D93D1B466F877A64E2893E54F23C4B40388995
310
525E5005DA3983ED45412510D3EFCA13737B3863F74BD30F2A12E5B4B5E489A025CE25500DB855B11ACE5BBFA185D35DD48D8DC3CE7DC69F2944DB42AA6F6CF09BCA622ADD08C7A36E7C6AE18000BAB08E040135C2D21C9D75B3A91B77BB746C403F38018DFE6EC939DD92F16B40BC05294B9CDA035AAD6D330AE27FE4786B
310
8E45145EA34A75BE1C263A676A35A8ACC6297337400BF16C54EF515F3F77CB77EB3583889C754FFA29081AA98E2222ADEF05DA3E63D2EDEA8B8756C05A7FB6CABC4A91CBF325398202CC952E70A008A830324BA200D5E5EF8F5F04C75DB4B0EE3340E071C98B823333B83577596BF3849B69F2085AA0FAFA212F26BEFF5877
310
FDE622B28D88A42E49E43326DA82D31E8CB006401E1DA726059ECEC168F97A6599036306A135688F9AD2E61A6EA178F4CD51974A9F2CCB9F36FE5EBD14601068D9C3BF01504B0304140006080000B670623B000000000000000000000000350000006662782F42384135303843342D343331462D343546312D424341352D35
310
32343432364645413344462F76657274696365732E62696E504B0304140006080800B670623BF270F1330600000004000000360000006662782F42384135303843342D343331462D343546312D424341352D3532343432364645413344462F747269616E676C65732E62696E636660600000504B0304140006080000B67062
310
3B000000000000000000000000370000006662782F42384135303843342D343331462D343546312D424341352D3532343432364645413344462F617474726962757465732E62696E504B0304140006080800B670623B08DA0BD19000000041010000360000006662782F42384135303843342D343331462D343546312D4243
310
41352D3532343432364645413344462F6469726563746F72792E786D6C858F410AC3201045AF22B36F53E9A60B35CBEEBAE80D244E44489C6234F4F835464A48035D0DF398FF9F8AF63D0E6CC63039F212F8F9020C7D47C6792B21C5FE7403D62A1188E2E60C98D7234A5830286103A55745067B9D86B8A3CF9C7F90C11DE6
310
07FB144396D7B6A82D282E9A152AD114D5EF2CB866EEE831B8EEA07A7BB5A8D7D61A2BAAEB7FD5F70921FF497D00504B0304140006080800B670623B3B4606F3FE000000A00100003B0000006662782F42384135303843342D343331462D343546312D424341352D3532343432364645413344462F7265736F75726365732F
310
636F72652E786D6C8D504B6E833010BD0A9A6D65B08134808CA354A427E8052C332156828DFCA97AFC9A40A576D7CDCCE87D344F8F9FBEE647F689CE6B6B7A6039850C8DB2A336530F315C4903D94970676DF82583CCC8197B5861107C72362E3BA4AC096842428D1D7107A5F71820538F74F4E0D50D6799CB1892C2DFF345
310
AABB9C306779A2934E701F5C0A906D4FD609C2A1B7D129F4BCD858C163D4E3AED163FAA9AF1A1D88F67CA98E6D35906AA82A52BFB39ABCD5CD915C86331BD86BD3B665CD8BD52C78D0F34F46E550061C419494B6843142CB0F5677F4D0D58717DA7494F26295FF31C565FCA7296A13AA728FBBD93C0896823C09C18BB5AFB4
310
9E65A6BD762BBE01504B010214000A0000080000B670623B3DEE336E79000000790000001B00000000000000000000000000000000006175746F6465736B2D64657369676E2D7061636B6167652E786D6C504B01021400140006080800B670623BD486FD9CA0000000F40000001300000000000000000000000000B2000000
310
5B436F6E74656E745F54797065735D2E786D6C504B01021400140006080800B670623B28ED286BEB0000007C010000080000000000000000000000000083010000636F72652E786D6C504B01021400140006080800B670623B55019EA25F0000007C000000070000000000000000000000000094020000636E782E786D6C50
310
4B01021400140006080800B670623B7BC41AC871010000D40300000C00000000000000000000000000180300006662782F636F72652E786D6C504B01021400140006080800B670623B70102A487D0000009D0000000B00000000000000000000000000B30400006662782F636E782E786D6C504B01021400140006080800B6
310
70623B3610CA3329010000120200003100000000000000000000000000590500006662782F42384135303843342D343331462D343546312D424341352D3532343432364645413344462F636F72652E786D6C504B01021400140006080800B670623B1B8617914E010000330300003000000000000000000000000000D10600
310
006662782F42384135303843342D343331462D343546312D424341352D3532343432364645413344462F636E782E786D6C504B01021400140006080800B670623BBFEF2E3B690500003C10000034000000000000000000000000006D0800006662782F42384135303843342D343331462D343546312D424341352D35323434
310
32364645413344462F6F626A656374732E786D6C504B01021400140006080000B670623B0000000000000000000000003500000000000000000000000000280E00006662782F42384135303843342D343331462D343546312D424341352D3532343432364645413344462F76657274696365732E62696E504B010214001400
310
06080800B670623BF270F133060000000400000036000000000000000000000000007B0E00006662782F42384135303843342D343331462D343546312D424341352D3532343432364645413344462F747269616E676C65732E62696E504B01021400140006080000B670623B00000000000000000000000037000000000000
310
00000000000000D50E00006662782F42384135303843342D343331462D343546312D424341352D3532343432364645413344462F617474726962757465732E62696E504B01021400140006080800B670623B08DA0BD1900000004101000036000000000000000000000000002A0F00006662782F42384135303843342D3433
310
31462D343546312D424341352D3532343432364645413344462F6469726563746F72792E786D6C504B01021400140006080800B670623B3B4606F3FE000000A00100003B000000000000000000000000000E1000006662782F42384135303843342D343331462D343546312D424341352D3532343432364645413344462F72
310
65736F75726365732F636F72652E786D6C504B0506000000000E000E0080040000651100000000
  0
XRECORD
  5
187
102
{ACAD_REACTORS
330
186
102
}
330
186
100
AcDbXrecord
280
     1
 70
     1
 90
429727718
  1
887D55A9-D0DD-414E-B741-A7DCD4DA2B4C
310
504B03040A0000080000B670623B3DEE336E79000000790000001B0000006175746F6465736B2D64657369676E2D7061636B6167652E786D6C3C3F786D6C2076657273696F6E3D22312E302220656E636F64696E673D227574662D3822203F3E3C666F726D6174733E3C666F726D61743E687474703A2F2F736368656D612E
310
6175746F6465736B2E636F6D2F64657369676E2D7061636B6167652F323030393C2F666F726D61743E3C2F666F726D6174733E504B0304140006080800B670623BD486FD9CA0000000F4000000130000005B436F6E74656E745F54797065735D2E786D6C7D8EC10E82300C865F65E91D8A1E8C310C0EEA1BF002731658846E
310
D98AC1B77784ABF1D8FE5FBFBF75BBCE937A534CCEB38643598122B6FEE978D0B0485F9C41B54DDD7D022595594E1A469170414C76A4D9A4D207E29CF43ECE46F218070CC6BECC4078ACAA135ACF422C856C0E68EA1BF5669944DDD7BCDE7B1F8E415D77AECB980613C2E4AC91FC167A2B244592486606FC29C8FD7F045B9A
310
EF7053A7E60B504B0304140006080800B670623BBC1638F5EC0000007C01000008000000636F72652E786D6C8D90416EC3201045AF82665B61836BE2D8C24471DB9CA01740401C94182C03558F5F9C3852BBEB6A467FFE9B197D7EF89E6EE8CB2CC17AD7032D0820E394D7D68D3DA478C67B4007C117EFE32F1B202727D3C3
310
2A83E0E3E2D3BC49CABB685CCCAAF3DA6CA20CC14440EA969B1E82BA98491632C5EC08D76296EA2A4753D06797E194AC468F2356E77DF66CCD02825543D50CACC62D39ED70FDC68EB8FD68F6F8787A6784342D1DDA1D2F5758F068A7E77DB518198D065111D2624A31A93E69DD11D6D5EC85EC3B4278B9DAFF4069D6FF8492
310
75F1B5DADE7D600104CD8FDC0782976B16B9DC83CA75CD4DFC00504B0304140006080800B670623B55019EA25F0000007C00000007000000636E782E786D6C4DCB3B0E80201045D1AD90E915ED2CF8AC45050C11660C8261F98AB1B07AC9C97D42D718D865D3E909258CFD00CCE24AC6E326A164D74DC0B4128928FF326038
310
472BA13128B1252AC747C6BAB984FC68F0B87FE8960A5C09FE86CFB69FBA01504B0304140006080800B670623B3586FFB671010000D40300000C0000006662782F636F72652E786D6CC553ED6E8320147D15C2DF4541A76D6D90A6DDD627D80B50A4CE54C120983EFEAE1F4DD7A55BBA5FF3879273EEE59E7310B6393735EA
310
95ED2AA3731C851423A5A5292A5DE6D8BB63B0C268C39935C67D29C3488B46E578803167A535BE9D2169B453DA01AA4DA16650749D7218C91A1639EEE4876A4428BC838AEE14B6429E44A9C228041AEA38EB9C0501681A32BC313F1ECE8C4C3867DE57C5CC56054CAB8E95B298A7F12E5EEED224C8E87E11242FE936C8DE96
310
AB60BB7F4D295D66D12E5B30323473E6AAE6A24E5A259C2A308F29CD82280A68FC1E256B9AAE93F489AED694323294DF34F9B678B0C957DA3DC7B3DCA9ADC33C022123F1CD2D44E450277AD04338234388F01913BE0D1A0281909D38D4171F27807A259DB1093085F157AA17B557309586747CD0CF0B46A64E983A6E0EAEEF
310
CE881F9EF1FB8E70D44297604238581EBC1B74B249C31C5AAB6CD0BB33D2C636A27ECCC62F0EFF445DC5DF95244D6DEC7F2922F30191F9F720C37DE49F504B0304140006080800B670623B4220A0FF7D0000009D0000000B0000006662782F636E782E786D6C4DCCD10A83201886E15B91FFDCE542CB0335D0EC3E6259C84A
310
C3E9D8E5AF46073BFAE0E1E315DD675BD1DBA5978F41C2FD4600B9F088930F8B849267CC01754AA418F3DF0D50183727E164506249B1EC174D6E1ECB9A0F5D7D785E68DB8151CD286E5A5363CA6B8A39E90D36D40E96B086F55A43A544F52B1D7B86D517504B0304140006080800B670623B2FA3FEDE290100001202000031
310
0000006662782F45374635344235342D363743322D343832342D383044432D4334454645303536354442422F636F72652E786D6C8D515B6EC32010BC0AE22B55850D2E386E848994D7097A0117488A1283C5A3CAF10BB523B57FF961D1ECCCECC0F2ED7DBC816FED8371B687A4C210682B9D32F6D2C314CFA883602BB8772E
310
FEA141608751F7B0C050F08B77695A20E96CD43666D43AA5177008414708E42D5F7A18E4971E876A483133C2B59A06791D2EBA22556E679EE021FA1C00CC43CA09C5717D6274C7286AD7FB06D1AEA1A8C3873DDAD3E3E98859CB0EBB1DAF67A1E02919B5C88DCA71CCD968FFAC49110B1ECDF8882FBD1EA256503418BF2342
310
106E3E08DD60B6A1EC15771B8C795DE8FF4469524F8A92B1F1AD59E2CEB20005E1F5DC105CB9F4797B84D1F7C9F908CABC55D0F2050A5C61CC1AD2F27A26E6E767C7962E8E213A9FBF7775FDCC5CC266DB960A5E970DE5F2BBBE5CCB36C50F504B0304140006080800B670623B1B8617914E01000033030000300000006662
310
782F45374635344235342D363743322D343832342D383044432D4334454645303536354442422F636E782E786D6CD593C16EC32010447F0571AD6CE3D489D20813A9877E410FBD62D82434182CC055F3F75D1292E692438FBD206B7698593D61BEFD1E2DF982108D773D6D6B460938E5B571FB9ECE6957AD29D90A1EBC4F77
310
364A9C1CA1A759A682EF839FA72269D8C9D92654AD71C72206887E0E0A22CAF926B15E498B01E0AA19451807D01A34B919F16B070157417138917400F2F6FA41FCF0092A45DEE414C19BDC21783E4BD39D891265658C3D8DEA00A3ACE59CBC8678ACB54CB26EEB6BD7839D7E9348BE70AD9C8321B9BCA7F9A4A26C542347DE
310
E050F09802D22BA6749A800A394DD62899107273365E3C82CFC6A55557BC06C10774B7ABE7AEC3B0F34CF06446280E154026D0542C187BA9DAB6628BF7B6DBB0E5A65B3EB1F58631DE64BBE083F7B65CC218087E22CABB042E51D1F2268F1FE12B3EA24D40D63E9CFE00120194D60B9D5BC67FE6D39CDF37E20AF817881F50
310
4B0304140006080800B670623B29652116630500003C100000340000006662782F45374635344235342D363743322D343832342D383044432D4334454645303536354442422F6F626A656374732E786D6CAD575D739B3814FD2B0CFB0C989834C90EA1639B24E3E9A6EDD4D3CE3E64C623834CD8006224913AFDF57B040203
310
B65BEF871F0C12D2FD3CF7E8CA7FBFCB33E3957291B2E2D674ED8969D02262715A24B76625B7D6B569BC0F7CCE98EC2D338D82E4F4D654D366E0279C55A59E8AE99654991CCDDECFFF3444440B6A1A514684B83545F44C7362934AB2988A173B2692D8C97667BB76B3702836E1A47C1E092D09A78584A5982F20C5688C7287
310
C389E904BEA3BE07BEFAD7ABA6A75739B53F43FD69212429A20365233153D70BEF2E2E6FAC4BCF9B5ADEBB0BD79ADFCF43CBBD9A4E16EF168B9BD9DD0D140BC921495BC2E9D60C1E101B9E46BED37CEA2CD6861F3329624541A3DA7F7858DBAC25C6B4A4458C3CA654405BCFEBC970E8AAD8F43E4FD558ABEC4F9FE7557F47
310
4F506B7BFBEC5BCA367FC105710E2AB8A00A554D7CB4A30DFE26FBA86D18CBF4B75418399194A72433B274C3097F33032C554B027F2046A1932B842B0FCCC0DDCBEBDB8AD2F835768F59B9ADB24C41D30C6A64AF817F2A456D59FA83F2E3DA60137255A585BCD60EC9B7929AC18DEFD49381AF1ED30BFDB109A4B1CD488294
310
C3CDE6EBC8D185AABD6568061FEE37BB95AAC7E3CA4BCE4ACAA5820FA0D526AE7DAA2869B5EE5999531BE0CC20E6FBA07C41E43FA27CF7A6206F3CDD793B4F6B919C1462CB788EDCD893FA674CDA17AB7B3B7C019F8D561FAEE966FED562DFE98C1D12C6A9FC015C2A35D7FF3D7FC398F591DA4B5FE0BFA2C0189FEA50AE22
310
92817A1ED3020951A03432862970F976B33383259812CC8E5D240BBA801CBCF8CE2BBEE3BF910DB6AAD5F79E05123AE2DB33981FB1ACCB02B69D00CB014FD68AB573A7627EF9BFD4CC2C5C7D58557C4B22FAA88925A4DBB44825CECE3D78FB060D1231F0E885BE7D673C86A3874958F593906B5502D1563157814FDAC3420D
310
F69A070A22EC4B98E23CFF171A1E5311D12C23056555ABA53B8614563B92D17D02AAB009E8F46284624E5F53D5490C560CCCC2591FF1B45421EB0EBD8EA7ED13BE7C5D7E0428CD60FEF60779EB13E6664FF711CB185F6FDED60D139A001FF60CD1FD6D086F1D51474901E26B2CB794A343BC8ED3EDB612E0DD2351FCB65CF4
310
33D511C9E14B5B40ADC6A6263DB0336A8F700DDF56271A024E70B0B3629DE21847591E55DED73D56206AB927E46FAABC5C939C55853C274C93D69FD6FA4E78BF8B11DF898C9ECD60553FAD39283BA6F18984AA23E8884F83F45C5F5F859797B31B2B9C84A1E5B9DE9D35BFF25C6B76152E422F9C5DCC3D847F5801ED09D5AF
310
41441327A25FF15487F9EB725FB666F048A4701E9A827292E6F97569A32DF61DEC01C0BB8DCBBCCC684E0B49147C1FD54BF685A0AB18C868E6973949E819523E3DAC463660E68C7D9F55A9D1EFA3BD7A76A16AE1A810F95CE59B82A4D968A376DC2E8B44BBDD86B27B368CDE0ED548C7137DA860591A83706223A12CA712B4
310
7306DBF39C0A20A6DF95C7FAF670C6EED7A61F946493D1D6926782963813403548A78AE470DEF80D2D9CEAA26E4D1C76F60BFE74219A06527D6B82DF641A51616F703CAAC6A7160E08A00BEB4810A0274592A1B36E3675E36E978A0DE80727A0D6DF2D39A75BD27E0D8837276589537B40ABB56D5A41F48F1C6FCD3188C4EB
310
A6929D2FFB89CE995A4D00AE813BDD032DC48B56BD437DFDDC2DD7AED70C2272D63DE9A72068A45A92F0A4BE17A8A06B9366E16707AD80B1FC649459952097E74BB23805982B55E0401150A165964402AA8BDF9F3E7386BB686EDCA780C0D382E5392BF460A6EFB2C6EA1937D3F809B440D5F5435C4C5CF7A9EEFAF54564BD
310
2182DA24162F98680B4E7930C21A0079709CEAEB99A372305ABE0C0D7D6078105A83F6A0296DAEE1068A47DD1C55A9F4C9B2FC69E3EFD44B81028E963DF81B504B0304140006080000B670623B000000000000000000000000350000006662782F45374635344235342D363743322D343832342D383044432D433445464530
310
3536354442422F76657274696365732E62696E504B0304140006080800B670623BF270F1330600000004000000360000006662782F45374635344235342D363743322D343832342D383044432D4334454645303536354442422F747269616E676C65732E62696E636660600000504B0304140006080000B670623B00000000
310
0000000000000000370000006662782F45374635344235342D363743322D343832342D383044432D4334454645303536354442422F617474726962757465732E62696E504B0304140006080800B670623B08DA0BD19000000041010000360000006662782F45374635344235342D363743322D343832342D383044432D4334
310
454645303536354442422F6469726563746F72792E786D6C858F410AC3201045AF22B36F53E9A60B35CBEEBAE80D244E44489C6234F4F835464A48035D0DF398FF9F8AF63D0E6CC63039F212F8F9020C7D47C6792B21C5FE7403D62A1188E2E60C98D7234A5830286103A55745067B9D86B8A3CF9C7F90C11DE607FB144396
310
D7B6A82D282E9A152AD114D5EF2CB866EEE831B8EEA07A7BB5A8D7D61A2BAAEB7FD5F70921FF497D00504B0304140006080800B670623B6378F24DFF000000A00100003B0000006662782F45374635344235342D363743322D343832342D383044432D4334454645303536354442422F7265736F75726365732F636F72652E
310
786D6C8D504B6E833010BD0A9A6D65B0094E42641C85B639412F6099496225D8C89FAAC7AF09546A77DDCC8CDE47F3F4C4F16B7C149FE88371B603565228D06A37187BED20C50BD9437194C23B177FC9A0B06AC40E6618A4B87A97A615D2CE46B431A3D60DB8822A048C50E8473E3A08FA86A32A558A5911EEE5A4F45D5DB1
310
6465A6B34E8A107D0E502C4FE609D26370C96B0CA25A58295232C3AA3143FE692E063D485EF7F5AEE71BD2D2F39634AFFC44DAF7DD9E9CCE6F9CD25DCBFA762BAAD92C4534E34F46ED51451C40D694B6843142EB0FD61C283F34FC85EE0F948A6A96FF31A569F8A729191B37F51A77B105902C0779125254735F793DCBCC7B
310
EE567E03504B010214000A0000080000B670623B3DEE336E79000000790000001B00000000000000000000000000000000006175746F6465736B2D64657369676E2D7061636B6167652E786D6C504B01021400140006080800B670623BD486FD9CA0000000F40000001300000000000000000000000000B20000005B436F6E
310
74656E745F54797065735D2E786D6C504B01021400140006080800B670623BBC1638F5EC0000007C010000080000000000000000000000000083010000636F72652E786D6C504B01021400140006080800B670623B55019EA25F0000007C000000070000000000000000000000000095020000636E782E786D6C504B010214
310
00140006080800B670623B3586FFB671010000D40300000C00000000000000000000000000190300006662782F636F72652E786D6C504B01021400140006080800B670623B4220A0FF7D0000009D0000000B00000000000000000000000000B40400006662782F636E782E786D6C504B01021400140006080800B670623B2F
310
A3FEDE290100001202000031000000000000000000000000005A0500006662782F45374635344235342D363743322D343832342D383044432D4334454645303536354442422F636F72652E786D6C504B01021400140006080800B670623B1B8617914E010000330300003000000000000000000000000000D2060000666278
310
2F45374635344235342D363743322D343832342D383044432D4334454645303536354442422F636E782E786D6C504B01021400140006080800B670623B29652116630500003C10000034000000000000000000000000006E0800006662782F45374635344235342D363743322D343832342D383044432D4334454645303536
310
354442422F6F626A656374732E786D6C504B01021400140006080000B670623B0000000000000000000000003500000000000000000000000000230E00006662782F45374635344235342D363743322D343832342D383044432D4334454645303536354442422F76657274696365732E62696E504B01021400140006080800
310
B670623BF270F13306000000040000003600000000000000000000000000760E00006662782F45374635344235342D363743322D343832342D383044432D4334454645303536354442422F747269616E676C65732E62696E504B01021400140006080000B670623B0000000000000000000000003700000000000000000000
310
000000D00E00006662782F45374635344235342D363743322D343832342D383044432D4334454645303536354442422F617474726962757465732E62696E504B01021400140006080800B670623B08DA0BD190000000410100003600000000000000000000000000250F00006662782F45374635344235342D363743322D34
310
3832342D383044432D4334454645303536354442422F6469726563746F72792E786D6C504B01021400140006080800B670623B6378F24DFF000000A00100003B00000000000000000000000000091000006662782F45374635344235342D363743322D343832342D383044432D4334454645303536354442422F7265736F75
310
726365732F636F72652E786D6C504B0506000000000E000E0080040000611100000000
  0
XRECORD
  5
112
102
{ACAD_REACTORS
330
110
102
}
330
110
100
AcDbXrecord
280
     1
270
     1
271
     1
  0
XRECORD
  5
111
102
{ACAD_REACTORS
330
110
102
}
330
110
100
AcDbXrecord
280
     1
270
     1
271
     1
  0
XRECORD
  5
18A
102
{ACAD_REACTORS
330
110
102
}
330
110
100
AcDbXrecord
280
     1
 70
     0
 90
1778669749
  1
9BF507EE-FAF7-4A99-A33D-4EE51894BC40
310
504B03040A0000080000B670623B3DEE336E79000000790000001B0000006175746F6465736B2D64657369676E2D7061636B6167652E786D6C3C3F786D6C2076657273696F6E3D22312E302220656E636F64696E673D227574662D3822203F3E3C666F726D6174733E3C666F726D61743E687474703A2F2F736368656D612E
310
6175746F6465736B2E636F6D2F64657369676E2D7061636B6167652F323030393C2F666F726D61743E3C2F666F726D6174733E504B0304140006080800B670623BD486FD9CA0000000F4000000130000005B436F6E74656E745F54797065735D2E786D6C7D8EC10E82300C865F65E91D8A1E8C310C0EEA1BF002731658846E
310
D98AC1B77784ABF1D8FE5FBFBF75BBCE937A534CCEB38643598122B6FEE978D0B0485F9C41B54DDD7D022595594E1A469170414C76A4D9A4D207E29CF43ECE46F218070CC6BECC4078ACAA135ACF422C856C0E68EA1BF5669944DDD7BCDE7B1F8E415D77AECB980613C2E4AC91FC167A2B244592486606FC29C8FD7F045B9A
310
EF7053A7E60B504B0304140006080800B670623BCA089DFFEC0000007C01000008000000636F72652E786D6C8D90416E83301045AF62CDB632D8402020E32882F604BD80653BC44AB011B6AB1EBF262152BBEB6A467FFE9B197D76FA9EEFE84BAFDE38DB03CD08206DA553C64E3DC470C1474027CE56E7C22F1B202B66DDC3
310
260367D3EAE2B24BD2D9A06D48AA754AEFA2F05E0740F29E9A1EBCBCEA59642286E4F0B76C11F226269DD15797E0188D42CF2346A57DE662F40ABCAEC77628C6120F654571D50C04B7F5B9C1E3997CD4F550BE3745C3F20DE62C98F9755FAE5A04AD801784B498524C8A4F5A75E4D055873772EC0861F966FF03C545FD138A
310
C686B2D8DF7D621E384D8F3C069CE55B16A93C824A75CB8DFF00504B0304140006080800B670623B55019EA25F0000007C00000007000000636E782E786D6C4DCB3B0E80201045D1AD90E915ED2CF8AC45050C11660C8261F98AB1B07AC9C97D42D718D865D3E909258CFD00CCE24AC6E326A164D74DC0B4128928FF326038
310
472BA13128B1252AC747C6BAB984FC68F0B87FE8960A5C09FE86CFB69FBA01504B0304140006080800B670623B68FC0B7272010000D40300000C0000006662782F636F72652E786D6CC5535B6E833010BC8AE5DF0A6C1E8124328E22D29EA01770C0A128602363A31CBFCB234A53A555FA553EC09AD9F5CE8C31DB5DDA060D
310
D2F4B556190E7C8A9154852E6B5565D8D993B7C668C799D1DA7E29C3488956667884316795D1AE5BA0422B2B950554E9522EA0E87B69312A1A5864B82F3E642B7CE12C54F467BF13C55954D20F7CA0A18EB3DE1A1080E621E31BF3D3F1C2C88C73E65C5D2E6C5DC2B4FA544B8379921C36797888BC3C8A032F4E73EA6D927D
310
EA1DF6F42D49F2E8350D5346C666CE6CDD5ED515460A2B4BCC434A375E1078347C0FE22D5D6DE3D50B5D6F2965642CBF6B725DF96493AB958DC245EEDCD6631E809089F8E61622B2A81703E8219C913144F84C09DF070D8140C8561C9BAB8F3340832CAC363130A576376A108D933095FA747AD0CF0B46E64E983A6D0EAE1F
310
CE089F9EF1FB8E70D44255604258581E9D1D75B259C3125A278D37D80B52DAB4A279CEC62F0EFF44DDC43F9454E8469BFF5244960322CBEF41C6FBC83F01504B0304140006080800B670623B0F71DDB67E0000009D0000000B0000006662782F636E782E786D6C4DCCD10A83201886E15B91FFDCA54DB73F502386BB8F5816
310
32D3703976F9ABD1C18E3E78F87855FB990379BBFCF2296AE02706C4C5471A7C9C349475A408A4352AA7B4FEDD80C47E761A7606A3A69CCA72D0E0C6BE8475D3E0E3F3409428EA6B27A84079A782899AA2EC1A7AE3ECCC2FD858CB2D544655BFD2B67BD87C01504B0304140006080800B670623BE134B4FB28010000120200
310
00310000006662782F38353834323741342D343835462D343034322D383541392D4331303331363839454531452F636F72652E786D6C8D515B6EC32010BC0AE22B55850D0EA424C24451959EA0172086A42831583CAA1CBF503B52FB971F16CDCECC0EACD8DFC71BF836215AEF7A481A0C817183D7D65D7A98D3197108F652
310
04EFD31F1A044E8DA6871586525C82CFD3020DDE25E352419DD76601558C264130DCCAA58771F832A36A544E8511AFCDA486ABBA988634A55D7852C4144A00300FA927949C71DABD1D28A29C7D208A6987383B6CD13BC16BB2E1DBE3911C453B0BA5C8D9EA456E758963CFD684674DAA588A64C747FC2118958C86B2C3788B
310
0841B8FB247487D98EB257CC77188BB6D2FF89F2A49F1465EBD2BA5BE2CEB2082511EDDC9042FB7CBA3DC298FBE4430275DE2A9AE1054ADC60CC08E3A29D89E5F9C5714317C7987C28DFBBBA9E0A97B0D97643A568EB864AF95D5FA9759BF207504B0304140006080800B670623B1B8617914E010000330300003000000066
310
62782F38353834323741342D343835462D343034322D383541392D4331303331363839454531452F636E782E786D6CD593C16EC32010447F0571AD6CE3D489D20813A9877E410FBD62D82434182CC055F3F75D1292E692438FBD206B7698593D61BEFD1E2DF982108D773D6D6B460938E5B571FB9ECE6957AD29D90A1EBC4F
310
77364A9C1CA1A759A682EF839FA72269D8C9D92654AD71C72206887E0E0A22CAF926B15E498B01E0AA19451807D01A34B919F16B070157417138917400F2F6FA41FCF0092A45DEE414C19BDC21783E4BD39D891265658C3D8DEA00A3ACE59CBC8678ACB54CB26EEB6BD7839D7E9348BE70AD9C8321B9BCA7F9A4A26C542347
310
DEE050F09802D22BA6749A800A394DD62899107273365E3C82CFC6A55557BC06C10774B7ABE7AEC3B0F34CF06446280E154026D0542C187BA9DAB6628BF7B6DBB0E5A65B3EB1F58631DE64BBE083F7B65CC218087E22CABB042E51D1F2268F1FE12B3EA24D40D63E9CFE00120194D60B9D5BC67FE6D39CDF37E20AF817881F
310
504B0304140006080800B670623B5933D422630500003B100000340000006662782F38353834323741342D343835462D343034322D383541392D4331303331363839454531452F6F626A656374732E786D6CAD575B6FA33814FE2B887D0642934E9B156594264D158D3A534DD4D13E548A0C38942D60649B4EBABF7E3F8321
310
40924EF6928780CDF1B97EE762EFF32E4B8D37CA45C2F21BD3B547A641F39045491EDF98A5DC5AD7A6F1D9F73863B243661A39C9E88DA9B64DDF8B392B0BBD15D12D295339D85DDEFE618890E6D434C2940871638AF08566C426A5641115AF764424B1E3EDCE76ED9AB0CF36E6A47819302D08A7B984A6D8CFC1C5A89572FB
310
CB91E9F89EA3BEFB9EFAD754E3D3544E654F5F7E920B49F2F040D880CDD89D2CEE2E2EA7D6E56432B6269F2E5CEB7679BBB0DCABF168FE693E9FCEEEA6102C240727AD09A75BD3BF876F78127A4EFDA9D5582B7E4CA590E5390D2BFB6161A5B3E618D182E611E2985001691DAB47FDA5AB7CD3F93C566B2DB2BB7D9E55DD13
310
1D468DEECDB3AB290BFE8409E21C54704115AA6AFF68436BFC8DF65E0B184BF5B74418199194272435D224E084BF9B3E481589EFF5D828747285706581E9BB7B7E5D5D911ABFC6EE312DB7659A2A689A7E85EC0DF04FA5A8344BFEA2FCB834E8845895492EAFB541F2BDA0A63FF59C6AD3F7D4637CA13FD68E34B629891172
310
98597F1D183A57B9B75A98FE9765B05BAB7C3C2EBCE0ACA05C2AF8005A4DE09AA7F29216EB9E15397500C6F47CBE77CA7778FE2BD277AF0AE2C693DD6437D1522427B9D8329E2136F6A8FA19A3E6C56ADF0E5F50CF06D48734EDCEBF22F69C56D97EC138153F804B85E6FABFC7AFEFB32E523BE1F3BD372418E363EDCA7548
310
52949E8724474014288D94610BB57C1BEC4C7F854A89CA8E5324F55B871CBC78CE1BBEE3BFE68D6A5589EF3C730474506FCFA8FCF0659516D0ED04580EEA6425581B77CAE797FF4BCECC16EB2FEB926F49481F746159D06D922712BD730FDEAE42BD40F42C7AA5EF3F198F60E86110D6DD20645A9480B795CF95E3E3A659A8
310
C55E724F408873315335CFFB8584874484344D494E59D94869DB90C26A5B64F49C802CAC1D3ABE18A098D3B7444D123D8A9E5AE8F5214F0AE5B2B6E9B575DA3E61CBD3EA2B4009FA940524DD1305FB6A1FB294F14DF0BEA90BA109ECE1481FDC3FFAE8D60E75141700BE82725371B4873751B2DD960265F788137FACE6DD40
310
B575E4F0A5C99F46629D92131467A41EE11ABD8D4CCC039CA0AFB37C93A08B232B8F0AEFCA1E0A1015DF13FC83322B362463652ECF71D3A8B1A7D1BE65DE1D62C44F22C317D35F574FEB16153BA2D13E543D10A80E74C4A65E78A6B7CBCBD1D5DD9DB59C2DAFACC96C3AB566E3F1C29ADCDD5DBAD7D3C9ED7C822ED74F80A6
310
41755310DE4443F44A9E68373FADF6596BFA0F440AE7BECE2727AE9F4F2B1B53B1E7E00CF0DD1E5C65454A339A4BA2D0FBA05ED2EF0443458F47BDBFCA484CCFE0F2ED7E3DD0013B679C7B5499467F0ECEEADDB9CA85A34CE44B99053949D2C1416DB85DE4B136BB7165FBAC0B7AB3542BED4F8CA182A549847A1319316519
310
95A83A67147B9E5101C47487F2485F1ECE38FD568F839204296D3479219888530154036E6528FBFBC66F98E0D4107563A2D7D9AFF8D389681A08F58D89F22693900A3B407754734FC51C10C010D6D640809EE4718AC1BA3ED4AEDB53CA37283F68805A7E4B72CEB0A4EDEAD5DD8C14059A76AFAA56BA6901E13F32BC51C720
310
12AF41295B5BF61BAD3195181FB506E6B40F4C10AF5AF40EF9F5B159AE5DD1F43C72D635E94310D45C2D49785C5D0B94D3B54AB3C5A38349C0587D338AB48C11CBF339599C02CCA54A70A008A8D03C0B2201D5F9EFCF8F9CE12A9A19CB0410789EB32C63B95ECCF455D658BFE0621A3DA32C5075FB101723D77DAE867E7D0F
310
D90444509B44E2151B4DC2290B065803200FBAA9BE9D392A0603F2D5C2D00D6302A615680F66D2FA166E2079D4C551A54AB758161FCEFD4E450A14704CECFEDF504B0304140006080000B670623B000000000000000000000000350000006662782F38353834323741342D343835462D343034322D383541392D4331303331
310
363839454531452F76657274696365732E62696E504B0304140006080800B670623BF270F1330600000004000000360000006662782F38353834323741342D343835462D343034322D383541392D4331303331363839454531452F747269616E676C65732E62696E636660600000504B0304140006080000B670623B000000
310
000000000000000000370000006662782F38353834323741342D343835462D343034322D383541392D4331303331363839454531452F617474726962757465732E62696E504B0304140006080800B670623B08DA0BD19000000041010000360000006662782F38353834323741342D343835462D343034322D383541392D43
310
31303331363839454531452F6469726563746F72792E786D6C858F410AC3201045AF22B36F53E9A60B35CBEEBAE80D244E44489C6234F4F835464A48035D0DF398FF9F8AF63D0E6CC63039F212F8F9020C7D47C6792B21C5FE7403D62A1188E2E60C98D7234A5830286103A55745067B9D86B8A3CF9C7F90C11DE607FB1443
310
96D7B6A82D282E9A152AD114D5EF2CB866EEE831B8EEA07A7BB5A8D7D61A2BAAEB7FD5F70921FF497D00504B0304140006080800B670623BD9A3B367FE000000A00100003B0000006662782F38353834323741342D343835462D343034322D383541392D4331303331363839454531452F7265736F75726365732F636F7265
310
2E786D6C8D504B6E833010BD0A9A6D65B01D0201194711694FD00B586642AD043BF2A7EAF16B122AB5BB6E6646EFA3797AE2F8B5DC8A4FF4C1383B002B291468B59B8C9D0748F1420E501CA5F0CEC55F3228AC5A708015062966EFD27D83B4B3116DCCA875136EA00A012314FA968F0182FEC045952AC5AC08D7F2AEF455CD
310
58B232D3592745883E07289E4FD609D26370C96B0CA27AB252A464A64D63A6FCD35C0C7A904D73EE467EE664DCD58CD4ED4849D79C5A723ED1B7A61977AF2D6F45B59AA58866F9C9A83DAA8813484E6947182394BFB3BAA7FBBEDEBFD0434FA9A856F91F53BA4FFF342563E38E6F719FB60092E5200F428A6AED2BAF479979
310
AFDDCA6F504B010214000A0000080000B670623B3DEE336E79000000790000001B00000000000000000000000000000000006175746F6465736B2D64657369676E2D7061636B6167652E786D6C504B01021400140006080800B670623BD486FD9CA0000000F40000001300000000000000000000000000B20000005B436F6E
310
74656E745F54797065735D2E786D6C504B01021400140006080800B670623BCA089DFFEC0000007C010000080000000000000000000000000083010000636F72652E786D6C504B01021400140006080800B670623B55019EA25F0000007C000000070000000000000000000000000095020000636E782E786D6C504B010214
310
00140006080800B670623B68FC0B7272010000D40300000C00000000000000000000000000190300006662782F636F72652E786D6C504B01021400140006080800B670623B0F71DDB67E0000009D0000000B00000000000000000000000000B50400006662782F636E782E786D6C504B01021400140006080800B670623BE1
310
34B4FB280100001202000031000000000000000000000000005C0500006662782F38353834323741342D343835462D343034322D383541392D4331303331363839454531452F636F72652E786D6C504B01021400140006080800B670623B1B8617914E010000330300003000000000000000000000000000D3060000666278
310
2F38353834323741342D343835462D343034322D383541392D4331303331363839454531452F636E782E786D6C504B01021400140006080800B670623B5933D422630500003B10000034000000000000000000000000006F0800006662782F38353834323741342D343835462D343034322D383541392D4331303331363839
310
454531452F6F626A656374732E786D6C504B01021400140006080000B670623B0000000000000000000000003500000000000000000000000000240E00006662782F38353834323741342D343835462D343034322D383541392D4331303331363839454531452F76657274696365732E62696E504B01021400140006080800
310
B670623BF270F13306000000040000003600000000000000000000000000770E00006662782F38353834323741342D343835462D343034322D383541392D4331303331363839454531452F747269616E676C65732E62696E504B01021400140006080000B670623B0000000000000000000000003700000000000000000000
310
000000D10E00006662782F38353834323741342D343835462D343034322D383541392D4331303331363839454531452F617474726962757465732E62696E504B01021400140006080800B670623B08DA0BD190000000410100003600000000000000000000000000260F00006662782F38353834323741342D343835462D34
310
3034322D383541392D4331303331363839454531452F6469726563746F72792E786D6C504B01021400140006080800B670623BD9A3B367FE000000A00100003B000000000000000000000000000A1000006662782F38353834323741342D343835462D343034322D383541392D4331303331363839454531452F7265736F75
310
726365732F636F72652E786D6C504B0506000000000E000E0080040000611100000000
  0
XRECORD
  5
113
102
{ACAD_REACTORS
330
110
102
}
330
110
100
AcDbXrecord
280
     1
270
     1
271
     1
  0
XRECORD
  5
114
102
{ACAD_REACTORS
330
110
102
}
330
110
100
AcDbXrecord
280
     1
270
     1
271
     1
  0
CELLSTYLEMAP
  5
B35E
102
{ACAD_REACTORS
330
104
102
}
330
104
100
AcDbCellStyleMap
 90
        3
300
CELLSTYLE
  1
TABLEFORMAT_BEGIN
 90
        5
170
     1
 91
        0
 92
    32768
 62
   257
 93
        1
300
CONTENTFORMAT
  1
CONTENTFORMAT_BEGIN
 90
        0
 91
        0
 92
      512
 93
        0
300

 40
0.0
140
1.0
 94
        5
 62
     0
340
11
144
0.25
309
CONTENTFORMAT_END
171
     1
301
MARGIN
  1
CELLMARGIN_BEGIN
 40
0.06
 40
0.06
 40
0.06
 40
0.06
 40
0.18
 40
0.18
309
CELLMARGIN_END
 94
        6
 95
        1
302
GRIDFORMAT
  1
GRIDFORMAT_BEGIN
 90
        0
 91
        1
 62
     0
 92
       -2
340
0
 93
        0
 40
0.045
309
GRIDFORMAT_END
 95
        2
302
GRIDFORMAT
  1
GRIDFORMAT_BEGIN
 90
        0
 91
        1
 62
     0
 92
       -2
340
0
 93
        0
 40
0.045
309
GRIDFORMAT_END
 95
        4
302
GRIDFORMAT
  1
GRIDFORMAT_BEGIN
 90
        0
 91
        1
 62
     0
 92
       -2
340
0
 93
        0
 40
0.045
309
GRIDFORMAT_END
 95
        8
302
GRIDFORMAT
  1
GRIDFORMAT_BEGIN
 90
        0
 91
        1
 62
     0
 92
       -2
340
0
 93
        0
 40
0.045
309
GRIDFORMAT_END
 95
       16
302
GRIDFORMAT
  1
GRIDFORMAT_BEGIN
 90
        0
 91
        1
 62
     0
 92
       -2
340
0
 93
        0
 40
0.045
309
GRIDFORMAT_END
 95
       32
302
GRIDFORMAT
  1
GRIDFORMAT_BEGIN
 90
        0
 91
        1
 62
     0
 92
       -2
340
0
 93
        0
 40
0.045
309
GRIDFORMAT_END
309
TABLEFORMAT_END
  1
CELLSTYLE_BEGIN
 90
        1
 91
        1
300
_TITLE
309
CELLSTYLE_END
300
CELLSTYLE
  1
TABLEFORMAT_BEGIN
 90
        5
170
     1
 91
        0
 92
        0
 62
   257
 93
        1
300
CONTENTFORMAT
  1
CONTENTFORMAT_BEGIN
 90
        0
 91
        0
 92
      512
 93
        0
300

 40
0.0
140
1.0
 94
        5
 62
     0
340
11
144
0.18
309
CONTENTFORMAT_END
171
     1
301
MARGIN
  1
CELLMARGIN_BEGIN
 40
0.06
 40
0.06
 40
0.06
 40
0.06
 40
0.18
 40
0.18
309
CELLMARGIN_END
 94
        6
 95
        1
302
GRIDFORMAT
  1
GRIDFORMAT_BEGIN
 90
        0
 91
        1
 62
     0
 92
       -2
340
0
 93
        0
 40
0.045
309
GRIDFORMAT_END
 95
        2
302
GRIDFORMAT
  1
GRIDFORMAT_BEGIN
 90
        0
 91
        1
 62
     0
 92
       -2
340
0
 93
        0
 40
0.045
309
GRIDFORMAT_END
 95
        4
302
GRIDFORMAT
  1
GRIDFORMAT_BEGIN
 90
        0
 91
        1
 62
     0
 92
       -2
340
0
 93
        0
 40
0.045
309
GRIDFORMAT_END
 95
        8
302
GRIDFORMAT
  1
GRIDFORMAT_BEGIN
 90
        0
 91
        1
 62
     0
 92
       -2
340
0
 93
        0
 40
0.045
309
GRIDFORMAT_END
 95
       16
302
GRIDFORMAT
  1
GRIDFORMAT_BEGIN
 90
        0
 91
        1
 62
     0
 92
       -2
340
0
 93
        0
 40
0.045
309
GRIDFORMAT_END
 95
       32
302
GRIDFORMAT
  1
GRIDFORMAT_BEGIN
 90
        0
 91
        1
 62
     0
 92
       -2
340
0
 93
        0
 40
0.045
309
GRIDFORMAT_END
309
TABLEFORMAT_END
  1
CELLSTYLE_BEGIN
 90
        2
 91
        1
300
_HEADER
309
CELLSTYLE_END
300
CELLSTYLE
  1
TABLEFORMAT_BEGIN
 90
        5
170
     1
 91
        0
 92
        0
 62
   257
 93
        1
300
CONTENTFORMAT
  1
CONTENTFORMAT_BEGIN
 90
        0
 91
        0
 92
      512
 93
        0
300

 40
0.0
140
1.0
 94
        2
 62
     0
340
11
144
0.18
309
CONTENTFORMAT_END
171
     1
301
MARGIN
  1
CELLMARGIN_BEGIN
 40
0.06
 40
0.06
 40
0.06
 40
0.06
 40
0.18
 40
0.18
309
CELLMARGIN_END
 94
        6
 95
        1
302
GRIDFORMAT
  1
GRIDFORMAT_BEGIN
 90
        0
 91
        1
 62
     0
 92
       -2
340
0
 93
        0
 40
0.045
309
GRIDFORMAT_END
 95
        2
302
GRIDFORMAT
  1
GRIDFORMAT_BEGIN
 90
        0
 91
        1
 62
     0
 92
       -2
340
0
 93
        0
 40
0.045
309
GRIDFORMAT_END
 95
        4
302
GRIDFORMAT
  1
GRIDFORMAT_BEGIN
 90
        0
 91
        1
 62
     0
 92
       -2
340
0
 93
        0
 40
0.045
309
GRIDFORMAT_END
 95
        8
302
GRIDFORMAT
  1
GRIDFORMAT_BEGIN
 90
        0
 91
        1
 62
     0
 92
       -2
340
0
 93
        0
 40
0.045
309
GRIDFORMAT_END
 95
       16
302
GRIDFORMAT
  1
GRIDFORMAT_BEGIN
 90
        0
 91
        1
 62
     0
 92
       -2
340
0
 93
        0
 40
0.045
309
GRIDFORMAT_END
 95
       32
302
GRIDFORMAT
  1
GRIDFORMAT_BEGIN
 90
        0
 91
        1
 62
     0
 92
       -2
340
0
 93
        0
 40
0.045
309
GRIDFORMAT_END
309
TABLEFORMAT_END
  1
CELLSTYLE_BEGIN
 90
        3
 91
        2
300
_DATA
309
CELLSTYLE_END
  0
ENDSEC
  0
SECTION
  2
ACDSDATA
 70
     2
 71
     8
  0
ACDSSCHEMA
 90
        0
  1
AcDb_Thumbnail_Schema
  2
AcDbDs::ID
280
    10
 91
        8
  2
Thumbnail_Data
280
    15
 91
        0
101
ACDSRECORD
 95
        0
 90
        1
  2
AcDbDs::TreatedAsObjectData
280
     1
291
     1
101
ACDSRECORD
 95
        0
 90
        2
  2
AcDbDs::Legacy
280
     1
291
     1
101
ACDSRECORD
  1
AcDbDs::ID
 90
        3
  2
AcDs:Indexable
280
     1
291
     1
101
ACDSRECORD
  1
AcDbDs::ID
 90
        4
  2
AcDbDs::HandleAttribute
280
     7
282
     1
  0
ACDSSCHEMA
 90
        1
  1
AcDbDs::TreatedAsObjectDataSchema
  2
AcDbDs::TreatedAsObjectData
280
     1
 91
        0
  0
ACDSSCHEMA
 90
        2
  1
AcDbDs::LegacySchema
  2
AcDbDs::Legacy
280
     1
 91
        0
  0
ACDSSCHEMA
 90
        3
  1
AcDbDs::IndexedPropertySchema
  2
AcDs:Indexable
280
     1
 91
        0
  0
ACDSSCHEMA
 90
        4
  1
AcDbDs::HandleAttributeSchema
  2
AcDbDs::HandleAttribute
280
     7
 91
        1
284
     1
  0
ACDSRECORD
 90
        0
  2
AcDbDs::ID
280
    10
320
22
  2
Thumbnail_Data
280
    15
 94
     1466
310
89504E470D0A1A0A0000000D49484452000001000000006D080300000079B14F6400000300504C5445212830FFFFFF2128300000000000000000000000000000000000000000000000000000330000660000990000CC0000FF0033000033330033660033990033CC0033FF0066000066330066660066990066CC0066FF0099
310
000099330099660099990099CC0099FF00CC0000CC3300CC6600CC9900CCCC00CCFF00FF0000FF3300FF6600FF9900FFCC00FFFF3300003300333300663300993300CC3300FF3333003333333333663333993333CC3333FF3366003366333366663366993366CC3366FF3399003399333399663399993399CC3399FF33CC00
310
33CC3333CC6633CC9933CCCC33CCFF33FF0033FF3333FF6633FF9933FFCC33FFFF6600006600336600666600996600CC6600FF6633006633336633666633996633CC6633FF6666006666336666666666996666CC6666FF6699006699336699666699996699CC6699FF66CC0066CC3366CC6666CC9966CCCC66CCFF66FF0066
310
FF3366FF6666FF9966FFCC66FFFF9900009900339900669900999900CC9900FF9933009933339933669933999933CC9933FF9966009966339966669966999966CC9966FF9999009999339999669999999999CC9999FF99CC0099CC3399CC6699CC9999CCCC99CCFF99FF0099FF3399FF6699FF9999FFCC99FFFFCC0000CC00
310
33CC0066CC0099CC00CCCC00FFCC3300CC3333CC3366CC3399CC33CCCC33FFCC6600CC6633CC6666CC6699CC66CCCC66FFCC9900CC9933CC9966CC9999CC99CCCC99FFCCCC00CCCC33CCCC66CCCC99CCCCCCCCCCFFCCFF00CCFF33CCFF66CCFF99CCFFCCCCFFFFFF0000FF0033FF0066FF0099FF00CCFF00FFFF3300FF3333
310
FF3366FF3399FF33CCFF33FFFF6600FF6633FF6666FF6699FF66CCFF66FFFF9900FF9933FF9966FF9999FF99CCFF99FFFFCC00FFCC33FFCC66FFCC99FFCCCCFFCCFFFFFF00FFFF33FFFF66FFFF99FFFFCCFFFFFF0000000D0D0D1A1A1A2828283535354343435050505D5D5D6B6B6B787878868686939393A1A1A1AEAEAEBB
310
BBBBC9C9C9D6D6D6E4E4E4F1F1F1FFFFFF0000000000000000000000000000000000000000000000000000000000002E4550F1000002754944415478DAED9DC96EC3300C44F9FFFF3BF7A6891652A20CE4D2027CF2C136DA939E4714875A6276AFFFB8F4BAE88D974119B4E67F2EE8F71F977101185A01AFFE6FEF3B918026
310
81DF1B5202F606C026202E81D6FA4F1C3424010D02D63222E028E0448093401B05DE2DA712980150C44E603E0F848E04C30E8A2A01795B64B494B89BA09911C324A0F9540B8A6209C01602300928BC090740CB3B8EC0024034004A148022201F0365BC3E9000601188005A4A4C0530B2C0CE003106C8E701230262B2C1D0D0
310
E1094665009104F83EE0FE4801E03A7B7FD59E20D4EE01BA00A218A80A90823B600401B971800A20467F3400F30F3172C1F4A3F3146026DB8C3043025A9EA32240F1430F00187648290950554C7692000C80F220008C01BDFF0B06201210A72878006098F562090013124078EBCB2448EDB7A5364C061052012C00B1BC508C
310
877DDD2801C02E01D64A3925C22725C211C0D834244C416CA9FD6B8E0094B9D11DC02000F142098076A798C17D20CCEC0105800EEEA0742294AD92BB0048001602616E08084069382C6E86F4CD3F6A13D005C0047022002A8A8A0BE044E002A0990141FB80D66F2F1C809304700032022C3380079010A0D9414101ECAB2541
310
043233B4ED21E202A028E04A002F81874288E07DE002284F40890BB6B89F980800344194B9E02882E243A1CE1FBC2F14A8BD5EEC01C03862B3B431CE370D79F5175F3AFF10F4DC81CB4400F33C95E2D5C1BC1EAE65F3647D00C102FA0306CB4F93AE00FA6A515100C4BDF30A4240EC9E1A47CAEE098F081B28F7033496FE51
310
1780FB6589E3EAF0CA3D200CF78766AAF2FC90D6514F0701540D0031EEE58EAFF8DEB918F70F000065E147C7FFF7EDFF013619468A2C12DD9A0000000049454E44AE426082
  0
ENDSEC
  0
EOF
