  0
SECTION
  2
HEADER
  9
$ACADVER
  1
AC1032
  9
$ACADMAINTVER
 90
      197
  9
$DWGCODEPAGE
  3
ANSI_1252
  9
$LASTSAVEDBY
  1
gregb
  9
$REQUIREDVERSIONS
160
                 0
  9
$INSBASE
 10
0.0
 20
0.0
 30
0.0
  9
$EXTMIN
 10
10622.77536158089
 20
30117.95731175815
 30
0.0
  9
$EXTMAX
 10
10814.30748657905
 20
30369.43985003996
 30
0.0
  9
$LIMMIN
 10
0.0
 20
0.0
  9
$LIMMAX
 10
12.0
 20
9.0
  9
$ORTHOMODE
 70
     1
  9
$REGENMODE
 70
     1
  9
$FILLMODE
 70
     1
  9
$QTEXTMODE
 70
     0
  9
$MIRRTEXT
 70
     0
  9
$LTSCALE
 40
1.0
  9
$ATTMODE
 70
     1
  9
$TEXTSIZE
 40
0.2
  9
$TRACEWID
 40
0.05
  9
$TEXTSTYLE
  7
Standard
  9
$CLAYER
  8
freecads.com
  9
$CELTYPE
  6
ByLayer
  9
$CECOLOR
 62
   256
  9
$CELTSCALE
 40
1.0
  9
$DISPSILH
 70
     1
  9
$DIMSCALE
 40
1.0
  9
$DIMASZ
 40
0.18
  9
$DIMEXO
 40
0.0625
  9
$DIMDLI
 40
0.38
  9
$DIMRND
 40
0.0
  9
$DIMDLE
 40
0.0
  9
$DIMEXE
 40
0.18
  9
$DIMTP
 40
0.0
  9
$DIMTM
 40
0.0
  9
$DIMTXT
 40
0.18
  9
$DIMCEN
 40
0.09
  9
$DIMTSZ
 40
0.0
  9
$DIMTOL
 70
     0
  9
$DIMLIM
 70
     0
  9
$DIMTIH
 70
     1
  9
$DIMTOH
 70
     1
  9
$DIMSE1
 70
     0
  9
$DIMSE2
 70
     0
  9
$DIMTAD
 70
     0
  9
$DIMZIN
 70
     0
  9
$DIMBLK
  1

  9
$DIMASO
 70
     1
  9
$DIMSHO
 70
     1
  9
$DIMPOST
  1

  9
$DIMAPOST
  1

  9
$DIMALT
 70
     0
  9
$DIMALTD
 70
     2
  9
$DIMALTF
 40
25.4
  9
$DIMLFAC
 40
1.0
  9
$DIMTOFL
 70
     0
  9
$DIMTVP
 40
0.0
  9
$DIMTIX
 70
     0
  9
$DIMSOXD
 70
     0
  9
$DIMSAH
 70
     0
  9
$DIMBLK1
  1

  9
$DIMBLK2
  1

  9
$DIMSTYLE
  2
Standard
  9
$DIMCLRD
 70
     0
  9
$DIMCLRE
 70
     0
  9
$DIMCLRT
 70
     0
  9
$DIMTFAC
 40
1.0
  9
$DIMGAP
 40
0.09
  9
$DIMJUST
 70
     0
  9
$DIMSD1
 70
     0
  9
$DIMSD2
 70
     0
  9
$DIMTOLJ
 70
     1
  9
$DIMTZIN
 70
     0
  9
$DIMALTZ
 70
     0
  9
$DIMALTTZ
 70
     0
  9
$DIMUPT
 70
     0
  9
$DIMDEC
 70
     4
  9
$DIMTDEC
 70
     4
  9
$DIMALTU
 70
     2
  9
$DIMALTTD
 70
     2
  9
$DIMTXSTY
  7
Standard
  9
$DIMAUNIT
 70
     0
  9
$DIMADEC
 70
     0
  9
$DIMALTRND
 40
0.0
  9
$DIMAZIN
 70
     0
  9
$DIMDSEP
 70
    46
  9
$DIMATFIT
 70
     3
  9
$DIMFRAC
 70
     0
  9
$DIMLDRBLK
  1

  9
$DIMLUNIT
 70
     2
  9
$DIMLWD
 70
    -2
  9
$DIMLWE
 70
    -2
  9
$DIMTMOVE
 70
     0
  9
$DIMFXL
 40
1.0
  9
$DIMFXLON
 70
     0
  9
$DIMJOGANG
 40
0.7853981633974483
  9
$DIMTFILL
 70
     0
  9
$DIMTFILLCLR
 70
     0
  9
$DIMARCSYM
 70
     0
  9
$DIMLTYPE
  6

  9
$DIMLTEX1
  6

  9
$DIMLTEX2
  6

  9
$DIMTXTDIRECTION
 70
     0
  9
$LUNITS
 70
     2
  9
$LUPREC
 70
     4
  9
$SKETCHINC
 40
0.1
  9
$FILLETRAD
 40
0.0
  9
$AUNITS
 70
     0
  9
$AUPREC
 70
     0
  9
$MENU
  1
.
  9
$ELEVATION
 40
0.0
  9
$PELEVATION
 40
0.0
  9
$THICKNESS
 40
0.0
  9
$LIMCHECK
 70
     0
  9
$CHAMFERA
 40
0.0
  9
$CHAMFERB
 40
0.0
  9
$CHAMFERC
 40
0.0
  9
$CHAMFERD
 40
0.0
  9
$SKPOLY
 70
     0
  9
$TDCREATE
 40
2458157.371250000
  9
$TDUCREATE
 40
2458157.287916667
  9
$TDUPDATE
 40
2461016.541782408
  9
$TDUUPDATE
 40
2461016.458449074
  9
$TDINDWG
 40
0.1051273148
  9
$TDUSRTIMER
 40
0.1051273148
  9
$USRTIMER
 70
     1
  9
$ANGBASE
 50
0.0
  9
$ANGDIR
 70
     0
  9
$PDMODE
 70
     0
  9
$PDSIZE
 40
0.0
  9
$PLINEWID
 40
0.0
  9
$SPLFRAME
 70
     0
  9
$SPLINETYPE
 70
     6
  9
$SPLINESEGS
 70
     8
  9
$HANDSEED
  5
B77D
  9
$SURFTAB1
 70
     6
  9
$SURFTAB2
 70
     6
  9
$SURFTYPE
 70
     6
  9
$SURFU
 70
     6
  9
$SURFV
 70
     6
  9
$UCSBASE
  2

  9
$UCSNAME
  2

  9
$UCSORG
 10
0.0
 20
0.0
 30
0.0
  9
$UCSXDIR
 10
1.0
 20
0.0
 30
0.0
  9
$UCSYDIR
 10
0.0
 20
1.0
 30
0.0
  9
$UCSORTHOREF
  2

  9
$UCSORTHOVIEW
 70
     0
  9
$UCSORGTOP
 10
0.0
 20
0.0
 30
0.0
  9
$UCSORGBOTTOM
 10
0.0
 20
0.0
 30
0.0
  9
$UCSORGLEFT
 10
0.0
 20
0.0
 30
0.0
  9
$UCSORGRIGHT
 10
0.0
 20
0.0
 30
0.0
  9
$UCSORGFRONT
 10
0.0
 20
0.0
 30
0.0
  9
$UCSORGBACK
 10
0.0
 20
0.0
 30
0.0
  9
$PUCSBASE
  2

  9
$PUCSNAME
  2

  9
$PUCSORG
 10
0.0
 20
0.0
 30
0.0
  9
$PUCSXDIR
 10
1.0
 20
0.0
 30
0.0
  9
$PUCSYDIR
 10
0.0
 20
1.0
 30
0.0
  9
$PUCSORTHOREF
  2

  9
$PUCSORTHOVIEW
 70
     0
  9
$PUCSORGTOP
 10
0.0
 20
0.0
 30
0.0
  9
$PUCSORGBOTTOM
 10
0.0
 20
0.0
 30
0.0
  9
$PUCSORGLEFT
 10
0.0
 20
0.0
 30
0.0
  9
$PUCSORGRIGHT
 10
0.0
 20
0.0
 30
0.0
  9
$PUCSORGFRONT
 10
0.0
 20
0.0
 30
0.0
  9
$PUCSORGBACK
 10
0.0
 20
0.0
 30
0.0
  9
$USERI1
 70
     0
  9
$USERI2
 70
     0
  9
$USERI3
 70
     0
  9
$USERI4
 70
     0
  9
$USERI5
 70
     0
  9
$USERR1
 40
0.0
  9
$USERR2
 40
0.0
  9
$USERR3
 40
0.0
  9
$USERR4
 40
0.0
  9
$USERR5
 40
0.0
  9
$WORLDVIEW
 70
     1
  9
$SHADEDGE
 70
     3
  9
$SHADEDIF
 70
    70
  9
$TILEMODE
 70
     1
  9
$MAXACTVP
 70
    64
  9
$PINSBASE
 10
0.0
 20
0.0
 30
0.0
  9
$PLIMCHECK
 70
     0
  9
$PEXTMIN
 10
0.0
 20
0.0
 30
0.0
  9
$PEXTMAX
 10
0.0
 20
0.0
 30
0.0
  9
$PLIMMIN
 10
0.0
 20
0.0
  9
$PLIMMAX
 10
12.0
 20
9.0
  9
$UNITMODE
 70
     0
  9
$VISRETAIN
 70
     1
  9
$PLINEGEN
 70
     0
  9
$PSLTSCALE
 70
     1
  9
$TREEDEPTH
 70
  3020
  9
$CMLSTYLE
  2
Standard
  9
$CMLJUST
 70
     0
  9
$CMLSCALE
 40
1.0
  9
$PROXYGRAPHICS
 70
     1
  9
$MEASUREMENT
 70
     0
  9
$CELWEIGHT
370
    -1
  9
$ENDCAPS
280
     0
  9
$JOINSTYLE
280
     0
  9
$LWDISPLAY
290
     0
  9
$INSUNITS
 70
     1
  9
$HYPERLINKBASE
  1

  9
$STYLESHEET
  1
monochrome.ctb
  9
$XEDIT
290
     1
  9
$CEPSNTYPE
380
     0
  9
$PSTYLEMODE
290
     1
  9
$FINGERPRINTGUID
  2
{358EB121-6EE0-9143-8A3E-6E8E8869FDA6}
  9
$VERSIONGUID
  2
{87A500A6-3A15-EE45-853F-29786A750EFA}
  9
$EXTNAMES
290
     1
  9
$PSVPSCALE
 40
0.0
  9
$OLESTARTUP
290
     0
  9
$SORTENTS
280
   127
  9
$INDEXCTL
280
     0
  9
$HIDETEXT
280
     1
  9
$XCLIPFRAME
280
     2
  9
$HALOGAP
280
     0
  9
$OBSCOLOR
 70
   257
  9
$OBSLTYPE
280
     0
  9
$INTERSECTIONDISPLAY
280
     0
  9
$INTERSECTIONCOLOR
 70
   257
  9
$DIMASSOC
280
     2
  9
$PROJECTNAME
  1

  9
$CAMERADISPLAY
290
     0
  9
$LENSLENGTH
 40
50.0
  9
$CAMERAHEIGHT
 40
0.0
  9
$STEPSPERSEC
 40
2.0
  9
$STEPSIZE
 40
6.0
  9
$3DDWFPREC
 40
2.0
  9
$PSOLWIDTH
 40
0.25
  9
$PSOLHEIGHT
 40
4.0
  9
$LOFTANG1
 40
1.570796326794896
  9
$LOFTANG2
 40
1.570796326794896
  9
$LOFTMAG1
 40
0.0
  9
$LOFTMAG2
 40
0.0
  9
$LOFTPARAM
 70
     7
  9
$LOFTNORMALS
280
     1
  9
$LATITUDE
 40
37.795
  9
$LONGITUDE
 40
-122.394
  9
$NORTHDIRECTION
 40
0.0
  9
$TIMEZONE
 70
 -8000
  9
$LIGHTGLYPHDISPLAY
280
     1
  9
$TILEMODELIGHTSYNCH
280
     1
  9
$CMATERIAL
347
96
  9
$SOLIDHIST
280
     0
  9
$SHOWHIST
280
     1
  9
$DWFFRAME
280
     2
  9
$DGNFRAME
280
     0
  9
$REALWORLDSCALE
290
     1
  9
$INTERFERECOLOR
 62
     1
  9
$INTERFEREOBJVS
345
A3
  9
$INTERFEREVPVS
346
A0
  9
$CSHADOW
280
     0
  9
$SHADOWPLANELOCATION
 40
0.0
  0
ENDSEC
  0
SECTION
  2
CLASSES
  0
CLASS
  1
ACDBDICTIONARYWDFLT
  2
AcDbDictionaryWithDefault
  3
ObjectDBX Classes
 90
        0
 91
        1
280
     0
281
     0
  0
CLASS
  1
DICTIONARYVAR
  2
AcDbDictionaryVar
  3
ObjectDBX Classes
 90
        0
 91
        9
280
     0
281
     0
  0
CLASS
  1
TABLESTYLE
  2
AcDbTableStyle
  3
ObjectDBX Classes
 90
     4095
 91
        1
280
     0
281
     0
  0
CLASS
  1
MATERIAL
  2
AcDbMaterial
  3
ObjectDBX Classes
 90
     1153
 91
        3
280
     0
281
     0
  0
CLASS
  1
VISUALSTYLE
  2
AcDbVisualStyle
  3
ObjectDBX Classes
 90
     4095
 91
       25
280
     0
281
     0
  0
CLASS
  1
SCALE
  2
AcDbScale
  3
ObjectDBX Classes
 90
     1153
 91
       35
280
     0
281
     0
  0
CLASS
  1
MLEADERSTYLE
  2
AcDbMLeaderStyle
  3
ACDB_MLEADERSTYLE_CLASS
 90
     4095
 91
        1
280
     0
281
     0
  0
CLASS
  1
CELLSTYLEMAP
  2
AcDbCellStyleMap
  3
ObjectDBX Classes
 90
     1152
 91
        1
280
     0
281
     0
  0
CLASS
  1
EXACXREFPANELOBJECT
  2
ExAcXREFPanelObject
  3
EXAC_ESW
 90
     1025
 91
        0
280
     0
281
     0
  0
CLASS
  1
NPOCOLLECTION
  2
AcDbImpNonPersistentObjectsCollection
  3
ObjectDBX Classes
 90
     1153
 91
        0
280
     0
281
     0
  0
CLASS
  1
LAYER_INDEX
  2
AcDbLayerIndex
  3
ObjectDBX Classes
 90
        0
 91
        0
280
     0
281
     0
  0
CLASS
  1
SPATIAL_INDEX
  2
AcDbSpatialIndex
  3
ObjectDBX Classes
 90
        0
 91
        0
280
     0
281
     0
  0
CLASS
  1
IDBUFFER
  2
AcDbIdBuffer
  3
ObjectDBX Classes
 90
        0
 91
        0
280
     0
281
     0
  0
CLASS
  1
ACDBSECTIONVIEWSTYLE
  2
AcDbSectionViewStyle
  3
ObjectDBX Classes
 90
     1025
 91
        2
280
     0
281
     0
  0
CLASS
  1
ACDBDETAILVIEWSTYLE
  2
AcDbDetailViewStyle
  3
ObjectDBX Classes
 90
     1025
 91
        2
280
     0
281
     0
  0
CLASS
  1
SORTENTSTABLE
  2
AcDbSortentsTable
  3
ObjectDBX Classes
 90
        0
 91
        1
280
     0
281
     0
  0
CLASS
  1
SPATIAL_FILTER
  2
AcDbSpatialFilter
  3
ObjectDBX Classes
 90
        0
 91
        0
280
     0
281
     0
  0
CLASS
  1
SOLID_BACKGROUND
  2
AcDbSolidBackground
  3
SCENEOE
 90
     4095
 91
        0
280
     0
281
     0
  0
ENDSEC
  0
SECTION
  2
TABLES
  0
TABLE
  2
VPORT
  5
8
330
0
100
AcDbSymbolTable
 70
     1
  0
VPORT
  5
94
330
8
100
AcDbSymbolTableRecord
100
AcDbViewportTableRecord
  2
*Active
 70
     0
 10
0.0
 20
0.0
 11
1.0
 21
1.0
 12
10718.42536619735
 22
30264.40619309411
 13
0.0
 23
0.0
 14
0.5
 24
0.5
 15
0.5
 25
0.5
 16
0.0
 26
0.0
 36
1.0
 17
0.0
 27
0.0
 37
0.0
 40
284.6893016695092
 41
2.066284779050736
 42
50.0
 43
0.0
 44
0.0
 50
0.0
 51
0.0
 71
     0
 72
  1000
 73
     1
 74
     3
 75
     0
 76
     0
 77
     0
 78
     0
281
     0
 65
     1
110
0.0
120
0.0
130
0.0
111
1.0
121
0.0
131
0.0
112
0.0
122
1.0
132
0.0
 79
     0
146
0.0
348
9F
 60
     3
 61
     5
292
     1
282
     1
141
0.0
142
0.0
 63
   250
421
  3355443
1001
ACAD_NAV_VCDISPLAY
1070
     3
  0
ENDTAB
  0
TABLE
  2
LTYPE
  5
5
330
0
100
AcDbSymbolTable
 70
     1
  0
LTYPE
  5
14
330
5
100
AcDbSymbolTableRecord
100
AcDbLinetypeTableRecord
  2
ByBlock
 70
     0
  3

 72
    65
 73
     0
 40
0.0
  0
LTYPE
  5
15
330
5
100
AcDbSymbolTableRecord
100
AcDbLinetypeTableRecord
  2
ByLayer
 70
     0
  3

 72
    65
 73
     0
 40
0.0
  0
LTYPE
  5
16
330
5
100
AcDbSymbolTableRecord
100
AcDbLinetypeTableRecord
  2
Continuous
 70
     0
  3
Solid line
 72
    65
 73
     0
 40
0.0
  0
ENDTAB
  0
TABLE
  2
LAYER
  5
2
102
{ACAD_XDICTIONARY
360
18E
102
}
330
0
100
AcDbSymbolTable
 70
     2
  0
LAYER
  5
10
102
{ACAD_XDICTIONARY
360
E6
102
}
330
2
100
AcDbSymbolTableRecord
100
AcDbLayerTableRecord
  2
0
 70
     0
 62
     7
  6
Continuous
370
    -3
390
F
347
98
348
0
  0
LAYER
  5
204
330
2
100
AcDbSymbolTableRecord
100
AcDbLayerTableRecord
  2
freecads.com
 70
     0
 62
     7
  6
Continuous
370
    -3
390
F
347
98
348
0
1001
AcAecLayerStandard
1000

1000

1001
AcCmTransparency
1071
        0
  0
ENDTAB
  0
TABLE
  2
STYLE
  5
3
330
0
100
AcDbSymbolTable
 70
     1
  0
STYLE
  5
11
330
3
100
AcDbSymbolTableRecord
100
AcDbTextStyleTableRecord
  2
Standard
 70
     0
 40
0.0
 41
1.0
 50
0.0
 71
     0
 42
0.2
  3
arial.ttf
  4

1001
ACAD
1000
Arial
1071
       34
  0
ENDTAB
  0
TABLE
  2
VIEW
  5
6
330
0
100
AcDbSymbolTable
 70
     0
  0
ENDTAB
  0
TABLE
  2
UCS
  5
7
330
0
100
AcDbSymbolTable
 70
     0
  0
ENDTAB
  0
TABLE
  2
APPID
  5
9
330
0
100
AcDbSymbolTable
 70
    23
  0
APPID
  5
12
330
9
100
AcDbSymbolTableRecord
100
AcDbRegAppTableRecord
  2
ACAD
 70
     0
  0
APPID
  5
DD
330
9
100
AcDbSymbolTableRecord
100
AcDbRegAppTableRecord
  2
AcadAnnoPO
 70
     0
  0
APPID
  5
DE
330
9
100
AcDbSymbolTableRecord
100
AcDbRegAppTableRecord
  2
AcadAnnotative
 70
     0
  0
APPID
  5
DF
330
9
100
AcDbSymbolTableRecord
100
AcDbRegAppTableRecord
  2
ACAD_DSTYLE_DIMJAG
 70
     0
  0
APPID
  5
E0
330
9
100
AcDbSymbolTableRecord
100
AcDbRegAppTableRecord
  2
ACAD_DSTYLE_DIMTALN
 70
     0
  0
APPID
  5
107
330
9
100
AcDbSymbolTableRecord
100
AcDbRegAppTableRecord
  2
ACAD_MLEADERVER
 70
     0
  0
APPID
  5
1A6
330
9
100
AcDbSymbolTableRecord
100
AcDbRegAppTableRecord
  2
ACAD_NAV_VCDISPLAY
 70
     0
  0
APPID
  5
205
330
9
100
AcDbSymbolTableRecord
100
AcDbRegAppTableRecord
  2
AcAecLayerStandard
 70
     0
  0
APPID
  5
206
330
9
100
AcDbSymbolTableRecord
100
AcDbRegAppTableRecord
  2
AcCmTransparency
 70
     0
  0
APPID
  5
222
330
9
100
AcDbSymbolTableRecord
100
AcDbRegAppTableRecord
  2
ACAD_PSEXT
 70
     0
  0
APPID
  5
2DA
330
9
100
AcDbSymbolTableRecord
100
AcDbRegAppTableRecord
  2
GradientColor1ACI
 70
     0
  0
APPID
  5
2DB
330
9
100
AcDbSymbolTableRecord
100
AcDbRegAppTableRecord
  2
GradientColor2ACI
 70
     0
  0
APPID
  5
2F3
330
9
100
AcDbSymbolTableRecord
100
AcDbRegAppTableRecord
  2
ACAD_EXEMPT_FROM_CAD_STANDARDS
 70
     0
  0
APPID
  5
A1A
330
9
100
AcDbSymbolTableRecord
100
AcDbRegAppTableRecord
  2
AcDbBlockRepETag
 70
     0
  0
APPID
  5
228C
330
9
100
AcDbSymbolTableRecord
100
AcDbRegAppTableRecord
  2
RAK
 70
     0
  0
APPID
  5
2683
330
9
100
AcDbSymbolTableRecord
100
AcDbRegAppTableRecord
  2
ACAD_DSTYLE_DIMJOGGED_JOGANGLE_SYMBOL
 70
     0
  0
APPID
  5
47CF
330
9
100
AcDbSymbolTableRecord
100
AcDbRegAppTableRecord
  2
ACAD_DSTYLE_DIMBREAK
 70
     0
  0
APPID
  5
47D0
330
9
100
AcDbSymbolTableRecord
100
AcDbRegAppTableRecord
  2
AcDbDynamicBlockGUID
 70
     0
  0
APPID
  5
8BD5
330
9
100
AcDbSymbolTableRecord
100
AcDbRegAppTableRecord
  2
AcLayerTools
 70
     0
  0
APPID
  5
92D9
330
9
100
AcDbSymbolTableRecord
100
AcDbRegAppTableRecord
  2
AutoGrph01
 70
     0
  0
APPID
  5
92DA
330
9
100
AcDbSymbolTableRecord
100
AcDbRegAppTableRecord
  2
AutoGrphVars
 70
     0
  0
APPID
  5
92DB
330
9
100
AcDbSymbolTableRecord
100
AcDbRegAppTableRecord
  2
AutoGrphZ
 70
     0
  0
APPID
  5
92DC
330
9
100
AcDbSymbolTableRecord
100
AcDbRegAppTableRecord
  2
AutoGrph05
 70
     0
  0
ENDTAB
  0
TABLE
  2
DIMSTYLE
  5
A
330
0
100
AcDbSymbolTable
 70
     1
100
AcDbDimStyleTable
 71
     1
340
27
  0
DIMSTYLE
105
27
330
A
100
AcDbSymbolTableRecord
100
AcDbDimStyleTableRecord
  2
Standard
 70
     0
340
11
  0
ENDTAB
  0
TABLE
  2
BLOCK_RECORD
  5
1
330
0
100
AcDbSymbolTable
 70
     1
  0
BLOCK_RECORD
  5
1F
102
{ACAD_XDICTIONARY
360
15D
102
}
330
1
100
AcDbSymbolTableRecord
100
AcDbBlockTableRecord
  2
*Model_Space
340
22
 70
     0
280
     1
281
     0
  0
BLOCK_RECORD
  5
58
330
1
100
AcDbSymbolTableRecord
100
AcDbBlockTableRecord
  2
*Paper_Space
340
59
 70
     0
280
     1
281
     0
  0
BLOCK_RECORD
  5
5D
330
1
100
AcDbSymbolTableRecord
100
AcDbBlockTableRecord
  2
*Paper_Space0
340
5E
 70
     0
280
     1
281
     0
  0
ENDTAB
  0
ENDSEC
  0
SECTION
  2
BLOCKS
  0
BLOCK
  5
20
330
1F
100
AcDbEntity
  8
0
100
AcDbBlockBegin
  2
*Model_Space
 70
     0
 10
0.0
 20
0.0
 30
0.0
  3
*Model_Space
  1

  0
ENDBLK
  5
21
330
1F
100
AcDbEntity
  8
0
100
AcDbBlockEnd
  0
BLOCK
  5
5A
330
58
100
AcDbEntity
 67
     1
  8
0
100
AcDbBlockBegin
  2
*Paper_Space
 70
     0
 10
0.0
 20
0.0
 30
0.0
  3
*Paper_Space
  1

  0
ENDBLK
  5
5B
330
58
100
AcDbEntity
 67
     1
  8
0
100
AcDbBlockEnd
  0
BLOCK
  5
5F
330
5D
100
AcDbEntity
 67
     1
  8
0
100
AcDbBlockBegin
  2
*Paper_Space0
 70
     0
 10
0.0
 20
0.0
 30
0.0
  3
*Paper_Space0
  1

  0
ENDBLK
  5
60
330
5D
100
AcDbEntity
 67
     1
  8
0
100
AcDbBlockEnd
  0
ENDSEC
  0
SECTION
  2
ENTITIES
  0
ARC
  5
B547
330
1F
100
AcDbEntity
  8
freecads.com
100
AcDbCircle
 10
10750.60378620696
 20
30354.74678329435
 30
0.0
 40
14.65772513994142
100
AcDbArc
 50
103.6910474016456
 51
109.504176139191
  0
ARC
  5
B548
330
1F
100
AcDbEntity
  8
freecads.com
100
AcDbCircle
 10
10754.82035684791
 20
30342.84228699586
 30
0.0
 40
27.28691751676694
100
AcDbArc
 50
109.5041580968545
 51
113.154965517128
  0
ARC
  5
B549
330
1F
100
AcDbEntity
  8
freecads.com
100
AcDbCircle
 10
10754.66347375236
 20
30343.2091898545
 30
0.0
 40
26.88788116184565
100
AcDbArc
 50
113.1550251251304
 51
116.8184344075045
  0
ARC
  5
B54A
330
1F
100
AcDbEntity
  8
freecads.com
100
AcDbCircle
 10
10748.2674723203
 20
30355.86101072934
 30
0.0
 40
12.71123114260646
100
AcDbArc
 50
116.818447565759
 51
123.2338986505069
  0
ARC
  5
B54B
330
1F
100
AcDbEntity
  8
freecads.com
100
AcDbCircle
 10
10746.46865292445
 20
30358.60634176464
 30
0.0
 40
9.429068180129551
100
AcDbArc
 50
123.2338761872687
 51
147.7237920491929
  0
ARC
  5
B54C
330
1F
100
AcDbEntity
  8
freecads.com
100
AcDbCircle
 10
10752.93486158197
 20
30354.52235958687
 30
0.0
 40
17.07699370478127
100
AcDbArc
 50
147.7238716583108
 51
163.4244341833358
  0
ARC
  5
B54D
330
1F
100
AcDbEntity
  8
freecads.com
100
AcDbCircle
 10
10752.42312346169
 20
30354.67469951894
 30
0.0
 40
16.54306172577738
100
AcDbArc
 50
163.4245064539682
 51
179.3531625337595
  0
ARC
  5
B54E
330
1F
100
AcDbEntity
  8
freecads.com
100
AcDbCircle
 10
10743.81811642256
 20
30354.77185645579
 30
0.0
 40
7.937506217059023
100
AcDbArc
 50
179.3532135545711
 51
206.9377868731576
  0
ARC
  5
B54F
330
1F
100
AcDbEntity
  8
freecads.com
100
AcDbCircle
 10
10729.82339009979
 20
30347.66031469893
 30
0.0
 40
7.76046788818869
100
AcDbArc
 50
19.31592365733808
 51
26.93780560786305
  0
ARC
  5
B550
330
1F
100
AcDbEntity
  8
freecads.com
100
AcDbCircle
 10
10694.65837834722
 20
30335.33465361508
 30
0.0
 40
45.02304928979959
100
AcDbArc
 50
17.24036070231387
 51
19.31601544888406
  0
ARC
  5
B551
330
1F
100
AcDbEntity
  8
freecads.com
100
AcDbCircle
 10
10689.07225763348
 20
30333.60110567942
 30
0.0
 40
50.87197509478904
100
AcDbArc
 50
15.1503134682131
 51
17.2404055587653
  0
ARC
  5
B552
330
1F
100
AcDbEntity
  8
freecads.com
100
AcDbCircle
 10
10690.79817633131
 20
30334.06845579901
 30
0.0
 40
49.08390029640674
100
AcDbArc
 50
13.00334916193934
 51
15.15027380903792
  0
ARC
  5
B553
330
1F
100
AcDbEntity
  8
freecads.com
100
AcDbCircle
 10
10688.31375237909
 20
30333.49469633871
 30
0.0
 40
51.63371642540401
100
AcDbArc
 50
10.2796706740235
 51
13.00338379237657
  0
ARC
  5
B554
330
1F
100
AcDbEntity
  8
freecads.com
100
AcDbCircle
 10
10735.21107697706
 20
30342.00019670313
 30
0.0
 40
3.971335128455543
100
AcDbArc
 50
352.4900764406985
 51
10.27966646431746
  0
ARC
  5
B555
330
1F
100
AcDbEntity
  8
freecads.com
100
AcDbCircle
 10
10737.96330589875
 20
30341.63737274667
 30
0.0
 40
1.195293835395987
100
AcDbArc
 50
313.3611264797095
 51
352.4901329539263
  0
ARC
  5
B556
330
1F
100
AcDbEntity
  8
freecads.com
100
AcDbCircle
 10
10737.4550623506
 20
30342.17555681554
 30
0.0
 40
1.935532713204384
100
AcDbArc
 50
286.0758771660175
 51
313.3611136637004
  0
ARC
  5
B557
330
1F
100
AcDbEntity
  8
freecads.com
100
AcDbCircle
 10
10744.58124822358
 20
30317.44730951048
 30
0.0
 40
23.79904985338352
100
AcDbArc
 50
106.075926170102
 51
115.6337344590244
  0
ARC
  5
B558
330
1F
100
AcDbEntity
  8
freecads.com
100
AcDbCircle
 10
10759.43500715858
 20
30286.49196112266
 30
0.0
 40
58.13369341218317
100
AcDbArc
 50
115.6337567322973
 51
120.5384432859148
  0
ARC
  5
B559
330
1F
100
AcDbEntity
  8
freecads.com
100
AcDbCircle
 10
10760.35238829766
 20
30284.93689642708
 30
0.0
 40
59.93918901207627
100
AcDbArc
 50
120.538420279422
 51
125.0527437775232
  0
ARC
  5
B55A
330
1F
100
AcDbEntity
  8
freecads.com
100
AcDbCircle
 10
10730.45947210181
 20
30327.54488135273
 30
0.0
 40
7.890876665603734
100
AcDbArc
 50
125.0527869334739
 51
145.1768135844807
  0
ARC
  5
B55B
330
1F
100
AcDbEntity
  8
freecads.com
100
AcDbCircle
 10
10732.65328360168
 20
30326.01881733194
 30
0.0
 40
10.56326890711014
100
AcDbArc
 50
145.1767766245814
 51
155.7511095084537
  0
ARC
  5
B55C
330
1F
100
AcDbEntity
  8
freecads.com
100
AcDbCircle
 10
10904.12484129172
 20
30248.7804543444
 30
0.0
 40
198.6277786202517
100
AcDbArc
 50
155.7510956511563
 51
157.0008188070077
  0
ARC
  5
B55D
330
1F
100
AcDbEntity
  8
freecads.com
100
AcDbCircle
 10
10904.5178823556
 20
30248.61387044869
 30
0.0
 40
199.0546643441082
100
AcDbArc
 50
157.0008838569472
 51
158.4873447165618
  0
ARC
  5
B55E
330
1F
100
AcDbEntity
  8
freecads.com
100
AcDbCircle
 10
10963.35863124607
 20
30225.42118792458
 30
0.0
 40
262.3012788984835
100
AcDbArc
 50
158.4874096055664
 51
159.6961101634867
  0
ARC
  5
B55F
330
1F
100
AcDbEntity
  8
freecads.com
100
AcDbCircle
 10
10160.72524012325
 20
30522.38614991507
 30
0.0
 40
593.5074317345232
100
AcDbArc
 50
339.1607478637899
 51
339.6961186536744
  0
ARC
  5
B560
330
1F
100
AcDbEntity
  8
freecads.com
100
AcDbCircle
 10
10286.55663091835
 20
30474.48880894182
 30
0.0
 40
458.868305988345
100
AcDbArc
 50
338.5114516990351
 51
339.1607257355369
  0
ARC
  5
B561
330
1F
100
AcDbEntity
  8
freecads.com
100
AcDbCircle
 10
10288.76581691644
 20
30473.61891407858
 30
0.0
 40
456.4940229769967
100
AcDbArc
 50
337.9623514155248
 51
338.511473115462
  0
ARC
  5
B562
330
1F
100
AcDbEntity
  8
freecads.com
100
AcDbCircle
 10
10688.17232521451
 20
30311.94285319827
 30
0.0
 40
25.60574565603706
100
AcDbArc
 50
333.4860324868553
 51
337.9623262223782
  0
ARC
  5
B563
330
1F
100
AcDbEntity
  8
freecads.com
100
AcDbCircle
 10
10736.3444248676
 20
30287.91041681735
 30
0.0
 40
28.22834376128283
100
AcDbArc
 50
153.4859432462341
 51
157.3198191462679
  0
ARC
  5
B564
330
1F
100
AcDbEntity
  8
freecads.com
100
AcDbCircle
 10
10712.29460766385
 20
30297.96089808423
 30
0.0
 40
2.16292833720976
100
AcDbArc
 50
157.3197736179389
 51
182.4260238111807
  0
ARC
  5
B565
330
1F
100
AcDbEntity
  8
freecads.com
100
AcDbCircle
 10
10711.28175924129
 20
30297.9179861523
 30
0.0
 40
1.149171284962065
100
AcDbArc
 50
182.4260162621917
 51
221.1578446372791
  0
ARC
  5
B566
330
1F
100
AcDbEntity
  8
freecads.com
100
AcDbCircle
 10
10714.31946304402
 20
30300.57333337337
 30
0.0
 40
5.183835243406854
100
AcDbArc
 50
221.1577104880153
 51
233.8250388886779
  0
ARC
  5
B567
330
1F
100
AcDbEntity
  8
freecads.com
100
AcDbCircle
 10
10709.86335234466
 20
30294.47923980173
 30
0.0
 40
2.365661363974611
100
AcDbArc
 50
26.20800029622079
 51
53.82509963639126
  0
ARC
  5
B568
330
1F
100
AcDbEntity
  8
freecads.com
100
AcDbCircle
 10
10710.77785104963
 20
30294.92938761936
 30
0.0
 40
1.346376840834731
100
AcDbArc
 50
344.1224875870022
 51
26.20799850407802
  0
ARC
  5
B569
330
1F
100
AcDbEntity
  8
freecads.com
100
AcDbCircle
 10
10706.70922526238
 20
30296.0866397697
 30
0.0
 40
5.576382554322213
100
AcDbArc
 50
327.8823083094374
 51
344.122489029432
  0
ARC
  5
B56A
330
1F
100
AcDbEntity
  8
freecads.com
100
AcDbCircle
 10
10615.66625545607
 20
30353.23672237886
 30
0.0
 40
113.0703558429863
100
AcDbArc
 50
326.0613634057849
 51
327.8824141361174
  0
ARC
  5
B56B
330
1F
100
AcDbEntity
  8
freecads.com
100
AcDbCircle
 10
10731.43724940065
 20
30275.32847121122
 30
0.0
 40
26.47396915417719
100
AcDbArc
 50
146.0613629276829
 51
152.4394862589526
  0
ARC
  5
B56C
330
1F
100
AcDbEntity
  8
freecads.com
100
AcDbCircle
 10
10778.16863963571
 20
30250.93890821292
 30
0.0
 40
79.18709481135137
100
AcDbArc
 50
152.4395019860603
 51
155.2571664490596
  0
ARC
  5
B56D
330
1F
100
AcDbEntity
  8
freecads.com
100
AcDbCircle
 10
10783.83020215117
 20
30248.32986087363
 30
0.0
 40
85.42090729857733
100
AcDbArc
 50
155.2572335449714
 51
158.0359426854458
  0
ARC
  5
B56E
330
1F
100
AcDbEntity
  8
freecads.com
100
AcDbCircle
 10
10759.48786723171
 20
30258.14706694579
 30
0.0
 40
59.17349210404838
100
AcDbArc
 50
158.0359632973932
 51
161.6947900869531
  0
ARC
  5
B56F
330
1F
100
AcDbEntity
  8
freecads.com
100
AcDbCircle
 10
10290.8227223459
 20
30413.19066432417
 30
0.0
 40
434.471658909169
100
AcDbArc
 50
340.2811888160738
 51
341.6947723621602
  0
ARC
  5
B570
330
1F
100
AcDbEntity
  8
freecads.com
100
AcDbCircle
 10
10481.74729418501
 20
30344.75907526144
 30
0.0
 40
231.653823121497
100
AcDbArc
 50
338.0178422562218
 51
340.281181146811
  0
ARC
  5
B571
330
1F
100
AcDbEntity
  8
freecads.com
100
AcDbCircle
 10
10531.43382366087
 20
30324.70253064467
 30
0.0
 40
178.0719587147437
100
AcDbArc
 50
335.675865622972
 51
338.0178063872415
  0
ARC
  5
B572
330
1F
100
AcDbEntity
  8
freecads.com
100
AcDbCircle
 10
10676.42842970462
 20
30259.16143950748
 30
0.0
 40
18.9522854834629
100
AcDbArc
 50
323.5233070648867
 51
335.6757986049629
  0
ARC
  5
B573
330
1F
100
AcDbEntity
  8
freecads.com
100
AcDbCircle
 10
10699.51459856103
 20
30242.09310421716
 30
0.0
 40
9.758326875902879
100
AcDbArc
 50
143.5233177826668
 51
154.487774272116
  0
ARC
  5
B574
330
1F
100
AcDbEntity
  8
freecads.com
100
AcDbCircle
 10
10707.49000742771
 20
30238.28694422014
 30
0.0
 40
18.59540787097887
100
AcDbArc
 50
154.4877855640225
 51
161.2549707546347
  0
ARC
  5
B575
330
1F
100
AcDbEntity
  8
freecads.com
100
AcDbCircle
 10
10709.78323647383
 20
30237.50872159186
 30
0.0
 40
21.01708702337949
100
AcDbArc
 50
161.2549755771623
 51
167.6727166968037
  0
ARC
  5
B576
330
1F
100
AcDbEntity
  8
freecads.com
100
AcDbCircle
 10
10709.31786488378
 20
30237.61039609058
 30
0.0
 40
20.54073797079317
100
AcDbArc
 50
167.6726483569215
 51
174.2016836312145
  0
ARC
  5
B577
330
1F
100
AcDbEntity
  8
freecads.com
100
AcDbCircle
 10
10659.82354558901
 20
30242.63636437194
 30
0.0
 40
29.20811125829501
100
AcDbArc
 50
347.9422102509291
 51
354.2017069508225
  0
ARC
  5
B578
330
1F
100
AcDbEntity
  8
freecads.com
100
AcDbCircle
 10
10682.90835155375
 20
30237.70519467633
 30
0.0
 40
5.602503852493061
100
AcDbArc
 50
326.6697879825381
 51
347.9422271216395
  0
ARC
  5
B579
330
1F
100
AcDbEntity
  8
freecads.com
100
AcDbCircle
 10
10680.65792801824
 20
30239.1851497096
 30
0.0
 40
8.295953868684504
100
AcDbArc
 50
310.4537570676415
 51
326.6697659770662
  0
ARC
  5
B57A
330
1F
100
AcDbEntity
  8
freecads.com
100
AcDbCircle
 10
10622.50789967017
 20
30307.38139945411
 30
0.0
 40
97.91824058408774
100
AcDbArc
 50
307.7956049984221
 51
310.4537807816021
  0
LINE
  5
B57B
330
1F
100
AcDbEntity
  8
freecads.com
100
AcDbLine
 10
10682.51674494402
 20
30230.00620751263
 30
0.0
 11
10676.67403594402
 21
30225.47485751263
 31
0.0
  0
LINE
  5
B57C
330
1F
100
AcDbEntity
  8
freecads.com
100
AcDbLine
 10
10676.67403594402
 20
30225.47485751263
 30
0.0
 11
10668.03997294402
 21
30225.76731251263
 31
0.0
  0
ARC
  5
B57D
330
1F
100
AcDbEntity
  8
freecads.com
100
AcDbCircle
 10
10675.69766344561
 20
30451.8392736088
 30
0.0
 40
226.2016176283574
100
AcDbArc
 50
267.2145205343882
 51
268.0599732217601
  0
ARC
  5
B57E
330
1F
100
AcDbEntity
  8
freecads.com
100
AcDbCircle
 10
10670.74783973188
 20
30350.10345608038
 30
0.0
 40
124.3454576626038
100
AcDbArc
 50
265.8912119000872
 51
267.2145005180389
  0
ARC
  5
B57F
330
1F
100
AcDbEntity
  8
freecads.com
100
AcDbCircle
 10
10684.7304616457
 20
30544.75566882749
 30
0.0
 40
319.4992371364049
100
AcDbArc
 50
265.4482429693565
 51
265.8912533848193
  0
ARC
  5
B580
330
1F
100
AcDbEntity
  8
freecads.com
100
AcDbCircle
 10
10659.41587841512
 20
30226.77599649703
 30
0.0
 40
0.5135005594779491
100
AcDbArc
 50
225.0000404978877
 51
265.4482130596548
  0
ARC
  5
B581
330
1F
100
AcDbEntity
  8
freecads.com
100
AcDbCircle
 10
10659.22982024919
 20
30226.58993697941
 30
0.0
 40
0.2503736220476922
100
AcDbArc
 50
160.698921604214
 51
224.9998643358274
  0
ARC
  5
B582
330
1F
100
AcDbEntity
  8
freecads.com
100
AcDbCircle
 10
10667.6158889556
 20
30223.65303647844
 30
0.0
 40
9.135841133726794
100
AcDbArc
 50
155.8847068200728
 51
160.6991358182941
  0
ARC
  5
B583
330
1F
100
AcDbEntity
  8
freecads.com
100
AcDbCircle
 10
10668.51167745463
 20
30223.25202843575
 30
0.0
 40
10.11729132865752
100
AcDbArc
 50
150.3351256110601
 51
155.8846266783901
  0
ARC
  5
B584
330
1F
100
AcDbEntity
  8
freecads.com
100
AcDbCircle
 10
10675.57357377786
 20
30219.22974463058
 30
0.0
 40
18.24435394003365
100
AcDbArc
 50
146.7661568367411
 51
150.3351661821304
  0
ARC
  5
B585
330
1F
100
AcDbEntity
  8
freecads.com
100
AcDbCircle
 10
10655.6005945299
 20
30232.31655324312
 30
0.0
 40
5.634181603438126
100
AcDbArc
 50
326.7661458539639
 51
341.6409806516077
  0
ARC
  5
B586
330
1F
100
AcDbEntity
  8
freecads.com
100
AcDbCircle
 10
10639.74781186591
 20
30237.57749105139
 30
0.0
 40
22.33712100983959
100
AcDbArc
 50
341.6409579882084
 51
346.9838526127107
  0
ARC
  5
B587
330
1F
100
AcDbEntity
  8
freecads.com
100
AcDbCircle
 10
10636.58244288874
 20
30238.30919031718
 30
0.0
 40
25.58595842909193
100
AcDbArc
 50
346.9839037405913
 51
352.1785952481572
  0
ARC
  5
B588
330
1F
100
AcDbEntity
  8
freecads.com
100
AcDbCircle
 10
10639.59446807058
 20
30237.89544750141
 30
0.0
 40
22.5456494293996
100
AcDbArc
 50
352.1785959355204
 51
357.8902607242442
  0
ARC
  5
B589
330
1F
100
AcDbEntity
  8
freecads.com
100
AcDbCircle
 10
10695.36615962074
 20
30235.84090684989
 30
0.0
 40
33.26387229991669
100
AcDbArc
 50
174.2518388918824
 51
177.8902735532998
  0
ARC
  5
B58A
330
1F
100
AcDbEntity
  8
freecads.com
100
AcDbCircle
 10
10684.17540215978
 20
30236.96743565382
 30
0.0
 40
22.01655618923562
100
AcDbArc
 50
169.2950304484917
 51
174.2519465691778
  0
ARC
  5
B58B
330
1F
100
AcDbEntity
  8
freecads.com
100
AcDbCircle
 10
10682.29585628248
 20
30237.32273424604
 30
0.0
 40
20.10372326545795
100
AcDbArc
 50
164.8899463258297
 51
169.2949908681271
  0
ARC
  5
B58C
330
1F
100
AcDbEntity
  8
freecads.com
100
AcDbCircle
 10
10663.83212875631
 20
30242.30810568129
 30
0.0
 40
0.9787876444455797
100
AcDbArc
 50
125.2672217900168
 51
164.8899206602998
  0
ARC
  5
B58D
330
1F
100
AcDbEntity
  8
freecads.com
100
AcDbCircle
 10
10662.82138701458
 20
30243.73736243652
 30
0.0
 40
0.77174762822664
100
AcDbArc
 50
305.2671383197465
 51
35.0245488696193
  0
ARC
  5
B58E
330
1F
100
AcDbEntity
  8
freecads.com
100
AcDbCircle
 10
10618.08490223874
 20
30212.38393639732
 30
0.0
 40
55.40132198584867
100
AcDbArc
 50
35.02457266914928
 51
39.29146925540933
  0
ARC
  5
B58F
330
1F
100
AcDbEntity
  8
freecads.com
100
AcDbCircle
 10
10629.1212325087
 20
30221.4143269267
 30
0.0
 40
41.14128906369728
100
AcDbArc
 50
39.29146650578323
 51
45.37118481290985
  0
ARC
  5
B590
330
1F
100
AcDbEntity
  8
freecads.com
100
AcDbCircle
 10
10649.05299200868
 20
30241.60602025523
 30
0.0
 40
12.76912812664337
100
AcDbArc
 50
45.37120216548923
 51
59.90778414582701
  0
ARC
  5
B591
330
1F
100
AcDbEntity
  8
freecads.com
100
AcDbCircle
 10
10650.98119918204
 20
30244.9334039702
 30
0.0
 40
8.923420741780258
100
AcDbArc
 50
59.90775197320819
 51
79.86324907199094
  0
ARC
  5
B592
330
1F
100
AcDbEntity
  8
freecads.com
100
AcDbCircle
 10
10650.28955607947
 20
30241.06493225496
 30
0.0
 40
12.85323544389781
100
AcDbArc
 50
79.86323599232526
 51
95.04408578258553
  0
ARC
  5
B593
330
1F
100
AcDbEntity
  8
freecads.com
100
AcDbCircle
 10
10650.28184770292
 20
30241.15230353313
 30
0.0
 40
12.76552478714176
100
AcDbArc
 50
95.04410083224346
 51
110.275605622341
  0
ARC
  5
B594
330
1F
100
AcDbEntity
  8
freecads.com
100
AcDbCircle
 10
10648.8485488836
 20
30245.03209271911
 30
0.0
 40
8.629450605860059
100
AcDbArc
 50
110.2756129427879
 51
130.7009368560238
  0
ARC
  5
B595
330
1F
100
AcDbEntity
  8
freecads.com
100
AcDbCircle
 10
10650.34761683153
 20
30243.28932664935
 30
0.0
 40
10.9282412197233
100
AcDbArc
 50
130.7009490365517
 51
141.9201179511674
  0
ARC
  5
B596
330
1F
100
AcDbEntity
  8
freecads.com
100
AcDbCircle
 10
10646.10241994548
 20
30246.61558290034
 30
0.0
 40
5.53512734659401
100
AcDbArc
 50
141.9201429441905
 51
160.5837850892914
  0
ARC
  5
B597
330
1F
100
AcDbEntity
  8
freecads.com
100
AcDbCircle
 10
10650.25746174374
 20
30245.1510403351
 30
0.0
 40
9.940721207892579
100
AcDbArc
 50
160.5837877089316
 51
173.3884302367922
  0
ARC
  5
B598
330
1F
100
AcDbEntity
  8
freecads.com
100
AcDbCircle
 10
10712.03269017191
 20
30237.99068261804
 30
0.0
 40
72.12954311334758
100
AcDbArc
 50
173.3883684334771
 51
176.3565822090279
  0
ARC
  5
B599
330
1F
100
AcDbEntity
  8
freecads.com
100
AcDbCircle
 10
10710.16969757032
 20
30238.10933338265
 30
0.0
 40
70.26277600496317
100
AcDbArc
 50
176.3566015808553
 51
178.7757687224822
  0
ARC
  5
B59A
330
1F
100
AcDbEntity
  8
freecads.com
100
AcDbCircle
 10
10656.10642134954
 20
30239.26465098865
 30
0.0
 40
16.18715678064543
100
AcDbArc
 50
178.7756942994122
 51
185.9717411157017
  0
ARC
  5
B59B
330
1F
100
AcDbEntity
  8
freecads.com
100
AcDbCircle
 10
10647.00431424174
 20
30238.3125138613
 30
0.0
 40
7.035385426913864
100
AcDbArc
 50
185.9716946767549
 51
196.654655572102
  0
ARC
  5
B59C
330
1F
100
AcDbEntity
  8
freecads.com
100
AcDbCircle
 10
10640.74295924662
 20
30236.43941720017
 30
0.0
 40
0.4998626875431506
100
AcDbArc
 50
196.6546366202
 51
269.9999653145076
  0
ARC
  5
B59D
330
1F
100
AcDbEntity
  8
freecads.com
100
AcDbCircle
 10
10640.74295822168
 20
30235.30011036227
 30
0.0
 40
0.6394441503572454
100
AcDbArc
 50
48.19850557204452
 51
89.99993527630783
  0
ARC
  5
B59E
330
1F
100
AcDbEntity
  8
freecads.com
100
AcDbCircle
 10
10640.0715613214
 20
30234.54923302181
 30
0.0
 40
1.646713021174426
100
AcDbArc
 50
27.55493178659717
 51
48.19850993694421
  0
ARC
  5
B59F
330
1F
100
AcDbEntity
  8
freecads.com
100
AcDbCircle
 10
10639.19991902531
 20
30234.09442335254
 30
0.0
 40
2.62987736531418
100
AcDbArc
 50
11.49670827325625
 51
27.55490744800399
  0
ARC
  5
B5A0
330
1F
100
AcDbEntity
  8
freecads.com
100
AcDbCircle
 10
10637.75136288656
 20
30233.79979852508
 30
0.0
 40
4.108092057459209
100
AcDbArc
 50
359.9999858793843
 51
11.49670028667781
  0
ARC
  5
B5A1
330
1F
100
AcDbEntity
  8
freecads.com
100
AcDbCircle
 10
10645.35075953568
 20
30233.79979921431
 30
0.0
 40
3.491304591657995
100
AcDbArc
 50
180.0000279262773
 51
195.0467032549464
  0
ARC
  5
B5A2
330
1F
100
AcDbEntity
  8
freecads.com
100
AcDbCircle
 10
10647.12770119634
 20
30234.27748310975
 30
0.0
 40
5.331332735294653
100
AcDbArc
 50
195.0467141499612
 51
206.0036248817653
  0
ARC
  5
B5A3
330
1F
100
AcDbEntity
  8
freecads.com
100
AcDbCircle
 10
10647.00890312883
 20
30234.21952785156
 30
0.0
 40
5.199151825998809
100
AcDbArc
 50
206.0035826374951
 51
217.0773356070192
  0
ARC
  5
B5A4
330
1F
100
AcDbEntity
  8
freecads.com
100
AcDbCircle
 10
10645.24819832794
 20
30232.88901245239
 30
0.0
 40
2.99226428394367
100
AcDbArc
 50
217.0773456760487
 51
233.8250500081064
  0
ARC
  5
B5A5
330
1F
100
AcDbEntity
  8
freecads.com
100
AcDbCircle
 10
10641.84562733156
 20
30228.23571893122
 30
0.0
 40
2.772337174922967
100
AcDbArc
 50
12.04448527254461
 51
53.82508018580434
  0
ARC
  5
B5A6
330
1F
100
AcDbEntity
  8
freecads.com
100
AcDbCircle
 10
10641.98025483747
 20
30228.26444469882
 30
0.0
 40
2.634679138214274
100
AcDbArc
 50
328.6444236952938
 51
12.04447377745529
  0
ARC
  5
B5A7
330
1F
100
AcDbEntity
  8
freecads.com
100
AcDbCircle
 10
10638.74504955931
 20
30230.23577917334
 30
0.0
 40
6.423176571539865
100
AcDbArc
 50
303.653454265527
 51
328.6444382005683
  0
ARC
  5
B5A8
330
1F
100
AcDbEntity
  8
freecads.com
100
AcDbCircle
 10
10630.72129600552
 20
30242.28804411489
 30
0.0
 40
20.90204777453839
100
AcDbArc
 50
293.2767909596615
 51
303.6535230518005
  0
ARC
  5
B5A9
330
1F
100
AcDbEntity
  8
freecads.com
100
AcDbCircle
 10
10657.93079407352
 20
30179.0378667725
 30
0.0
 40
47.95244894831141
100
AcDbArc
 50
113.2768304278017
 51
118.0607914356901
  0
ARC
  5
B5AA
330
1F
100
AcDbEntity
  8
freecads.com
100
AcDbCircle
 10
10638.94657358749
 20
30214.65077558138
 30
0.0
 40
7.595542460178819
100
AcDbArc
 50
118.0607557964452
 51
136.7323662497974
  0
ARC
  5
B5AB
330
1F
100
AcDbEntity
  8
freecads.com
100
AcDbCircle
 10
10637.59511675832
 20
30215.92286723191
 30
0.0
 40
5.739564893432464
100
AcDbArc
 50
136.732248346466
 51
159.1876676088004
  0
ARC
  5
B5AC
330
1F
100
AcDbEntity
  8
freecads.com
100
AcDbCircle
 10
10651.34310505903
 20
30210.69710071278
 30
0.0
 40
20.44724377315127
100
AcDbArc
 50
159.1876433333108
 51
167.9111793947003
  0
ARC
  5
B5AD
330
1F
100
AcDbEntity
  8
freecads.com
100
AcDbCircle
 10
10613.63925509557
 20
30218.77240906138
 30
0.0
 40
18.11168394783204
100
AcDbArc
 50
342.7428374314124
 51
347.9111863499387
  0
ARC
  5
B5AE
330
1F
100
AcDbEntity
  8
freecads.com
100
AcDbCircle
 10
10591.67775658302
 20
30225.59471720215
 30
0.0
 40
41.10845122678163
100
AcDbArc
 50
339.9420349876792
 51
342.7427424476622
  0
ARC
  5
B5AF
330
1F
100
AcDbEntity
  8
freecads.com
100
AcDbCircle
 10
10590.64507799325
 20
30225.97176527967
 30
0.0
 40
42.20781027757253
100
AcDbArc
 50
337.1569093705732
 51
339.9420346927913
  0
ARC
  5
B5B0
330
1F
100
AcDbEntity
  8
freecads.com
100
AcDbCircle
 10
10607.76373852252
 20
30218.76054778934
 30
0.0
 40
23.63228347462952
100
AcDbArc
 50
332.8573425694474
 51
337.1570008957768
  0
ARC
  5
B5B1
330
1F
100
AcDbEntity
  8
freecads.com
100
AcDbCircle
 10
10641.47487599412
 20
30201.47799473966
 30
0.0
 40
14.25079229205057
100
AcDbArc
 50
152.8573079773978
 51
161.7069384112131
  0
ARC
  5
B5B2
330
1F
100
AcDbEntity
  8
freecads.com
100
AcDbCircle
 10
10735.80030687272
 20
30170.29544021951
 30
0.0
 40
113.5968471550208
100
AcDbArc
 50
161.7069037915777
 51
163.6246633615359
  0
ARC
  5
B5B3
330
1F
100
AcDbEntity
  8
freecads.com
100
AcDbCircle
 10
10748.81822324912
 20
30166.47020214193
 30
0.0
 40
127.1651408255789
100
AcDbArc
 50
163.6246870458775
 51
165.6139465531333
  0
ARC
  5
B5B4
330
1F
100
AcDbEntity
  8
freecads.com
100
AcDbCircle
 10
10758.3976956455
 20
30164.01306965797
 30
0.0
 40
137.0547207679291
100
AcDbArc
 50
165.6139354771816
 51
167.4945699316235
  0
ARC
  5
B5B5
330
1F
100
AcDbEntity
  8
freecads.com
100
AcDbCircle
 10
11150.60649106817
 20
30077.02306692744
 30
0.0
 40
538.7946861459372
100
AcDbArc
 50
167.4945275942005
 51
168.2473914287613
  0
ARC
  5
B5B6
330
1F
100
AcDbEntity
  8
freecads.com
100
AcDbCircle
 10
10639.08140073903
 20
30183.4447112687
 30
0.0
 40
16.31647184363572
100
AcDbArc
 50
168.2473087329516
 51
177.6614364578462
  0
ARC
  5
B5B7
330
1F
100
AcDbEntity
  8
freecads.com
100
AcDbCircle
 10
10626.56508809183
 20
30183.95585346804
 30
0.0
 40
3.789726510934945
100
AcDbArc
 50
177.6613925811967
 51
203.1305686531553
  0
ARC
  5
B5B8
330
1F
100
AcDbEntity
  8
freecads.com
100
AcDbCircle
 10
10627.94290063947
 20
30184.54440966614
 30
0.0
 40
5.287980766648023
100
AcDbArc
 50
203.1305717650286
 51
222.9732488577709
  0
ARC
  5
B5B9
330
1F
100
AcDbEntity
  8
freecads.com
100
AcDbCircle
 10
10629.47779208651
 20
30185.97438287601
 30
0.0
 40
7.385768919719155
100
AcDbArc
 50
222.9732659116546
 51
231.7476065160556
  0
ARC
  5
B5BA
330
1F
100
AcDbEntity
  8
freecads.com
100
AcDbCircle
 10
10629.87154498729
 20
30186.47383690924
 30
0.0
 40
8.021768666558767
100
AcDbArc
 50
231.747711645108
 51
239.9949712946377
  0
ARC
  5
B5BB
330
1F
100
AcDbEntity
  8
freecads.com
100
AcDbCircle
 10
10629.25963493512
 20
30185.41418529576
 30
0.0
 40
6.798128419631974
100
AcDbArc
 50
239.9949413532729
 51
248.7198505217414
  0
ARC
  5
B5BC
330
1F
100
AcDbEntity
  8
freecads.com
100
AcDbCircle
 10
10627.53770141768
 20
30180.99312622931
 30
0.0
 40
2.053571716687468
100
AcDbArc
 50
248.7198223835321
 51
269.9999867846428
  0
ARC
  5
B5BD
330
1F
100
AcDbEntity
  8
freecads.com
100
AcDbCircle
 10
10627.53770237035
 20
30180.17064730814
 30
0.0
 40
1.231092795517414
100
AcDbArc
 50
269.9999336178483
 51
308.9176903265757
  0
ARC
  5
B5BE
330
1F
100
AcDbEntity
  8
freecads.com
100
AcDbCircle
 10
10627.57519326813
 20
30180.1242127876
 30
0.0
 40
1.171412546574162
100
AcDbArc
 50
308.9177175072786
 51
349.3083588565195
  0
ARC
  5
B5BF
330
1F
100
AcDbEntity
  8
freecads.com
100
AcDbCircle
 10
10623.5211308129
 20
30180.88963202866
 30
0.0
 40
5.297099035569684
100
AcDbArc
 50
349.3082660408914
 51
4.52744948152414
  0
ARC
  5
B5C0
330
1F
100
AcDbEntity
  8
freecads.com
100
AcDbCircle
 10
10555.58521467661
 20
30175.51021156018
 30
0.0
 40
73.44566370023276
100
AcDbArc
 50
4.527447990690376
 51
6.754350262289197
  0
ARC
  5
B5C1
330
1F
100
AcDbEntity
  8
freecads.com
100
AcDbCircle
 10
10660.53385712873
 20
30187.93981066675
 30
0.0
 40
32.23646575643322
100
AcDbArc
 50
181.2878161214231
 51
186.7544008121485
  0
ARC
  5
B5C2
330
1F
100
AcDbEntity
  8
freecads.com
100
AcDbCircle
 10
10637.11608183267
 20
30187.41336504703
 30
0.0
 40
8.812773801336723
100
AcDbArc
 50
166.9399892403963
 51
181.2877884401597
  0
ARC
  5
B5C3
330
1F
100
AcDbEntity
  8
freecads.com
100
AcDbCircle
 10
10638.81260009286
 20
30187.01981877355
 30
0.0
 40
10.5543400149862
100
AcDbArc
 50
154.1887979204849
 51
166.9399781329331
  0
ARC
  5
B5C4
330
1F
100
AcDbEntity
  8
freecads.com
100
AcDbCircle
 10
10681.20244111189
 20
30166.51750523311
 30
0.0
 40
57.64195496975769
100
AcDbArc
 50
150.5610979857387
 51
154.1887637471342
  0
ARC
  5
B5C5
330
1F
100
AcDbEntity
  8
freecads.com
100
AcDbCircle
 10
10579.79164126346
 20
30223.75025232698
 30
0.0
 40
58.80433164261559
100
AcDbArc
 50
330.5611427178693
 51
333.2112981675432
  0
ARC
  5
B5C6
330
1F
100
AcDbEntity
  8
freecads.com
100
AcDbCircle
 10
10558.3319690561
 20
30234.58506711486
 30
0.0
 40
82.84410582484351
100
AcDbArc
 50
333.2112579125787
 51
335.2610170647314
  0
ARC
  5
B5C7
330
1F
100
AcDbEntity
  8
freecads.com
100
AcDbCircle
 10
10564.14505073237
 20
30231.90654760206
 30
0.0
 40
76.44360698839514
100
AcDbArc
 50
335.2610220688162
 51
337.3371351440237
  0
ARC
  5
B5C8
330
1F
100
AcDbEntity
  8
freecads.com
100
AcDbCircle
 10
10612.41045055318
 20
30211.75343511584
 30
0.0
 40
24.13971838778487
100
AcDbArc
 50
337.3371451327037
 51
342.2383955125219
  0
ARC
  5
B5C9
330
1F
100
AcDbEntity
  8
freecads.com
100
AcDbCircle
 10
10637.01628783831
 20
30203.87155010725
 30
0.0
 40
1.697683567344765
100
AcDbArc
 50
126.1218034175545
 51
162.2384015114117
  0
ARC
  5
B5CA
330
1F
100
AcDbEntity
  8
freecads.com
100
AcDbCircle
 10
10636.1897989983
 20
30205.00404405229
 30
0.0
 40
0.2956756008039329
100
AcDbArc
 50
5.642560503981178
 51
126.1218435995761
  0
ARC
  5
B5CB
330
1F
100
AcDbEntity
  8
freecads.com
100
AcDbCircle
 10
10600.18786943037
 20
30201.44702233943
 30
0.0
 40
36.47289683295705
100
AcDbArc
 50
0.2701167707919152
 51
5.642559863468312
  0
ARC
  5
B5CC
330
1F
100
AcDbEntity
  8
freecads.com
100
AcDbCircle
 10
8870.640034877384
 20
30193.29644479804
 30
0.0
 40
1766.039936274029
100
AcDbArc
 50
359.9397567440835
 51
0.2700093885951607
  0
ARC
  5
B5CD
330
1F
100
AcDbEntity
  8
freecads.com
100
AcDbCircle
 10
11065.910041288
 20
30190.98793365691
 30
0.0
 40
429.2312839332023
100
AcDbArc
 50
179.9397155457303
 51
180.8477343082316
  0
ARC
  5
B5CE
330
1F
100
AcDbEntity
  8
freecads.com
100
AcDbCircle
 10
10969.10784265428
 20
30189.55527437961
 30
0.0
 40
332.4184843000156
100
AcDbArc
 50
180.8476837858158
 51
181.9475251261557
  0
ARC
  5
B5CF
330
1F
100
AcDbEntity
  8
freecads.com
100
AcDbCircle
 10
10964.88143185035
 20
30189.41155700859
 30
0.0
 40
328.1896306768315
100
AcDbArc
 50
181.9475245592855
 51
182.8844199268653
  0
ARC
  5
B5D0
330
1F
100
AcDbEntity
  8
freecads.com
100
AcDbCircle
 10
10656.03116374001
 20
30173.85008911984
 30
0.0
 40
18.94757759433638
100
AcDbArc
 50
182.8844613450463
 51
190.3696695499196
  0
ARC
  5
B5D1
330
1F
100
AcDbEntity
  8
freecads.com
100
AcDbCircle
 10
10668.25649736353
 20
30176.08716222223
 30
0.0
 40
31.37590323666306
100
AcDbArc
 50
190.3696579376872
 51
197.3852820203435
  0
ARC
  5
B5D2
330
1F
100
AcDbEntity
  8
freecads.com
100
AcDbCircle
 10
10816.34021487419
 20
30222.45194515557
 30
0.0
 40
186.5483250397367
100
AcDbArc
 50
197.3852616728611
 51
199.2622294437525
  0
ARC
  5
B5D3
330
1F
100
AcDbEntity
  8
freecads.com
100
AcDbCircle
 10
10816.22250723725
 20
30222.41109462435
 30
0.0
 40
186.423730568468
100
AcDbArc
 50
199.262311554111
 51
201.140883499235
  0
ARC
  5
B5D4
330
1F
100
AcDbEntity
  8
freecads.com
100
AcDbCircle
 10
10671.79915716041
 20
30166.56438530037
 30
0.0
 40
31.57877911793589
100
AcDbArc
 50
201.1409742870441
 51
208.1266033858292
  0
ARC
  5
B5D5
330
1F
100
AcDbEntity
  8
freecads.com
100
AcDbCircle
 10
10640.92113503891
 20
30150.05862755368
 30
0.0
 40
3.433965546379222
100
AcDbArc
 50
12.97359272704462
 51
28.12660445226208
  0
ARC
  5
B5D6
330
1F
100
AcDbEntity
  8
freecads.com
100
AcDbCircle
 10
10636.75678036939
 20
30149.09922814942
 30
0.0
 40
7.707406435225337
100
AcDbArc
 50
4.693629902901885
 51
12.97362014828297
  0
ARC
  5
B5D7
330
1F
100
AcDbEntity
  8
freecads.com
100
AcDbCircle
 10
10636.22256929115
 20
30149.05537884973
 30
0.0
 40
8.243414119019268
100
AcDbArc
 50
356.6074338191303
 51
4.693553345360688
  0
ARC
  5
B5D8
330
1F
100
AcDbEntity
  8
freecads.com
100
AcDbCircle
 10
10638.78632868761
 20
30148.90339740501
 30
0.0
 40
5.67515389029043
100
AcDbArc
 50
345.910750586086
 51
356.6074325738074
  0
ARC
  5
B5D9
330
1F
100
AcDbEntity
  8
freecads.com
100
AcDbCircle
 10
10648.34659682632
 20
30146.50392410985
 30
0.0
 40
4.18163052342308
100
AcDbArc
 50
165.9106598208836
 51
184.6476086922958
  0
ARC
  5
B5DA
330
1F
100
AcDbEntity
  8
freecads.com
100
AcDbCircle
 10
10680.9123228615
 20
30149.1513478471
 30
0.0
 40
36.85479022129305
100
AcDbArc
 50
184.6476254999486
 51
188.4269708646776
  0
ARC
  5
B5DB
330
1F
100
AcDbEntity
  8
freecads.com
100
AcDbCircle
 10
10686.13462620833
 20
30149.92502593859
 30
0.0
 40
42.13409226186875
100
AcDbArc
 50
188.4269753708312
 51
192.3245460521975
  0
ARC
  5
B5DC
330
1F
100
AcDbEntity
  8
freecads.com
100
AcDbCircle
 10
10692.91441523161
 20
30151.40634981576
 30
0.0
 40
49.07382277733647
100
AcDbArc
 50
192.3246007142643
 51
195.8010419549862
  0
ARC
  5
B5DD
330
1F
100
AcDbEntity
  8
freecads.com
100
AcDbCircle
 10
10579.46804730088
 20
30119.30205128955
 30
0.0
 40
68.82768009915203
100
AcDbArc
 50
13.43708904594084
 51
15.8010290706621
  0
ARC
  5
B5DE
330
1F
100
AcDbEntity
  8
freecads.com
100
AcDbCircle
 10
10610.02909335458
 20
30126.60363833724
 30
0.0
 40
37.40649760530964
100
AcDbArc
 50
9.705615303987533
 51
13.43707425723317
  0
ARC
  5
B5DF
330
1F
100
AcDbEntity
  8
freecads.com
100
AcDbCircle
 10
10600.04814119311
 20
30124.89657824603
 30
0.0
 40
47.53237831783196
100
AcDbArc
 50
7.324691297419239
 51
9.705589055372396
  0
ARC
  5
B5E0
330
1F
100
AcDbEntity
  8
freecads.com
100
AcDbCircle
 10
10646.74548171983
 20
30130.89910101053
 30
0.0
 40
0.4508331880590808
100
AcDbArc
 50
301.7175029245457
 51
7.324672790048741
  0
ARC
  5
B5E1
330
1F
100
AcDbEntity
  8
freecads.com
100
AcDbCircle
 10
10647.30520283778
 20
30129.99345283225
 30
0.0
 40
0.6138199726933365
100
AcDbArc
 50
121.7174345656687
 51
168.9719178067153
  0
ARC
  5
B5E2
330
1F
100
AcDbEntity
  8
freecads.com
100
AcDbCircle
 10
10666.71840476033
 20
30126.2100989616
 30
0.0
 40
20.39224699296707
100
AcDbArc
 50
168.9720989957459
 51
172.7383844623949
  0
ARC
  5
B5E3
330
1F
100
AcDbEntity
  8
freecads.com
100
AcDbCircle
 10
10666.92310515089
 20
30126.18400392049
 30
0.0
 40
20.59860396748641
100
AcDbArc
 50
172.7383522048663
 51
177.3585162571412
  0
ARC
  5
B5E4
330
1F
100
AcDbEntity
  8
freecads.com
100
AcDbCircle
 10
10679.9104286067
 20
30125.58482757998
 30
0.0
 40
33.59974171895333
100
AcDbArc
 50
177.3585119173778
 51
180.5609083730867
  0
LINE
  5
B5E5
330
1F
100
AcDbEntity
  8
freecads.com
100
AcDbLine
 10
10646.31229694402
 20
30125.25590151263
 30
0.0
 11
10646.35945494402
 21
30120.43955451263
 31
0.0
  0
LINE
  5
B5E6
330
1F
100
AcDbEntity
  8
freecads.com
100
AcDbLine
 10
10646.35945494402
 20
30120.43955451263
 30
0.0
 11
10650.21461594402
 21
30120.12291951263
 31
0.0
  0
ARC
  5
B5E7
330
1F
100
AcDbEntity
  8
freecads.com
100
AcDbCircle
 10
10651.8737774314
 20
30140.32410103578
 30
0.0
 40
20.26920205071509
100
AcDbArc
 50
265.3047272079516
 51
269.8231744003351
  0
ARC
  5
B5E8
330
1F
100
AcDbEntity
  8
freecads.com
100
AcDbCircle
 10
10651.87571991898
 20
30140.95047680722
 30
0.0
 40
20.89558083405642
100
AcDbArc
 50
269.8231487148831
 51
274.2396481691049
  0
ARC
  5
B5E9
330
1F
100
AcDbEntity
  8
freecads.com
100
AcDbCircle
 10
10652.08415153069
 20
30138.13882753432
 30
0.0
 40
18.07621647828849
100
AcDbArc
 50
274.2396457434122
 51
278.7264778716382
  0
ARC
  5
B5EA
330
1F
100
AcDbEntity
  8
freecads.com
100
AcDbCircle
 10
10654.29054748885
 20
30123.76436173525
 30
0.0
 40
3.533402096858225
100
AcDbArc
 50
278.7265619298354
 51
293.7677605298681
  0
ARC
  5
B5EB
330
1F
100
AcDbEntity
  8
freecads.com
100
AcDbCircle
 10
10657.94115573006
 20
30115.47467986816
 30
0.0
 40
5.524509692754646
100
AcDbArc
 50
105.7468145966514
 51
113.7676975564591
  0
ARC
  5
B5EC
330
1F
100
AcDbEntity
  8
freecads.com
100
AcDbCircle
 10
10658.5898376263
 20
30113.17412063613
 30
0.0
 40
7.914773482083624
100
AcDbArc
 50
99.62057139116547
 51
105.7467808879808
  0
ARC
  5
B5ED
330
1F
100
AcDbEntity
  8
freecads.com
100
AcDbCircle
 10
10658.49119005098
 20
30113.75601511687
 30
0.0
 40
7.324576455088243
100
AcDbArc
 50
93.35479435606353
 51
99.6204743807079
  0
ARC
  5
B5EE
330
1F
100
AcDbEntity
  8
freecads.com
100
AcDbCircle
 10
10658.22816201771
 20
30118.24302837072
 30
0.0
 40
2.829860481138577
100
AcDbArc
 50
80.60949682434815
 51
93.35473669371216
  0
ARC
  5
B5EF
330
1F
100
AcDbEntity
  8
freecads.com
100
AcDbCircle
 10
10658.96864550774
 20
30122.7205130897
 30
0.0
 40
1.708441536979478
100
AcDbArc
 50
260.6093920327577
 51
283.620802997217
  0
ARC
  5
B5F0
330
1F
100
AcDbEntity
  8
freecads.com
100
AcDbCircle
 10
10657.29480696304
 20
30129.62829896784
 30
0.0
 40
8.816130416767897
100
AcDbArc
 50
283.6208923787575
 51
290.4425752249358
  0
ARC
  5
B5F1
330
1F
100
AcDbEntity
  8
freecads.com
100
AcDbCircle
 10
10656.6559594672
 20
30131.34220424633
 30
0.0
 40
10.64522785173346
100
AcDbArc
 50
290.4425839354531
 51
296.9878779758149
  0
ARC
  5
B5F2
330
1F
100
AcDbEntity
  8
freecads.com
100
AcDbCircle
 10
10656.34487433017
 20
30131.95309575102
 30
0.0
 40
11.3307658833362
100
AcDbArc
 50
296.9878020549324
 51
303.2337870132423
  0
ARC
  5
B5F3
330
1F
100
AcDbEntity
  8
freecads.com
100
AcDbCircle
 10
10658.42730081314
 20
30128.77489231027
 30
0.0
 40
7.531097849459035
100
AcDbArc
 50
303.2338463415815
 51
318.7993627719196
  0
ARC
  5
B5F4
330
1F
100
AcDbEntity
  8
freecads.com
100
AcDbCircle
 10
10662.46493613234
 20
30125.24012873735
 30
0.0
 40
2.164809328764111
100
AcDbArc
 50
318.7993971978344
 51
358.1531584494954
  0
ARC
  5
B5F5
330
1F
100
AcDbEntity
  8
freecads.com
100
AcDbCircle
 10
10654.46149599703
 20
30125.4981990968
 30
0.0
 40
10.17240911334146
100
AcDbArc
 50
358.1531451526085
 51
10.94407952735632
  0
ARC
  5
B5F6
330
1F
100
AcDbEntity
  8
freecads.com
100
AcDbCircle
 10
9949.395791370019
 20
29989.16219219324
 30
0.0
 40
728.2985502748986
100
AcDbArc
 50
10.94401187670058
 51
11.54607454278388
  0
ARC
  5
B5F7
330
1F
100
AcDbEntity
  8
freecads.com
100
AcDbCircle
 10
10687.04998452907
 20
30139.85747934219
 30
0.0
 40
24.59106862952568
100
AcDbArc
 50
186.2105190222139
 51
191.5460837666099
  0
ARC
  5
B5F8
330
1F
100
AcDbEntity
  8
freecads.com
100
AcDbCircle
 10
10674.65954813578
 20
30138.50914580404
 30
0.0
 40
12.12748498169571
100
AcDbArc
 50
177.1563126078747
 51
186.2105202959656
  0
ARC
  5
B5F9
330
1F
100
AcDbEntity
  8
freecads.com
100
AcDbCircle
 10
10672.34881420074
 20
30138.6239077292
 30
0.0
 40
9.813902993174082
100
AcDbArc
 50
166.9542187118418
 51
177.1562076023952
  0
ARC
  5
B5FA
330
1F
100
AcDbEntity
  8
freecads.com
100
AcDbCircle
 10
10673.11232347171
 20
30138.44700680403
 30
0.0
 40
10.59763786164599
100
AcDbArc
 50
157.3234911282534
 51
166.9542807806474
  0
ARC
  5
B5FB
330
1F
100
AcDbEntity
  8
freecads.com
100
AcDbCircle
 10
10644.40431569549
 20
30150.44200621884
 30
0.0
 40
20.5155381485331
100
AcDbArc
 50
337.323472963075
 51
349.0821557081284
  0
ARC
  5
B5FC
330
1F
100
AcDbEntity
  8
freecads.com
100
AcDbCircle
 10
10609.9069931636
 20
30157.09632000686
 30
0.0
 40
55.64878670113213
100
AcDbArc
 50
349.0821217742444
 51
354.6657509845251
  0
ARC
  5
B5FD
330
1F
100
AcDbEntity
  8
freecads.com
100
AcDbCircle
 10
10548.85644798007
 20
30162.7965810722
 30
0.0
 40
116.9648697741577
100
AcDbArc
 50
354.6657687055835
 51
358.3750027538238
  0
ARC
  5
B5FE
330
1F
100
AcDbEntity
  8
freecads.com
100
AcDbCircle
 10
10085.12033171183
 20
30175.95258508274
 30
0.0
 40
580.8875637362786
100
AcDbArc
 50
358.3749830048689
 51
359.5055341558702
  0
ARC
  5
B5FF
330
1F
100
AcDbEntity
  8
freecads.com
100
AcDbCircle
 10
10374.03294343193
 20
30173.45901592637
 30
0.0
 40
291.9641913725931
100
AcDbArc
 50
359.5055684856863
 51
0.9844666189842806
  0
ARC
  5
B600
330
1F
100
AcDbEntity
  8
freecads.com
100
AcDbCircle
 10
10534.45139424346
 20
30176.21557341821
 30
0.0
 40
131.5220585957828
100
AcDbArc
 50
0.9844897514112863
 51
3.669018012288396
  0
ARC
  5
B601
330
1F
100
AcDbEntity
  8
freecads.com
100
AcDbCircle
 10
10574.14469042344
 20
30178.76094270468
 30
0.0
 40
91.74723406531901
100
AcDbArc
 50
3.668973369479223
 51
6.910781530146969
  0
ARC
  5
B602
330
1F
100
AcDbEntity
  8
freecads.com
100
AcDbCircle
 10
10611.87879659151
 20
30183.33447961133
 30
0.0
 40
53.73697218593007
100
AcDbArc
 50
6.910777693013092
 51
11.74994749093724
  0
ARC
  5
B603
330
1F
100
AcDbEntity
  8
freecads.com
100
AcDbCircle
 10
10723.11126217289
 20
30206.47074054666
 30
0.0
 40
59.87617832658325
100
AcDbArc
 50
188.3172526408988
 51
191.7499298511537
  0
ARC
  5
B604
330
1F
100
AcDbEntity
  8
freecads.com
100
AcDbCircle
 10
10773.02061474045
 20
30213.76720842701
 30
0.0
 40
110.316062517896
100
AcDbArc
 50
186.1447294809282
 51
188.3173203576896
  0
ARC
  5
B605
330
1F
100
AcDbEntity
  8
freecads.com
100
AcDbCircle
 10
10770.81941129031
 20
30213.53039825983
 30
0.0
 40
108.1021574486918
100
AcDbArc
 50
183.9632902318422
 51
186.144818443719
  0
ARC
  5
B606
330
1F
100
AcDbEntity
  8
freecads.com
100
AcDbCircle
 10
10711.49900325326
 20
30209.42052283713
 30
0.0
 40
48.63954830924721
100
AcDbArc
 50
179.9999874245562
 51
183.9633143166257
  0
ARC
  5
B607
330
1F
100
AcDbEntity
  8
freecads.com
100
AcDbCircle
 10
10740.24202678181
 20
30209.42056354997
 30
0.0
 40
77.38257183779833
100
AcDbArc
 50
176.0877880970559
 51
180.0000222402198
  0
ARC
  5
B608
330
1F
100
AcDbEntity
  8
freecads.com
100
AcDbCircle
 10
10666.52846820785
 20
30214.46163711619
 30
0.0
 40
3.496841548811613
100
AcDbArc
 50
139.0198201893
 51
176.0878353318425
  0
ARC
  5
B609
330
1F
100
AcDbEntity
  8
freecads.com
100
AcDbCircle
 10
10666.0222641546
 20
30214.90136728198
 30
0.0
 40
2.826315514841836
100
AcDbArc
 50
95.72479977496978
 51
139.0198360547674
  0
ARC
  5
B60A
330
1F
100
AcDbEntity
  8
freecads.com
100
AcDbCircle
 10
10670.25975516925
 20
30172.63182600124
 30
0.0
 40
45.30772851139392
100
AcDbArc
 50
90.00001798906909
 51
95.72473808480255
  0
ARC
  5
B60B
330
1F
100
AcDbEntity
  8
freecads.com
100
AcDbCircle
 10
10670.25972753909
 20
30248.69588337419
 30
0.0
 40
30.75632886156211
100
AcDbArc
 50
270.0000249719412
 51
279.9035050019851
  0
ARC
  5
B60C
330
1F
100
AcDbEntity
  8
freecads.com
100
AcDbCircle
 10
10670.92328479263
 20
30244.89504821465
 30
0.0
 40
26.89800589200596
100
AcDbArc
 50
279.9035769119528
 51
290.8543138243866
  0
ARC
  5
B60D
330
1F
100
AcDbEntity
  8
freecads.com
100
AcDbCircle
 10
10672.53538875178
 20
30240.66315414517
 30
0.0
 40
22.36945131144507
100
AcDbArc
 50
290.8543951210371
 51
302.823133257509
  0
ARC
  5
B60E
330
1F
100
AcDbEntity
  8
freecads.com
100
AcDbCircle
 10
10678.18649010751
 20
30231.90211525107
 30
0.0
 40
11.94396575744745
100
AcDbArc
 50
302.8231761066702
 51
321.9659739544223
  0
ARC
  5
B60F
330
1F
100
AcDbEntity
  8
freecads.com
100
AcDbCircle
 10
10705.13899629177
 20
30210.81874854967
 30
0.0
 40
22.27512162194681
100
AcDbArc
 50
132.9541548907234
 51
141.9660295331763
  0
ARC
  5
B610
330
1F
100
AcDbEntity
  8
freecads.com
100
AcDbCircle
 10
10702.53125423155
 20
30213.61972212852
 30
0.0
 40
18.44814218095832
100
AcDbArc
 50
122.5740400147666
 51
132.9542028088426
  0
ARC
  5
B611
330
1F
100
AcDbEntity
  8
freecads.com
100
AcDbCircle
 10
10700.5233191697
 20
30216.76258379358
 30
0.0
 40
14.71861370427937
100
AcDbArc
 50
111.0357294181007
 51
122.5740498982048
  0
ARC
  5
B612
330
1F
100
AcDbEntity
  8
freecads.com
100
AcDbCircle
 10
10697.6059554859
 20
30224.34842351096
 30
0.0
 40
6.591131001672618
100
AcDbArc
 50
90.00003948192434
 51
111.0356986296606
  0
ARC
  5
B613
330
1F
100
AcDbEntity
  8
freecads.com
100
AcDbCircle
 10
10697.60595229309
 20
30232.97774969084
 30
0.0
 40
2.03819517821403
100
AcDbArc
 50
269.9999620760666
 51
331.5667527078829
  0
ARC
  5
B614
330
1F
100
AcDbEntity
  8
freecads.com
100
AcDbCircle
 10
10674.56884583053
 20
30245.45120680523
 30
0.0
 40
28.23543561593245
100
AcDbArc
 50
331.5666479728836
 51
340.6062107853482
  0
ARC
  5
B615
330
1F
100
AcDbEntity
  8
freecads.com
100
AcDbCircle
 10
10667.90887453696
 20
30247.79576476812
 30
0.0
 40
35.29604250713882
100
AcDbArc
 50
340.6061751530926
 51
349.4942507213319
  0
ARC
  5
B616
330
1F
100
AcDbEntity
  8
freecads.com
100
AcDbCircle
 10
10664.11631587206
 20
30248.49908629987
 30
0.0
 40
39.15326461682338
100
AcDbArc
 50
349.4942238274863
 51
357.717221419323
  0
ARC
  5
B617
330
1F
100
AcDbEntity
  8
freecads.com
100
AcDbCircle
 10
10729.55529648215
 20
30245.89045115619
 30
0.0
 40
26.33769018307739
100
AcDbArc
 50
165.9884074829505
 51
177.7171460018563
  0
ARC
  5
B618
330
1F
100
AcDbEntity
  8
freecads.com
100
AcDbCircle
 10
10729.53802417006
 20
30245.89472077825
 30
0.0
 40
26.31989802503464
100
AcDbArc
 50
154.2536401327079
 51
165.9883218125683
  0
ARC
  5
B619
330
1F
100
AcDbEntity
  8
freecads.com
100
AcDbCircle
 10
10742.52707360895
 20
30239.63051581128
 30
0.0
 40
40.74056615077917
100
AcDbArc
 50
145.1675644928616
 51
154.2535787650903
  0
ARC
  5
B61A
330
1F
100
AcDbEntity
  8
freecads.com
100
AcDbCircle
 10
10820.3117401096
 20
30185.50337911503
 30
0.0
 40
135.5044900329825
100
AcDbArc
 50
141.4553330287597
 51
145.167545676472
  0
ARC
  5
B61B
330
1F
100
AcDbEntity
  8
freecads.com
100
AcDbCircle
 10
10600.38200335526
 20
30360.72330489298
 30
0.0
 40
145.6913696422395
100
AcDbArc
 50
321.4553933002195
 51
324.4937250671035
  0
ARC
  5
B61C
330
1F
100
AcDbEntity
  8
freecads.com
100
AcDbCircle
 10
10673.76438337519
 20
30308.36797060745
 30
0.0
 40
55.54673738089488
100
AcDbArc
 50
324.4937793798027
 51
330.7351840768558
  0
ARC
  5
B61D
330
1F
100
AcDbEntity
  8
freecads.com
100
AcDbCircle
 10
10693.09378389668
 20
30297.53643809477
 30
0.0
 40
33.38939500657237
100
AcDbArc
 50
330.7351559258279
 51
338.7175830366899
  0
ARC
  5
B61E
330
1F
100
AcDbEntity
  8
freecads.com
100
AcDbCircle
 10
10715.57330028051
 20
30288.77998703117
 30
0.0
 40
9.264634032002721
100
AcDbArc
 50
338.7175836916693
 51
359.4407243817298
  0
ARC
  5
B61F
330
1F
100
AcDbEntity
  8
freecads.com
100
AcDbCircle
 10
10728.87786095508
 20
30288.65011680222
 30
0.0
 40
4.040560480653892
100
AcDbArc
 50
167.126923965386
 51
179.440758219125
  0
ARC
  5
B620
330
1F
100
AcDbEntity
  8
freecads.com
100
AcDbCircle
 10
10727.55987185011
 20
30288.95132059482
 30
0.0
 40
2.688591913911302
100
AcDbArc
 50
150.4174292702176
 51
167.1268356113042
  0
ARC
  5
B621
330
1F
100
AcDbEntity
  8
freecads.com
100
AcDbCircle
 10
10726.74188460413
 20
30289.41567435074
 30
0.0
 40
1.747992347029892
100
AcDbArc
 50
129.3304508438101
 51
150.4174691868396
  0
ARC
  5
B622
330
1F
100
AcDbEntity
  8
freecads.com
100
AcDbCircle
 10
10726.11476506293
 20
30290.18103355516
 30
0.0
 40
0.7585209574661793
100
AcDbArc
 50
90.00000898192388
 51
129.330408190548
  0
ARC
  5
B623
330
1F
100
AcDbEntity
  8
freecads.com
100
AcDbCircle
 10
10726.1147645054
 20
30292.0646669924
 30
0.0
 40
1.125112479771047
100
AcDbArc
 50
270.0000223365195
 51
326.6253272153308
  0
ARC
  5
B624
330
1F
100
AcDbEntity
  8
freecads.com
100
AcDbCircle
 10
10716.16784332787
 20
30298.61715854428
 30
0.0
 40
13.03629992895099
100
AcDbArc
 50
326.6252819451546
 51
336.0490191117433
  0
ARC
  5
B625
330
1F
100
AcDbEntity
  8
freecads.com
100
AcDbCircle
 10
10692.36726018176
 20
30309.18951264846
 30
0.0
 40
39.07938786794857
100
AcDbArc
 50
336.0489636850244
 51
341.3300121045227
  0
ARC
  5
B626
330
1F
100
AcDbEntity
  8
freecads.com
100
AcDbCircle
 10
10369.07550035682
 20
30418.42912080893
 30
0.0
 40
380.3283497151002
100
AcDbArc
 50
341.3299983562323
 51
342.3225842343498
  0
ARC
  5
B627
330
1F
100
AcDbEntity
  8
freecads.com
100
AcDbCircle
 10
10763.16013016201
 20
30292.83177353176
 30
0.0
 40
33.28667550976913
100
AcDbArc
 50
158.049674231178
 51
162.3225275105491
  0
ARC
  5
B628
330
1F
100
AcDbEntity
  8
freecads.com
100
AcDbCircle
 10
10732.44785372023
 20
30305.20937618498
 30
0.0
 40
0.1740046468256808
100
AcDbArc
 50
8.033106825458036
 51
158.0496963922283
  0
ARC
  5
B629
330
1F
100
AcDbEntity
  8
freecads.com
100
AcDbCircle
 10
10722.93471533235
 20
30303.86678995615
 30
0.0
 40
9.781415316135058
100
AcDbArc
 50
358.0394747867235
 51
8.033082920767645
  0
ARC
  5
B62A
330
1F
100
AcDbEntity
  8
freecads.com
100
AcDbCircle
 10
9070.445215591307
 20
30360.43433251816
 30
0.0
 40
1663.238833463302
100
AcDbArc
 50
357.7777062523434
 51
358.0394332593426
  0
ARC
  5
B62B
330
1F
100
AcDbEntity
  8
freecads.com
100
AcDbCircle
 10
10616.22369788756
 20
30300.44916067815
 30
0.0
 40
116.2969026944769
100
AcDbArc
 50
355.4334711763098
 51
357.7777035322294
  0
ARC
  5
B62C
330
1F
100
AcDbEntity
  8
freecads.com
100
AcDbCircle
 10
10613.55863907168
 20
30300.6620811496
 30
0.0
 40
118.9704534449814
100
AcDbArc
 50
353.1288537458972
 51
355.4334415008081
  0
ARC
  5
B62D
330
1F
100
AcDbEntity
  8
freecads.com
100
AcDbCircle
 10
10627.32074672831
 20
30299.00377610521
 30
0.0
 40
105.1087947142011
100
AcDbArc
 50
350.8418780854514
 51
353.1288205107923
  0
ARC
  5
B62E
330
1F
100
AcDbEntity
  8
freecads.com
100
AcDbCircle
 10
10713.63056163827
 20
30285.0893775054
 30
0.0
 40
17.68457245180288
100
AcDbArc
 50
342.2961355579134
 51
350.8418489958728
  0
ARC
  5
B62F
330
1F
100
AcDbEntity
  8
freecads.com
100
AcDbCircle
 10
10797.2948548559
 20
30258.38239846905
 30
0.0
 40
70.13898184233433
100
AcDbArc
 50
162.2960738048778
 51
168.9661688423905
  0
ARC
  5
B630
330
1F
100
AcDbEntity
  8
freecads.com
100
AcDbCircle
 10
10927.11359561924
 20
30233.06843721179
 30
0.0
 40
202.4027413832614
100
AcDbArc
 50
168.9661145319713
 51
171.9918434335911
  0
ARC
  5
B631
330
1F
100
AcDbEntity
  8
freecads.com
100
AcDbCircle
 10
10936.94922087663
 20
30231.68455061743
 30
0.0
 40
212.3352469225654
100
AcDbArc
 50
171.9918028887417
 51
175.0019500406322
  0
ARC
  5
B632
330
1F
100
AcDbEntity
  8
freecads.com
100
AcDbCircle
 10
10849.5396294819
 20
30239.32895634362
 30
0.0
 40
124.5920215049049
100
AcDbArc
 50
175.0019752877261
 51
179.4892656065737
  0
ARC
  5
B633
330
1F
100
AcDbEntity
  8
freecads.com
100
AcDbCircle
 10
10529.96091130292
 20
30242.17777608316
 30
0.0
 40
194.9993940350495
100
AcDbArc
 50
357.9010459632594
 51
359.4892595471667
  0
ARC
  5
B634
330
1F
100
AcDbEntity
  8
freecads.com
100
AcDbCircle
 10
10354.53034457754
 20
30248.60759323519
 30
0.0
 40
370.5477528714535
100
AcDbArc
 50
356.9187303053333
 51
357.9010031345343
  0
ARC
  5
B635
330
1F
100
AcDbEntity
  8
freecads.com
100
AcDbCircle
 10
10359.95097518356
 20
30248.31619257317
 30
0.0
 40
365.1192954150014
100
AcDbArc
 50
355.9336457478177
 51
356.9186687239666
  0
ARC
  5
B636
330
1F
100
AcDbEntity
  8
freecads.com
100
AcDbCircle
 10
10557.56538036815
 20
30234.26765330385
 30
0.0
 40
167.00615957576
100
AcDbArc
 50
354.1657618505179
 51
355.9336453572566
  0
ARC
  5
B637
330
1F
100
AcDbEntity
  8
freecads.com
100
AcDbCircle
 10
10910.77157304291
 20
30198.17708672388
 30
0.0
 40
188.0391101292003
100
AcDbArc
 50
174.1657817619914
 51
175.504883481601
  0
ARC
  5
B638
330
1F
100
AcDbEntity
  8
freecads.com
100
AcDbCircle
 10
10843.72245934348
 20
30203.4481167607
 30
0.0
 40
120.7831259678493
100
AcDbArc
 50
175.5048364232811
 51
177.3705749702256
  0
ARC
  5
B639
330
1F
100
AcDbEntity
  8
freecads.com
100
AcDbCircle
 10
10876.7123899099
 20
30201.93305951647
 30
0.0
 40
153.8078275899674
100
AcDbArc
 50
177.3705692022227
 51
178.5941662433071
  0
ARC
  5
B63A
330
1F
100
AcDbEntity
  8
freecads.com
100
AcDbCircle
 10
10725.6225994643
 20
30205.64101129695
 30
0.0
 40
2.672544868490578
100
AcDbArc
 50
178.594250071966
 51
200.9936014665124
  0
ARC
  5
B63B
330
1F
100
AcDbEntity
  8
freecads.com
100
AcDbCircle
 10
10724.51446245088
 20
30205.21577886347
 30
0.0
 40
1.485620160258245
100
AcDbArc
 50
200.9935845864434
 51
229.8900436105434
  0
ARC
  5
B63C
330
1F
100
AcDbEntity
  8
freecads.com
100
AcDbCircle
 10
10727.32054635563
 20
30208.54692992168
 30
0.0
 40
5.841153910924808
100
AcDbArc
 50
229.8900077902121
 51
240.334209495899
  0
ARC
  5
B63D
330
1F
100
AcDbEntity
  8
freecads.com
100
AcDbCircle
 10
10728.1112200837
 20
30209.93502711107
 30
0.0
 40
7.438645304110732
100
AcDbArc
 50
240.3341082533916
 51
249.8710970509397
  0
ARC
  5
B63E
330
1F
100
AcDbEntity
  8
freecads.com
100
AcDbCircle
 10
10728.39283004039
 20
30210.70336785485
 30
0.0
 40
8.256967774930481
100
AcDbArc
 50
249.8711127176835
 51
258.6900782229106
  0
ARC
  5
B63F
330
1F
100
AcDbEntity
  8
freecads.com
100
AcDbCircle
 10
10725.56451808327
 20
30196.56178303494
 30
0.0
 40
6.164674633108695
100
AcDbArc
 50
57.9969639958554
 51
78.69009882963407
  0
ARC
  5
B640
330
1F
100
AcDbEntity
  8
freecads.com
100
AcDbCircle
 10
10727.82344037679
 20
30200.17638577276
 30
0.0
 40
1.902271217150384
100
AcDbArc
 50
8.385909693498728
 51
57.99700223839497
  0
ARC
  5
B641
330
1F
100
AcDbEntity
  8
freecads.com
100
AcDbCircle
 10
10722.02690066112
 20
30199.32188177532
 30
0.0
 40
7.76145629332953
100
AcDbArc
 50
349.7357146328468
 51
8.385924384942175
  0
ARC
  5
B642
330
1F
100
AcDbEntity
  8
freecads.com
100
AcDbCircle
 10
10491.8472680928
 20
30241.00427238141
 30
0.0
 40
241.6847021153811
100
AcDbArc
 50
348.1825963027826
 51
349.7357465165835
  0
ARC
  5
B643
330
1F
100
AcDbEntity
  8
freecads.com
100
AcDbCircle
 10
10766.18974737528
 20
30183.60418190934
 30
0.0
 40
38.59830900919702
100
AcDbArc
 50
168.1826165849687
 51
176.7287877522256
  0
ARC
  5
B644
330
1F
100
AcDbEntity
  8
freecads.com
100
AcDbCircle
 10
10781.51823986609
 20
30182.72801097954
 30
0.0
 40
53.95182188202776
100
AcDbArc
 50
176.7287213170583
 51
183.3777493058563
  0
ARC
  5
B645
330
1F
100
AcDbEntity
  8
freecads.com
100
AcDbCircle
 10
10778.66761284754
 20
30182.55972139909
 30
0.0
 40
51.09623161381126
100
AcDbArc
 50
183.3777022398598
 51
190.1638930027267
  0
ARC
  5
B646
330
1F
100
AcDbEntity
  8
freecads.com
100
AcDbCircle
 10
10754.22410579438
 20
30178.17755685201
 30
0.0
 40
26.26301991707896
100
AcDbArc
 50
190.1639267248826
 51
201.3305091495829
  0
ARC
  5
B647
330
1F
100
AcDbEntity
  8
freecads.com
100
AcDbCircle
 10
10717.2963918077
 20
30163.75736253701
 30
0.0
 40
13.38036621940093
100
AcDbArc
 50
8.215036846426855
 51
21.33060115964363
  0
ARC
  5
B648
330
1F
100
AcDbEntity
  8
freecads.com
100
AcDbCircle
 10
10702.45886922862
 20
30161.6152299258
 30
0.0
 40
28.37172401007082
100
AcDbArc
 50
0.7390620311299835
 51
8.21511267469163
  0
ARC
  5
B649
330
1F
100
AcDbEntity
  8
freecads.com
100
AcDbCircle
 10
10699.59822553934
 20
30161.57834610827
 30
0.0
 40
31.23260547087161
100
AcDbArc
 50
354.6478598835159
 51
0.7390292692176898
  0
ARC
  5
B64A
330
1F
100
AcDbEntity
  8
freecads.com
100
AcDbCircle
 10
10729.89799895439
 20
30158.73970797127
 30
0.0
 40
0.8001534586453649
100
AcDbArc
 50
269.9999992571169
 51
354.6478739518652
  0
ARC
  5
B64B
330
1F
100
AcDbEntity
  8
freecads.com
100
AcDbCircle
 10
10729.89799898075
 20
30157.41195416779
 30
0.0
 40
0.5276003448402675
100
AcDbArc
 50
90.00000398893218
 51
145.8208794955993
  0
ARC
  5
B64C
330
1F
100
AcDbEntity
  8
freecads.com
100
AcDbCircle
 10
10736.70137016408
 20
30152.79201077575
 30
0.0
 40
8.751330423321284
100
AcDbArc
 50
145.8208766371418
 51
153.0359268555187
  0
ARC
  5
B64D
330
1F
100
AcDbEntity
  8
freecads.com
100
AcDbCircle
 10
10739.0836086051
 20
30151.58006942016
 30
0.0
 40
11.42413079730913
100
AcDbArc
 50
153.0358767412816
 51
160.1314099486994
  0
ARC
  5
B64E
330
1F
100
AcDbEntity
  8
freecads.com
100
AcDbCircle
 10
10746.45541445839
 20
30148.91607066898
 30
0.0
 40
19.26252418402871
100
AcDbArc
 50
160.1313757495144
 51
164.9293108190863
  0
ARC
  5
B64F
330
1F
100
AcDbEntity
  8
freecads.com
100
AcDbCircle
 10
10705.51986934656
 20
30159.93888829456
 30
0.0
 40
23.13112347703045
100
AcDbArc
 50
340.3010741352632
 51
344.9292563314213
  0
ARC
  5
B650
330
1F
100
AcDbEntity
  8
freecads.com
100
AcDbCircle
 10
10686.19080309704
 20
30166.85933908117
 30
0.0
 40
43.66172115870687
100
AcDbArc
 50
337.4242254088245
 51
340.3010099903418
  0
ARC
  5
B651
330
1F
100
AcDbEntity
  8
freecads.com
100
AcDbCircle
 10
10686.73152711705
 20
30166.63454553734
 30
0.0
 40
43.07613205121386
100
AcDbArc
 50
334.5389378906129
 51
337.4242009075837
  0
ARC
  5
B652
330
1F
100
AcDbEntity
  8
freecads.com
100
AcDbCircle
 10
10707.37113210179
 20
30156.80716917754
 30
0.0
 40
20.21632846406214
100
AcDbArc
 50
329.4587851855788
 51
334.5389427077801
  0
ARC
  5
B653
330
1F
100
AcDbEntity
  8
freecads.com
100
AcDbCircle
 10
10739.57508974058
 20
30137.80637837991
 30
0.0
 40
17.17518044552976
100
AcDbArc
 50
149.4588035582296
 51
163.657297598759
  0
ARC
  5
B654
330
1F
100
AcDbEntity
  8
freecads.com
100
AcDbCircle
 10
10746.73523776417
 20
30135.70684916055
 30
0.0
 40
24.63679841094075
100
AcDbArc
 50
163.6573837640734
 51
174.4919584527979
  0
ARC
  5
B655
330
1F
100
AcDbEntity
  8
freecads.com
100
AcDbCircle
 10
10745.66654178028
 20
30135.80990761675
 30
0.0
 40
23.56314476503947
100
AcDbArc
 50
174.4919665642112
 51
185.5341658352352
  0
ARC
  5
B656
330
1F
100
AcDbEntity
  8
freecads.com
100
AcDbCircle
 10
10735.24665654087
 20
30134.80031661641
 30
0.0
 40
13.09446374064543
100
AcDbArc
 50
185.5341712547377
 51
202.6764267285419
  0
ARC
  5
B657
330
1F
100
AcDbEntity
  8
freecads.com
100
AcDbCircle
 10
10736.6232979612
 20
30135.37553748736
 30
0.0
 40
14.58644921312415
100
AcDbArc
 50
202.6765161711717
 51
216.3251719518399
  0
ARC
  5
B658
330
1F
100
AcDbEntity
  8
freecads.com
100
AcDbCircle
 10
10732.8700183041
 20
30132.61593870178
 30
0.0
 40
9.927855686979301
100
AcDbArc
 50
216.3251661091674
 51
234.5349960009109
  0
ARC
  5
B659
330
1F
100
AcDbEntity
  8
freecads.com
100
AcDbCircle
 10
10730.83763790416
 20
30129.76296149245
 30
0.0
 40
6.424992708355985
100
AcDbArc
 50
234.5349929453738
 51
257.6943202807622
  0
ARC
  5
B65A
330
1F
100
AcDbEntity
  8
freecads.com
100
AcDbCircle
 10
10730.11711627477
 20
30126.45992854475
 30
0.0
 40
3.04428596685973
100
AcDbArc
 50
257.6943382689648
 51
298.154949334789
  0
ARC
  5
B65B
330
1F
100
AcDbEntity
  8
freecads.com
100
AcDbCircle
 10
10725.87397966034
 20
30134.38830453629
 30
0.0
 40
12.03669132871744
100
AcDbArc
 50
298.1549558874275
 51
313.6353785877294
  0
ARC
  5
B65C
330
1F
100
AcDbEntity
  8
freecads.com
100
AcDbCircle
 10
10728.19209857668
 20
30131.95705170632
 30
0.0
 40
8.677425689688224
100
AcDbArc
 50
313.6353603098051
 51
333.4186665482938
  0
ARC
  5
B65D
330
1F
100
AcDbEntity
  8
freecads.com
100
AcDbCircle
 10
10723.62300296875
 20
30134.24324545724
 30
0.0
 40
13.78656617913767
100
AcDbArc
 50
333.4185823172636
 51
348.3221724796075
  0
ARC
  5
B65E
330
1F
100
AcDbEntity
  8
freecads.com
100
AcDbCircle
 10
10682.56868166067
 20
30142.7287087658
 30
0.0
 40
55.70864133800883
100
AcDbArc
 50
348.3220824146498
 51
353.6012983422614
  0
ARC
  5
B65F
330
1F
100
AcDbEntity
  8
freecads.com
100
AcDbCircle
 10
10788.61067326468
 20
30130.83665655988
 30
0.0
 40
50.99808239116377
100
AcDbArc
 50
169.5312381613059
 51
173.6013315824126
  0
ARC
  5
B660
330
1F
100
AcDbEntity
  8
freecads.com
100
AcDbCircle
 10
10780.01179576439
 20
30132.42557365173
 30
0.0
 40
42.25363547978796
100
AcDbArc
 50
164.8447158524251
 51
169.5313156121152
  0
ARC
  5
B661
330
1F
100
AcDbEntity
  8
freecads.com
100
AcDbCircle
 10
10774.08819180458
 20
30134.03000543423
 30
0.0
 40
36.11659342215705
100
AcDbArc
 50
159.7982125534013
 51
164.8446965983971
  0
ARC
  5
B662
330
1F
100
AcDbEntity
  8
freecads.com
100
AcDbCircle
 10
10760.51589171564
 20
30139.02410011263
 30
0.0
 40
21.65463258136554
100
AcDbArc
 50
152.395602105772
 51
159.798162457125
  0
ARC
  5
B663
330
1F
100
AcDbEntity
  8
freecads.com
100
AcDbCircle
 10
10711.87400149696
 20
30164.45821636442
 30
0.0
 40
33.23551000867826
100
AcDbArc
 50
332.3956077345239
 51
339.4219933180502
  0
ARC
  5
B664
330
1F
100
AcDbEntity
  8
freecads.com
100
AcDbCircle
 10
10731.06779352192
 20
30157.25213337755
 30
0.0
 40
12.73357633620801
100
AcDbArc
 50
339.42207006377
 51
353.80342700605
  0
ARC
  5
B665
330
1F
100
AcDbEntity
  8
freecads.com
100
AcDbCircle
 10
10735.33823634485
 20
30156.78846107314
 30
0.0
 40
8.438035170123818
100
AcDbArc
 50
353.8035093179106
 51
12.04476688843368
  0
ARC
  5
B666
330
1F
100
AcDbEntity
  8
freecads.com
100
AcDbCircle
 10
10736.26245679105
 20
30156.98566382248
 30
0.0
 40
7.493010113561934
100
AcDbArc
 50
12.04477618295014
 51
31.98526150024136
  0
ARC
  5
B667
330
1F
100
AcDbEntity
  8
freecads.com
100
AcDbCircle
 10
10746.5001508311
 20
30163.37922241128
 30
0.0
 40
4.57711708900696
100
AcDbArc
 50
194.9678865969911
 51
211.9852459666391
  0
ARC
  5
B668
330
1F
100
AcDbEntity
  8
freecads.com
100
AcDbCircle
 10
10745.62871873452
 20
30163.14624889069
 30
0.0
 40
3.675080193834017
100
AcDbArc
 50
174.9066685999539
 51
194.9679256500386
  0
ARC
  5
B669
330
1F
100
AcDbEntity
  8
freecads.com
100
AcDbCircle
 10
10749.44139874255
 20
30162.80643235189
 30
0.0
 40
7.502873830333337
100
AcDbArc
 50
162.0584560187278
 51
174.906735556642
  0
ARC
  5
B66A
330
1F
100
AcDbEntity
  8
freecads.com
100
AcDbCircle
 10
10787.97672696215
 20
30150.32895149328
 30
0.0
 40
48.00792351020771
100
AcDbArc
 50
158.7982650492872
 51
162.0584041705147
  0
ARC
  5
B66B
330
1F
100
AcDbEntity
  8
freecads.com
100
AcDbCircle
 10
10705.64648560445
 20
30182.26571538143
 30
0.0
 40
40.29963862166283
100
AcDbArc
 50
338.798132877228
 51
342.0876014483948
  0
ARC
  5
B66C
330
1F
100
AcDbEntity
  8
freecads.com
100
AcDbCircle
 10
10666.4812914865
 20
30194.92516027119
 30
0.0
 40
81.45998331423525
100
AcDbArc
 50
342.0875533395145
 51
344.0305212641254
  0
ARC
  5
B66D
330
1F
100
AcDbEntity
  8
freecads.com
100
AcDbCircle
 10
10666.49251224836
 20
30194.9219518881
 30
0.0
 40
81.44831287241379
100
AcDbArc
 50
344.0305194711604
 51
345.9734873958071
  0
ARC
  5
B66E
330
1F
100
AcDbEntity
  8
freecads.com
100
AcDbCircle
 10
10706.48531021993
 20
30184.93097949714
 30
0.0
 40
40.22643253064707
100
AcDbArc
 50
345.9734726175637
 51
349.2670656338468
  0
ARC
  5
B66F
330
1F
100
AcDbEntity
  8
freecads.com
100
AcDbCircle
 10
10929.37254622731
 20
30142.68335713542
 30
0.0
 40
186.6294282493497
100
AcDbArc
 50
168.5236178812641
 51
169.2670853082072
  0
ARC
  5
B670
330
1F
100
AcDbEntity
  8
freecads.com
100
AcDbCircle
 10
11248.47355004762
 20
30077.89886611961
 30
0.0
 40
512.2403631321585
100
AcDbArc
 50
168.173696332412
 51
168.5236586817844
  0
ARC
  5
B671
330
1F
100
AcDbEntity
  8
freecads.com
100
AcDbCircle
 10
11277.12141384202
 20
30071.90028794816
 30
0.0
 40
541.5095113954989
100
AcDbArc
 50
167.8269424901329
 51
168.1736962830083
  0
ARC
  5
B672
330
1F
100
AcDbEntity
  8
freecads.com
100
AcDbCircle
 10
11082.89359962922
 20
30113.79819500767
 30
0.0
 40
342.8140700037868
100
AcDbArc
 50
167.3385474151151
 51
167.826935900305
  0
ARC
  5
B673
330
1F
100
AcDbEntity
  8
freecads.com
100
AcDbCircle
 10
10688.19160824573
 20
30202.46915172967
 30
0.0
 40
61.72542197207699
100
AcDbArc
 50
347.3385358578253
 51
349.9744838439625
  0
ARC
  5
B674
330
1F
100
AcDbEntity
  8
freecads.com
100
AcDbCircle
 10
10670.4659514254
 20
30205.60278499703
 30
0.0
 40
79.72593771930478
100
AcDbArc
 50
349.9744968044914
 51
352.1502959562111
  0
ARC
  5
B675
330
1F
100
AcDbEntity
  8
freecads.com
100
AcDbCircle
 10
10677.81989601737
 20
30204.58901684876
 30
0.0
 40
72.30244616140871
100
AcDbArc
 50
352.1502198268848
 51
354.3539767666362
  0
ARC
  5
B676
330
1F
100
AcDbEntity
  8
freecads.com
100
AcDbCircle
 10
10730.01488049365
 20
30199.42894265275
 30
0.0
 40
19.85301556215581
100
AcDbArc
 50
354.3539159363495
 51
0.1194049972245483
  0
ARC
  5
B677
330
1F
100
AcDbEntity
  8
freecads.com
100
AcDbCircle
 10
10774.70662955757
 20
30199.52207800551
 30
0.0
 40
24.83883054634153
100
AcDbArc
 50
174.7980353538032
 51
180.1193984244454
  0
ARC
  5
B678
330
1F
100
AcDbEntity
  8
freecads.com
100
AcDbCircle
 10
10752.95310561097
 20
30201.50255803604
 30
0.0
 40
2.995339404899182
100
AcDbArc
 50
149.5407993792122
 51
174.7980766151434
  0
ARC
  5
B679
330
1F
100
AcDbEntity
  8
freecads.com
100
AcDbCircle
 10
10752.3721362422
 20
30201.84421865297
 30
0.0
 40
2.321353214671289
100
AcDbArc
 50
119.5156915685783
 51
149.5408103028694
  0
ARC
  5
B67A
330
1F
100
AcDbEntity
  8
freecads.com
100
AcDbCircle
 10
10757.19059142303
 20
30193.33308012577
 30
0.0
 40
12.10179233359023
100
AcDbArc
 50
110.6793633949125
 51
119.5157209881769
  0
ARC
  5
B67B
330
1F
100
AcDbEntity
  8
freecads.com
100
AcDbCircle
 10
10747.11570149165
 20
30220.02449847373
 30
0.0
 40
16.42775762002254
100
AcDbArc
 50
290.6794554568678
 51
297.3731362956168
  0
ARC
  5
B67C
330
1F
100
AcDbEntity
  8
freecads.com
100
AcDbCircle
 10
10753.88182176364
 20
30206.95633368059
 30
0.0
 40
1.711871150098488
100
AcDbArc
 50
297.373178418768
 51
332.6226007133202
  0
ARC
  5
B67D
330
1F
100
AcDbEntity
  8
freecads.com
100
AcDbCircle
 10
10753.70170896329
 20
30207.04960466024
 30
0.0
 40
1.914701366029447
100
AcDbArc
 50
332.6226142831068
 51
5.202059097058788
  0
ARC
  5
B67E
330
1F
100
AcDbEntity
  8
freecads.com
100
AcDbCircle
 10
10733.57979225366
 20
30205.2176528735
 30
0.0
 40
22.11983881713846
100
AcDbArc
 50
5.202019830995502
 51
10.62531335717754
  0
ARC
  5
B67F
330
1F
100
AcDbEntity
  8
freecads.com
100
AcDbCircle
 10
10770.10907558268
 20
30212.07059775652
 30
0.0
 40
15.04669712721077
100
AcDbArc
 50
179.5576217164236
 51
190.6252011694717
  0
ARC
  5
B680
330
1F
100
AcDbEntity
  8
freecads.com
100
AcDbCircle
 10
10779.76287448863
 20
30211.99604330123
 30
0.0
 40
24.70078391380897
100
AcDbArc
 50
171.9226527502696
 51
179.5575836710855
  0
ARC
  5
B681
330
1F
100
AcDbEntity
  8
freecads.com
100
AcDbCircle
 10
10781.17005479267
 20
30211.7963213873
 30
0.0
 40
26.12206687320642
100
AcDbArc
 50
165.5687648137287
 51
171.9226134734614
  0
ARC
  5
B682
330
1F
100
AcDbEntity
  8
freecads.com
100
AcDbCircle
 10
10756.68875937259
 20
30218.09627722094
 30
0.0
 40
0.8431573051380294
100
AcDbArc
 50
89.98976809298518
 51
165.5687356474353
  0
ARC
  5
B683
330
1F
100
AcDbEntity
  8
freecads.com
100
AcDbCircle
 10
10756.68877342717
 20
30218.17721922919
 30
0.0
 40
0.7622152956655782
100
AcDbArc
 50
359.8762160993979
 51
89.98973801820353
  0
ARC
  5
B684
330
1F
100
AcDbEntity
  8
freecads.com
100
AcDbCircle
 10
-50764.90543093514
 20
30351.11475643283
 30
0.0
 40
61522.50004701677
100
AcDbArc
 50
359.8374619647905
 51
359.8761939112364
  0
ARC
  5
B685
330
1F
100
AcDbEntity
  8
freecads.com
100
AcDbCircle
 10
-22096.74069696553
 20
30269.74903548643
 30
0.0
 40
32854.21984760962
100
AcDbArc
 50
359.7660247928268
 51
359.8375299232367
  0
ARC
  5
B686
330
1F
100
AcDbEntity
  8
freecads.com
100
AcDbCircle
 10
10752.42966849226
 20
30135.60417476344
 30
0.0
 40
4.775582256684455
100
AcDbArc
 50
327.229966960393
 51
359.7660660996822
  0
ARC
  5
B687
330
1F
100
AcDbEntity
  8
freecads.com
100
AcDbCircle
 10
10760.08281318292
 20
30130.67773057868
 30
0.0
 40
4.326092092675051
100
AcDbArc
 50
147.2300527946159
 51
178.0986274216817
  0
ARC
  5
B688
330
1F
100
AcDbEntity
  8
freecads.com
100
AcDbCircle
 10
10818.4331586538
 20
30128.74063439093
 30
0.0
 40
62.708582260631
100
AcDbArc
 50
178.0986123656288
 51
182.4770814273468
  0
ARC
  5
B689
330
1F
100
AcDbEntity
  8
freecads.com
100
AcDbCircle
 10
10819.87787919507
 20
30128.80311231846
 30
0.0
 40
64.15465312106082
100
AcDbArc
 50
182.4770627371263
 51
186.7570182197262
  0
ARC
  5
B68A
330
1F
100
AcDbEntity
  8
freecads.com
100
AcDbCircle
 10
10760.04855058579
 20
30121.71441748611
 30
0.0
 40
3.906846884951237
100
AcDbArc
 50
186.7570791405472
 51
219.6901636436865
  0
ARC
  5
B68B
330
1F
100
AcDbEntity
  8
freecads.com
100
AcDbCircle
 10
10759.09966512325
 20
30120.92691149112
 30
0.0
 40
2.673741328573082
100
AcDbArc
 50
219.6901430334018
 51
263.4119729835398
  0
ARC
  5
B68C
330
1F
100
AcDbEntity
  8
freecads.com
100
AcDbCircle
 10
10764.26596841848
 20
30165.65913911702
 30
0.0
 40
47.70331914265119
100
AcDbArc
 50
263.4118769520838
 51
268.7758449210397
  0
ARC
  5
B68D
330
1F
100
AcDbEntity
  8
freecads.com
100
AcDbCircle
 10
10764.12630984879
 20
30159.1225717909
 30
0.0
 40
41.16526003274975
100
AcDbArc
 50
268.7758171548646
 51
275.2872196087716
  0
ARC
  5
B68E
330
1F
100
AcDbEntity
  8
freecads.com
100
AcDbCircle
 10
10766.73823126204
 20
30130.89833118383
 30
0.0
 40
12.82042114954975
100
AcDbArc
 50
275.2872751470372
 51
290.8167470354158
  0
ARC
  5
B68F
330
1F
100
AcDbEntity
  8
freecads.com
100
AcDbCircle
 10
10769.41082135011
 20
30123.86888195874
 30
0.0
 40
5.300055853440483
100
AcDbArc
 50
290.8167325417789
 51
313.8676200074576
  0
ARC
  5
B690
330
1F
100
AcDbEntity
  8
freecads.com
100
AcDbCircle
 10
10771.61321312645
 20
30121.5776697757
 30
0.0
 40
2.121977376717885
100
AcDbArc
 50
313.8675882197051
 51
359.4824822700733
  0
ARC
  5
B691
330
1F
100
AcDbEntity
  8
freecads.com
100
AcDbCircle
 10
10769.94000081872
 20
30121.59278685
 30
0.0
 40
3.795257972638898
100
AcDbArc
 50
359.4824285282907
 51
30.80773174107496
  0
ARC
  5
B692
330
1F
100
AcDbEntity
  8
freecads.com
100
AcDbCircle
 10
10756.33686254981
 20
30113.48122989874
 30
0.0
 40
19.63327321876007
100
AcDbArc
 50
30.80765873071726
 51
40.07878491144611
  0
ARC
  5
B693
330
1F
100
AcDbEntity
  8
freecads.com
100
AcDbCircle
 10
10780.34880565464
 20
30133.68596049129
 30
0.0
 40
11.74832250209324
100
AcDbArc
 50
212.1560569598363
 51
220.0787392713437
  0
ARC
  5
B694
330
1F
100
AcDbEntity
  8
freecads.com
100
AcDbCircle
 10
10782.02466090156
 20
30134.7395144764
 30
0.0
 40
13.7278342621355
100
AcDbArc
 50
205.1065660168411
 51
212.1560772730298
  0
ARC
  5
B695
330
1F
100
AcDbEntity
  8
freecads.com
100
AcDbCircle
 10
10780.4230467845
 20
30133.98904242684
 30
0.0
 40
11.95911266812023
100
AcDbArc
 50
197.7582773503838
 51
205.1065775359281
  0
ARC
  5
B696
330
1F
100
AcDbEntity
  8
freecads.com
100
AcDbCircle
 10
10772.51768059949
 20
30131.45726228674
 30
0.0
 40
3.658225655469556
100
AcDbArc
 50
179.9999964621337
 51
197.7583768662283
  0
ARC
  5
B697
330
1F
100
AcDbEntity
  8
freecads.com
100
AcDbCircle
 10
10761.53644722843
 20
30131.45725615506
 30
0.0
 40
7.323007715594743
100
AcDbArc
 50
0.0000497421116132
 51
7.394825985628517
  0
ARC
  5
B698
330
1F
100
AcDbEntity
  8
freecads.com
100
AcDbCircle
 10
10762.90775732839
 20
30131.63522512374
 30
0.0
 40
5.9401974090068
100
AcDbArc
 50
7.394894812028868
 51
16.04611301825235
  0
ARC
  5
B699
330
1F
100
AcDbEntity
  8
freecads.com
100
AcDbCircle
 10
10764.2398494929
 20
30132.01836078009
 30
0.0
 40
4.554101284670273
100
AcDbArc
 50
16.04606639817153
 51
25.47483706887425
  0
ARC
  5
B69A
330
1F
100
AcDbEntity
  8
freecads.com
100
AcDbCircle
 10
10767.58803703295
 20
30133.61356095814
 30
0.0
 40
0.8453247463189587
100
AcDbArc
 50
25.47476104074786
 51
58.28257402737103
  0
ARC
  5
B69B
330
1F
100
AcDbEntity
  8
freecads.com
100
AcDbCircle
 10
10768.89762515758
 20
30135.73251824843
 30
0.0
 40
1.645659206709024
100
AcDbArc
 50
173.1398042097491
 51
238.2824859426197
  0
ARC
  5
B69C
330
1F
100
AcDbEntity
  8
freecads.com
100
AcDbCircle
 10
10906.81652845136
 20
30119.1396831788
 30
0.0
 40
140.5591073008649
100
AcDbArc
 50
170.4126444704112
 51
173.139794849618
  0
ARC
  5
B69D
330
1F
100
AcDbEntity
  8
freecads.com
100
AcDbCircle
 10
10867.3592432423
 20
30125.80443813181
 30
0.0
 40
100.5429066484722
100
AcDbArc
 50
166.0144791825626
 51
170.4126507671749
  0
ARC
  5
B69E
330
1F
100
AcDbEntity
  8
freecads.com
100
AcDbCircle
 10
10875.65711499973
 20
30123.73775174476
 30
0.0
 40
109.0942731079751
100
AcDbArc
 50
161.8774746542904
 51
166.0144680932897
  0
ARC
  5
B69F
330
1F
100
AcDbEntity
  8
freecads.com
100
AcDbCircle
 10
10660.86237323575
 20
30194.03702554818
 30
0.0
 40
116.9118528858652
100
AcDbArc
 50
341.8774502366549
 51
345.0709102907358
  0
ARC
  5
B6A0
330
1F
100
AcDbEntity
  8
freecads.com
100
AcDbCircle
 10
10738.12547237505
 20
30173.43690555929
 30
0.0
 40
36.94966537098307
100
AcDbArc
 50
345.0708932371942
 51
352.6053229240071
  0
ARC
  5
B6A1
330
1F
100
AcDbEntity
  8
freecads.com
100
AcDbCircle
 10
10710.52090369983
 20
30177.01955669232
 30
0.0
 40
64.78574988163877
100
AcDbArc
 50
352.6052778502527
 51
357.7619443597186
  0
ARC
  5
B6A2
330
1F
100
AcDbEntity
  8
freecads.com
100
AcDbCircle
 10
10028.58012460953
 20
30203.67192227491
 30
0.0
 40
747.2471588838685
100
AcDbArc
 50
357.7618508253753
 51
358.6210543094167
  0
LINE
  5
B6A3
330
1F
100
AcDbEntity
  8
freecads.com
100
AcDbLine
 10
10775.61088094402
 20
30185.68955451263
 30
0.0
 11
10776.05020294402
 21
30203.93955451263
 31
0.0
  0
LINE
  5
B6A4
330
1F
100
AcDbEntity
  8
freecads.com
100
AcDbLine
 10
10776.05020294402
 20
30203.93955451263
 30
0.0
 11
10778.70482894402
 21
30203.95486751263
 31
0.0
  0
ARC
  5
B6A5
330
1F
100
AcDbEntity
  8
freecads.com
100
AcDbCircle
 10
10778.64071848902
 20
30215.07044705414
 30
0.0
 40
11.11576442239053
100
AcDbArc
 50
270.330456702685
 51
275.9621855594446
  0
ARC
  5
B6A6
330
1F
100
AcDbEntity
  8
freecads.com
100
AcDbCircle
 10
10778.63178165688
 20
30215.15615468148
 30
0.0
 40
11.20193671581957
100
AcDbArc
 50
275.9621132421989
 51
281.5613176302351
  0
ARC
  5
B6A7
330
1F
100
AcDbEntity
  8
freecads.com
100
AcDbCircle
 10
10778.96827019183
 20
30213.51125593693
 30
0.0
 40
9.522973817488182
100
AcDbArc
 50
281.5613384078271
 51
287.3286597734035
  0
ARC
  5
B6A8
330
1F
100
AcDbEntity
  8
freecads.com
100
AcDbCircle
 10
10781.22248408915
 20
30206.2865390521
 30
0.0
 40
1.954749827620922
100
AcDbArc
 50
287.3286566244312
 51
305.9877454303323
  0
ARC
  5
B6A9
330
1F
100
AcDbEntity
  8
freecads.com
100
AcDbCircle
 10
10781.78030856049
 20
30205.51841062758
 30
0.0
 40
1.005439858555174
100
AcDbArc
 50
305.9878617798661
 51
352.0903408726918
  0
ARC
  5
B6AA
330
1F
100
AcDbEntity
  8
freecads.com
100
AcDbCircle
 10
10705.29812050839
 20
30216.1443913519
 30
0.0
 40
78.22225509714326
100
AcDbArc
 50
352.0902988577624
 51
354.1423496576491
  0
ARC
  5
B6AB
330
1F
100
AcDbEntity
  8
freecads.com
100
AcDbCircle
 10
10722.40064149257
 20
30214.38978242406
 30
0.0
 40
61.0299639030125
100
AcDbArc
 50
354.1423594695379
 51
357.3371943555067
  0
ARC
  5
B6AC
330
1F
100
AcDbEntity
  8
freecads.com
100
AcDbCircle
 10
10679.85809883053
 20
30216.36836537981
 30
0.0
 40
103.6184920140447
100
AcDbArc
 50
357.3371914646442
 51
359.4864077414978
  0
ARC
  5
B6AD
330
1F
100
AcDbEntity
  8
freecads.com
100
AcDbCircle
 10
11010.52936042353
 20
30213.40417538848
 30
0.0
 40
227.066055048272
100
AcDbArc
 50
178.2392018817491
 51
179.4864040982219
  0
ARC
  5
B6AE
330
1F
100
AcDbEntity
  8
freecads.com
100
AcDbCircle
 10
11585.38418831788
 20
30195.73299023596
 30
0.0
 40
802.1924271944392
100
AcDbArc
 50
177.7517771562881
 51
178.2392489131969
  0
ARC
  5
B6AF
330
1F
100
AcDbEntity
  8
freecads.com
100
AcDbCircle
 10
11660.34843050308
 20
30192.79025039852
 30
0.0
 40
877.2144061344734
100
AcDbArc
 50
177.2693659726129
 51
177.751795723691
  0
ARC
  5
B6B0
330
1F
100
AcDbEntity
  8
freecads.com
100
AcDbCircle
 10
11439.48079400697
 20
30203.32433106591
 30
0.0
 40
656.0957056433972
100
AcDbArc
 50
176.6695839216209
 51
177.2693547722548
  0
ARC
  5
B6B1
330
1F
100
AcDbEntity
  8
freecads.com
100
AcDbCircle
 10
10433.7479763458
 20
30261.85007410299
 30
0.0
 40
351.338541897735
100
AcDbArc
 50
356.6696070210679
 51
357.9433936749543
  0
ARC
  5
B6B2
330
1F
100
AcDbEntity
  8
freecads.com
100
AcDbCircle
 10
10651.26428501745
 20
30254.03901270879
 30
0.0
 40
133.6820298926119
100
AcDbArc
 50
357.9434176969766
 51
0.5640124336289658
  0
ARC
  5
B6B3
330
1F
100
AcDbEntity
  8
freecads.com
100
AcDbCircle
 10
10699.14751516923
 20
30254.51040124123
 30
0.0
 40
85.79647949463714
100
AcDbArc
 50
0.5640011995830003
 51
3.872717163598744
  0
ARC
  5
B6B4
330
1F
100
AcDbEntity
  8
freecads.com
100
AcDbCircle
 10
10741.36993105238
 20
30257.36859058493
 30
0.0
 40
43.47743355395602
100
AcDbArc
 50
3.8727804592424
 51
9.375097246015267
  0
ARC
  5
B6B5
330
1F
100
AcDbEntity
  8
freecads.com
100
AcDbCircle
 10
10887.93119799102
 20
30281.56627154895
 30
0.0
 40
105.067955908989
100
AcDbArc
 50
184.490603143966
 51
189.3751307805861
  0
ARC
  5
B6B6
330
1F
100
AcDbEntity
  8
freecads.com
100
AcDbCircle
 10
11159.76527607493
 20
30302.91511945094
 30
0.0
 40
377.7390752349419
100
AcDbArc
 50
182.6058285483124
 51
184.4905880205932
  0
ARC
  5
B6B7
330
1F
100
AcDbEntity
  8
freecads.com
100
AcDbCircle
 10
11470.57616101982
 20
30317.06044857956
 30
0.0
 40
688.871678053037
100
AcDbArc
 50
181.5724327629629
 51
182.6058124391858
  0
ARC
  5
B6B8
330
1F
100
AcDbEntity
  8
freecads.com
100
AcDbCircle
 10
10791.34632916318
 20
30298.41489947115
 30
0.0
 40
9.385974755643433
100
AcDbArc
 50
159.2441555032693
 51
181.572453469352
  0
ARC
  5
B6B9
330
1F
100
AcDbEntity
  8
freecads.com
100
AcDbCircle
 10
10790.16401015539
 20
30298.86299209681
 30
0.0
 40
8.121591412999846
100
AcDbArc
 50
149.1881930556146
 51
159.2442485456312
  0
ARC
  5
B6BA
330
1F
100
AcDbEntity
  8
freecads.com
100
AcDbCircle
 10
10783.57764646763
 20
30302.79109281822
 30
0.0
 40
0.452813028861173
100
AcDbArc
 50
67.61069583957894
 51
149.188212473531
  0
ARC
  5
B6BB
330
1F
100
AcDbEntity
  8
freecads.com
100
AcDbCircle
 10
10782.99203473535
 20
30301.36953503338
 30
0.0
 40
1.99026795068164
100
AcDbArc
 50
39.99612563130663
 51
67.61074038429001
  0
ARC
  5
B6BC
330
1F
100
AcDbEntity
  8
freecads.com
100
AcDbCircle
 10
10663.24279181031
 20
30200.90165872705
 30
0.0
 40
158.3030164730698
100
AcDbArc
 50
38.78608572868574
 51
39.99616134705919
  0
ARC
  5
B6BD
330
1F
100
AcDbEntity
  8
freecads.com
100
AcDbCircle
 10
10751.28425488111
 20
30271.65353768599
 30
0.0
 40
45.35556145148013
100
AcDbArc
 50
36.06313798454703
 51
38.78616365080176
  0
ARC
  5
B6BE
330
1F
100
AcDbEntity
  8
freecads.com
100
AcDbCircle
 10
10743.65894774296
 20
30266.10056663677
 30
0.0
 40
54.78852474116079
100
AcDbArc
 50
33.69989596496046
 51
36.06314851345826
  0
ARC
  5
B6BF
330
1F
100
AcDbEntity
  8
freecads.com
100
AcDbCircle
 10
10748.39050632701
 20
30269.2562268238
 30
0.0
 40
49.1011846036301
100
AcDbArc
 50
31.30994911224286
 51
33.69978404379649
  0
ARC
  5
B6C0
330
1F
100
AcDbEntity
  8
freecads.com
100
AcDbCircle
 10
10780.099788723
 20
30288.54333870084
 30
0.0
 40
11.98688446709298
100
AcDbArc
 50
24.4954974737861
 51
31.30985294887222
  0
ARC
  5
B6C1
330
1F
100
AcDbEntity
  8
freecads.com
100
AcDbCircle
 10
10796.356950014
 20
30295.95061092339
 30
0.0
 40
5.878248474495746
100
AcDbArc
 50
204.4954957695469
 51
216.6317609560406
  0
ARC
  5
B6C2
330
1F
100
AcDbEntity
  8
freecads.com
100
AcDbCircle
 10
10795.0309926308
 20
30294.9647311271
 30
0.0
 40
4.225940405515636
100
AcDbArc
 50
216.6318040080319
 51
232.1740512652046
  0
ARC
  5
B6C3
330
1F
100
AcDbEntity
  8
freecads.com
100
AcDbCircle
 10
10794.58302657026
 20
30294.38775445524
 30
0.0
 40
3.495477763578601
100
AcDbArc
 50
232.1740305512673
 51
249.4056215103771
  0
ARC
  5
B6C4
330
1F
100
AcDbEntity
  8
freecads.com
100
AcDbCircle
 10
10794.32280811727
 20
30293.69526853365
 30
0.0
 40
2.75571402102465
100
AcDbArc
 50
249.4057703206802
 51
270.0000171893858
  0
ARC
  5
B6C5
330
1F
100
AcDbEntity
  8
freecads.com
100
AcDbCircle
 10
10794.32280958526
 20
30289.15060966551
 30
0.0
 40
1.788944847116171
100
AcDbArc
 50
45.24883443291039
 51
90.00002053767515
  0
ARC
  5
B6C6
330
1F
100
AcDbEntity
  8
freecads.com
100
AcDbCircle
 10
10792.83262071897
 20
30287.64742039778
 30
0.0
 40
3.905602786376801
100
AcDbArc
 50
20.26124896570815
 51
45.24883586326964
  0
ARC
  5
B6C7
330
1F
100
AcDbEntity
  8
freecads.com
100
AcDbCircle
 10
10776.61765091395
 20
30281.66178320715
 30
0.0
 40
21.19007843233402
100
AcDbArc
 50
11.79266883263212
 51
20.26125392983048
  0
ARC
  5
B6C8
330
1F
100
AcDbEntity
  8
freecads.com
100
AcDbCircle
 10
10333.44495662999
 20
30189.13764713416
 30
0.0
 40
473.9182007253461
100
AcDbArc
 50
10.90570087941797
 51
11.79263511839581
  0
ARC
  5
B6C9
330
1F
100
AcDbEntity
  8
freecads.com
100
AcDbCircle
 10
10596.91673443151
 20
30239.90163230582
 30
0.0
 40
205.6005533587111
100
AcDbArc
 50
8.981718234519506
 51
10.90566531389606
  0
ARC
  5
B6CA
330
1F
100
AcDbEntity
  8
freecads.com
100
AcDbCircle
 10
10738.61769993011
 20
30262.29851586076
 30
0.0
 40
62.14051008460358
100
AcDbArc
 50
4.290765062716028
 51
8.981717479254893
  0
ARC
  5
B6CB
330
1F
100
AcDbEntity
  8
freecads.com
100
AcDbCircle
 10
10745.95953887211
 20
30262.84935848974
 30
0.0
 40
54.77803586379059
100
AcDbArc
 50
359.218857194557
 51
4.290768171155908
  0
ARC
  5
B6CC
330
1F
100
AcDbEntity
  8
freecads.com
100
AcDbCircle
 10
10668.69992956824
 20
30263.90267308772
 30
0.0
 40
132.044824987101
100
AcDbArc
 50
356.590501895616
 51
359.218887836332
  0
ARC
  5
B6CD
330
1F
100
AcDbEntity
  8
freecads.com
100
AcDbCircle
 10
10951.37375631024
 20
30247.06181906995
 30
0.0
 40
151.1302210339392
100
AcDbArc
 50
176.5905364648065
 51
178.237418004023
  0
ARC
  5
B6CE
330
1F
100
AcDbEntity
  8
freecads.com
100
AcDbCircle
 10
10940.75207243642
 20
30247.38852126388
 30
0.0
 40
140.5035139892689
100
AcDbArc
 50
178.2373551181
 51
179.9768215821232
  0
ARC
  5
B6CF
330
1F
100
AcDbEntity
  8
freecads.com
100
AcDbCircle
 10
10926.06478378974
 20
30247.3943343542
 30
0.0
 40
125.8162241928379
100
AcDbArc
 50
179.9767630636055
 51
181.6504576203657
  0
ARC
  5
B6D0
330
1F
100
AcDbEntity
  8
freecads.com
100
AcDbCircle
 10
10815.99475196905
 20
30244.22278001531
 30
0.0
 40
15.70050932010867
100
AcDbArc
 50
181.6504263602403
 51
189.40302469364
  0
ARC
  5
B6D1
330
1F
100
AcDbEntity
  8
freecads.com
100
AcDbCircle
 10
10873.87263511369
 20
30253.80753445018
 30
0.0
 40
74.36665692570234
100
AcDbArc
 50
189.4030199998519
 51
191.2758627507391
  0
ARC
  5
B6D2
330
1F
100
AcDbEntity
  8
freecads.com
100
AcDbCircle
 10
10802.00402288608
 20
30239.47825127278
 30
0.0
 40
1.083467994678535
100
AcDbArc
 50
191.2758623311814
 51
229.9268459114045
  0
ARC
  5
B6D3
330
1F
100
AcDbEntity
  8
freecads.com
100
AcDbCircle
 10
10801.58587678849
 20
30238.98121348594
 30
0.0
 40
0.4339353007494175
100
AcDbArc
 50
229.9267737677892
 51
305.7001665717117
  0
ARC
  5
B6D4
330
1F
100
AcDbEntity
  8
freecads.com
100
AcDbCircle
 10
10794.1237571665
 20
30249.3657715516
 30
0.0
 40
13.22151816350821
100
AcDbArc
 50
305.7002083958701
 51
312.1447428315051
  0
ARC
  5
B6D5
330
1F
100
AcDbEntity
  8
freecads.com
100
AcDbCircle
 10
10810.52379133886
 20
30231.24393891875
 30
0.0
 40
11.21947074504689
100
AcDbArc
 50
124.7457636827127
 51
132.1446609266419
  0
ARC
  5
B6D6
330
1F
100
AcDbEntity
  8
freecads.com
100
AcDbCircle
 10
10804.3186934673
 20
30240.1899619337
 30
0.0
 40
0.3321125999419888
100
AcDbArc
 50
32.12900790265023
 51
124.7456782462638
  0
ARC
  5
B6D7
330
1F
100
AcDbEntity
  8
freecads.com
100
AcDbCircle
 10
10803.33415520432
 20
30239.57167099933
 30
0.0
 40
1.494695616665385
100
AcDbArc
 50
1.177952780753519
 51
32.1288918846533
  0
ARC
  5
B6D8
330
1F
100
AcDbEntity
  8
freecads.com
100
AcDbCircle
 10
10658.5513619845
 20
30236.59461919425
 30
0.0
 40
146.3080929595349
100
AcDbArc
 50
359.9999699707632
 51
1.177960823476355
  0
ARC
  5
B6D9
330
1F
100
AcDbEntity
  8
freecads.com
100
AcDbCircle
 10
10826.92473418419
 20
30236.59456151585
 30
0.0
 40
22.0652792401745
100
AcDbArc
 50
180.0000493446149
 51
184.6380823881723
  0
ARC
  5
B6DA
330
1F
100
AcDbEntity
  8
freecads.com
100
AcDbCircle
 10
10816.53230382513
 20
30235.75145809301
 30
0.0
 40
11.63870587452543
100
AcDbArc
 50
184.6381031102266
 51
192.1242270700238
  0
ARC
  5
B6DB
330
1F
100
AcDbEntity
  8
freecads.com
100
AcDbCircle
 10
10813.10165995849
 20
30235.01447583146
 30
0.0
 40
8.129794334809758
100
AcDbArc
 50
192.1242373006628
 51
200.1719017456016
  0
ARC
  5
B6DC
330
1F
100
AcDbEntity
  8
freecads.com
100
AcDbCircle
 10
10805.85945497022
 20
30232.35389545689
 30
0.0
 40
0.4143409442605274
100
AcDbArc
 50
200.171972075171
 51
269.999996376673
  0
ARC
  5
B6DD
330
1F
100
AcDbEntity
  8
freecads.com
100
AcDbCircle
 10
10805.85945627438
 20
30233.26513691037
 30
0.0
 40
1.325582397742365
100
AcDbArc
 50
269.9999424977404
 51
286.7699868920691
  0
ARC
  5
B6DE
330
1F
100
AcDbEntity
  8
freecads.com
100
AcDbCircle
 10
10805.9389124787
 20
30233.00146043089
 30
0.0
 40
1.050194354736655
100
AcDbArc
 50
286.7700773064243
 51
306.7389938828072
  0
ARC
  5
B6DF
330
1F
100
AcDbEntity
  8
freecads.com
100
AcDbCircle
 10
10806.0722815716
 20
30232.82279014571
 30
0.0
 40
0.8272360946561448
100
AcDbArc
 50
306.738821013953
 51
329.5476098034117
  0
ARC
  5
B6E0
330
1F
100
AcDbEntity
  8
freecads.com
100
AcDbCircle
 10
10806.29271103269
 20
30232.69319591888
 30
0.0
 40
0.5715335116731862
100
AcDbArc
 50
329.547432614343
 51
359.634949452857
  0
ARC
  5
B6E1
330
1F
100
AcDbEntity
  8
freecads.com
100
AcDbCircle
 10
10807.65659600168
 20
30232.68450744003
 30
0.0
 40
0.7923791315326839
100
AcDbArc
 50
144.5089551734215
 51
179.6350510729513
  0
ARC
  5
B6E2
330
1F
100
AcDbEntity
  8
freecads.com
100
AcDbCircle
 10
10840.89408258411
 20
30208.98420617236
 30
0.0
 40
41.61436823661779
100
AcDbArc
 50
142.4657637109074
 51
144.5088770826534
  0
ARC
  5
B6E3
330
1F
100
AcDbEntity
  8
freecads.com
100
AcDbCircle
 10
10835.53233947103
 20
30213.10353299378
 30
0.0
 40
34.85292292722363
100
AcDbArc
 50
139.5129340207292
 51
142.465795089614
  0
ARC
  5
B6E4
330
1F
100
AcDbEntity
  8
freecads.com
100
AcDbCircle
 10
10851.38975569032
 20
30199.56618482865
 30
0.0
 40
55.70280169175255
100
AcDbArc
 50
137.4347389589014
 51
139.5129145127395
  0
ARC
  5
B6E5
330
1F
100
AcDbEntity
  8
freecads.com
100
AcDbCircle
 10
10755.05714234698
 20
30288.04075781588
 30
0.0
 40
75.09369084084565
100
AcDbArc
 50
317.4347790123765
 51
318.9785331472398
  0
ARC
  5
B6E6
330
1F
100
AcDbEntity
  8
freecads.com
100
AcDbCircle
 10
10775.84679875228
 20
30269.95485709308
 30
0.0
 40
47.53811756785453
100
AcDbArc
 50
318.9785772324253
 51
321.1530014093562
  0
ARC
  5
B6E7
330
1F
100
AcDbEntity
  8
freecads.com
100
AcDbCircle
 10
10765.57966772958
 20
30278.22371758195
 30
0.0
 40
60.72098649771311
100
AcDbArc
 50
321.1530015691597
 51
322.5716269514166
  0
ARC
  5
B6E8
330
1F
100
AcDbEntity
  8
freecads.com
100
AcDbCircle
 10
10813.00371037005
 20
30241.9280732169
 30
0.0
 40
1.001528862533812
100
AcDbArc
 50
322.5716019579033
 51
349.4794279468012
  0
ARC
  5
B6E9
330
1F
100
AcDbEntity
  8
freecads.com
100
AcDbCircle
 10
10795.65991503981
 20
30245.14899229573
 30
0.0
 40
18.6418677529738
100
AcDbArc
 50
349.4794430977287
 51
357.2998013585159
  0
ARC
  5
B6EA
330
1F
100
AcDbEntity
  8
freecads.com
100
AcDbCircle
 10
10790.52677226968
 20
30245.39104442389
 30
0.0
 40
23.7807143093711
100
AcDbArc
 50
357.2998941973357
 51
3.815418616264757
  0
ARC
  5
B6EB
330
1F
100
AcDbEntity
  8
freecads.com
100
AcDbCircle
 10
10791.02270041958
 20
30245.42409218542
 30
0.0
 40
23.28368625812181
100
AcDbArc
 50
3.815481958628978
 51
10.39237735544351
  0
ARC
  5
B6EC
330
1F
100
AcDbEntity
  8
freecads.com
100
AcDbCircle
 10
10797.73064631229
 20
30246.65431029316
 30
0.0
 40
16.46386406893238
100
AcDbArc
 50
10.39237009770118
 51
18.92023204376186
  0
ARC
  5
B6ED
330
1F
100
AcDbEntity
  8
freecads.com
100
AcDbCircle
 10
10823.89681602458
 20
30255.62333088097
 30
0.0
 40
11.19678971432382
100
AcDbArc
 50
187.3851811405408
 51
198.9203011803973
  0
ARC
  5
B6EE
330
1F
100
AcDbEntity
  8
freecads.com
100
AcDbCircle
 10
10986.49608911192
 20
30276.6986331783
 30
0.0
 40
175.1562114486499
100
AcDbArc
 50
185.8345862588496
 51
187.3852155740031
  0
ARC
  5
B6EF
330
1F
100
AcDbEntity
  8
freecads.com
100
AcDbCircle
 10
10992.99033722703
 20
30277.36211127308
 30
0.0
 40
181.6842633588995
100
AcDbArc
 50
184.0565739718499
 51
185.8345409322362
  0
ARC
  5
B6F0
330
1F
100
AcDbEntity
  8
freecads.com
100
AcDbCircle
 10
11043.16350412951
 20
30280.92005635057
 30
0.0
 40
231.9834248840412
100
AcDbArc
 50
182.576229027385
 51
184.0565022022064
  0
ARC
  5
B6F1
330
1F
100
AcDbEntity
  8
freecads.com
100
AcDbCircle
 10
10528.33417932695
 20
30257.7562839069
 30
0.0
 40
283.3667415374481
100
AcDbArc
 50
2.576135971226676
 51
3.816692072912658
  0
ARC
  5
B6F2
330
1F
100
AcDbEntity
  8
freecads.com
100
AcDbCircle
 10
10541.12360070269
 20
30258.60951929304
 30
0.0
 40
270.5488903232143
100
AcDbArc
 50
3.816687744838437
 51
5.101016493877488
  0
ARC
  5
B6F3
330
1F
100
AcDbEntity
  8
freecads.com
100
AcDbCircle
 10
10569.44160909321
 20
30261.13704862168
 30
0.0
 40
242.1183081339977
100
AcDbArc
 50
5.101085317221295
 51
6.343474830137236
  0
ARC
  5
B6F4
330
1F
100
AcDbEntity
  8
freecads.com
100
AcDbCircle
 10
10778.0336744864
 20
30284.32603099423
 30
0.0
 40
32.24125210244658
100
AcDbArc
 50
6.343499339641841
 51
11.83688312745891
  0
ARC
  5
B6F5
330
1F
100
AcDbEntity
  8
freecads.com
100
AcDbCircle
 10
10935.92017300786
 20
30317.41619375203
 30
0.0
 40
129.0755334057814
100
AcDbArc
 50
190.833697698718
 51
191.8368258003255
  0
ARC
  5
B6F6
330
1F
100
AcDbEntity
  8
freecads.com
100
AcDbCircle
 10
10911.76275938999
 20
30312.79326813957
 30
0.0
 40
104.4797599087684
100
AcDbArc
 50
189.6582676530256
 51
190.8337375580688
  0
ARC
  5
B6F7
330
1F
100
AcDbEntity
  8
freecads.com
100
AcDbCircle
 10
10906.90428655634
 20
30311.96648729838
 30
0.0
 40
99.55144124698989
100
AcDbArc
 50
188.6162083806894
 51
189.6582968367201
  0
ARC
  5
B6F8
330
1F
100
AcDbEntity
  8
freecads.com
100
AcDbCircle
 10
10815.54634200791
 20
30298.12344613958
 30
0.0
 40
7.150663000083882
100
AcDbArc
 50
181.4736222098694
 51
188.6160926383348
  0
ARC
  5
B6F9
330
1F
100
AcDbEntity
  8
freecads.com
100
AcDbCircle
 10
10805.85846707956
 20
30297.8742235098
 30
0.0
 40
2.540417050491887
100
AcDbArc
 50
1.473617666858139
 51
18.9016370455854
  0
ARC
  5
B6FA
330
1F
100
AcDbEntity
  8
freecads.com
100
AcDbCircle
 10
10795.8198517104
 20
30294.43692043237
 30
0.0
 40
13.15120641678938
100
AcDbArc
 50
18.90162211529417
 51
24.05599795301536
  0
ARC
  5
B6FB
330
1F
100
AcDbEntity
  8
freecads.com
100
AcDbCircle
 10
10793.79214280877
 20
30293.53178255787
 30
0.0
 40
15.37176444595208
100
AcDbArc
 50
24.05588920016976
 51
29.10031159661462
  0
ARC
  5
B6FC
330
1F
100
AcDbEntity
  8
freecads.com
100
AcDbCircle
 10
10793.827795204
 20
30293.55163993227
 30
0.0
 40
15.33095502952504
100
AcDbArc
 50
29.10026832274181
 51
34.15476988207249
  0
ARC
  5
B6FD
330
1F
100
AcDbEntity
  8
freecads.com
100
AcDbCircle
 10
10819.69833000261
 20
30311.1033903832
 30
0.0
 40
15.93161867543421
100
AcDbArc
 50
207.0145652588749
 51
214.154746080697
  0
ARC
  5
B6FE
330
1F
100
AcDbEntity
  8
freecads.com
100
AcDbCircle
 10
11034.69802976694
 20
30420.72043890798
 30
0.0
 40
257.2628603869626
100
AcDbArc
 50
206.0759110720296
 51
207.0146398739157
  0
ARC
  5
B6FF
330
1F
100
AcDbEntity
  8
freecads.com
100
AcDbCircle
 10
11040.49351492444
 20
30423.55681013005
 30
0.0
 40
263.7151971640122
100
AcDbArc
 50
204.9884869240374
 51
206.0759526577187
  0
ARC
  5
B700
330
1F
100
AcDbEntity
  8
freecads.com
100
AcDbCircle
 10
11105.8016895978
 20
30453.99466980308
 30
0.0
 40
335.7681012042346
100
AcDbArc
 50
204.0811762406271
 51
204.9885074645206
  0
ARC
  5
B701
330
1F
100
AcDbEntity
  8
freecads.com
100
AcDbCircle
 10
10584.59777303503
 20
30221.05436108602
 30
0.0
 40
235.1213014523275
100
AcDbArc
 50
24.08117572828878
 51
26.42494976586088
  0
ARC
  5
B702
330
1F
100
AcDbEntity
  8
freecads.com
100
AcDbCircle
 10
10719.026030707
 20
30287.85811037708
 30
0.0
 40
85.00901887670485
100
AcDbArc
 50
26.42494693227106
 51
31.43225951571618
  0
ARC
  5
B703
330
1F
100
AcDbEntity
  8
freecads.com
100
AcDbCircle
 10
10747.3385319923
 20
30305.16196139848
 30
0.0
 40
51.82738255182447
100
AcDbArc
 50
31.43231749934186
 51
37.5695199133507
  0
ARC
  5
B704
330
1F
100
AcDbEntity
  8
freecads.com
100
AcDbCircle
 10
10782.03079646919
 20
30331.84921173865
 30
0.0
 40
8.057957775466812
100
AcDbArc
 50
37.56952686047209
 51
61.8450802571513
  0
ARC
  5
B705
330
1F
100
AcDbEntity
  8
freecads.com
100
AcDbCircle
 10
10778.35185361865
 20
30324.9750582932
 30
0.0
 40
15.85466259795663
100
AcDbArc
 50
61.84503326336925
 51
72.62884239292109
  0
ARC
  5
B706
330
1F
100
AcDbEntity
  8
freecads.com
100
AcDbCircle
 10
10628.33599697667
 20
29845.42725980186
 30
0.0
 40
518.3194357730668
100
AcDbArc
 50
72.6288683875343
 51
73.49723906627225
  0
ARC
  5
B707
330
1F
100
AcDbEntity
  8
freecads.com
100
AcDbCircle
 10
10586.28090061943
 20
29703.47912777405
 30
0.0
 40
666.3663989822152
100
AcDbArc
 50
73.49718105441792
 51
74.18518670792561
  0
ARC
  5
B708
330
1F
100
AcDbEntity
  8
freecads.com
100
AcDbCircle
 10
10765.52286938456
 20
30336.28233782569
 30
0.0
 40
8.667694392901051
100
AcDbArc
 50
74.18512911053088
 51
89.52752206948124
  0
ARC
  5
B709
330
1F
100
AcDbEntity
  8
freecads.com
100
AcDbCircle
 10
10765.59949383054
 20
30345.57424757271
 30
0.0
 40
0.6245312851898452
100
AcDbArc
 50
199.9491216259914
 51
269.5276252510969
  0
ARC
  5
B70A
330
1F
100
AcDbEntity
  8
freecads.com
100
AcDbCircle
 10
10773.91173201657
 20
30348.59129553006
 30
0.0
 40
9.46737483453629
100
AcDbArc
 50
190.3423369369238
 51
199.949104725607
  0
ARC
  5
B70B
330
1F
100
AcDbEntity
  8
freecads.com
100
AcDbCircle
 10
10785.67424884063
 20
30350.7378837086
 30
0.0
 40
21.42415712931028
100
AcDbArc
 50
183.7539833728224
 51
190.3423284749289
  0
ARC
  5
B70C
330
1F
100
AcDbEntity
  8
freecads.com
100
AcDbCircle
 10
10867.09729025272
 20
30356.08035772766
 30
0.0
 40
103.0222802783019
100
AcDbArc
 50
181.6982885888083
 51
183.7540060239153
  0
ARC
  5
B70D
330
1F
100
AcDbEntity
  8
freecads.com
100
AcDbCircle
 10
10691.62289727747
 20
30350.87761908564
 30
0.0
 40
72.52922521057351
100
AcDbArc
 50
1.698309300247608
 51
4.6621693258644
  0
ARC
  5
B70E
330
1F
100
AcDbEntity
  8
freecads.com
100
AcDbCircle
 10
10731.42823523137
 20
30354.12376855755
 30
0.0
 40
32.59174386762737
100
AcDbArc
 50
4.662145749072146
 51
10.05199715814744
  0
ARC
  5
B70F
330
1F
100
AcDbEntity
  8
freecads.com
100
AcDbCircle
 10
10742.4601838619
 20
30356.07934468864
 30
0.0
 40
21.38780846124221
100
AcDbArc
 50
10.05194104179607
 51
16.67715397069944
  0
ARC
  5
B710
330
1F
100
AcDbEntity
  8
freecads.com
100
AcDbCircle
 10
10755.35241812097
 20
30359.94160872625
 30
0.0
 40
7.929473211788893
100
AcDbArc
 50
16.67707742983378
 51
30.57098819342551
  0
ARC
  5
B711
330
1F
100
AcDbEntity
  8
freecads.com
100
AcDbCircle
 10
10754.40641303954
 20
30359.38278928491
 30
0.0
 40
9.028201923580281
100
AcDbArc
 50
30.57098791210556
 51
54.40998061858563
  0
ARC
  5
B712
330
1F
100
AcDbEntity
  8
freecads.com
100
AcDbCircle
 10
10751.51208067637
 20
30355.33849862639
 30
0.0
 40
14.00147516749856
100
AcDbArc
 50
54.41008016149837
 51
71.57056779184071
  0
ARC
  5
B713
330
1F
100
AcDbEntity
  8
freecads.com
100
AcDbCircle
 10
10750.89616666544
 20
30353.49015023843
 30
0.0
 40
15.94974153330481
100
AcDbArc
 50
71.57058274019201
 51
87.61258958832549
  0
ARC
  5
B714
330
1F
100
AcDbEntity
  8
freecads.com
100
AcDbCircle
 10
10750.89817320036
 20
30353.53836801237
 30
0.0
 40
15.90148202758405
100
AcDbArc
 50
87.61257599744304
 51
103.6910723687582
  0
ARC
  5
B715
330
1F
100
AcDbEntity
  8
freecads.com
100
AcDbCircle
 10
10635.51971940679
 20
30146.43955182002
 30
0.0
 40
20.33973553722439
100
AcDbArc
 50
355.1399914603098
 51
0.0000075849534213
  0
ARC
  5
B716
330
1F
100
AcDbEntity
  8
freecads.com
100
AcDbCircle
 10
10641.89439891137
 20
30145.89751203536
 30
0.0
 40
13.94205268218019
100
AcDbArc
 50
348.690038043488
 51
355.1400685221797
  0
ARC
  5
B717
330
1F
100
AcDbEntity
  8
freecads.com
100
AcDbCircle
 10
10644.46468205345
 20
30145.38344639478
 30
0.0
 40
11.32086613536209
100
AcDbArc
 50
342.2764568870537
 51
348.6900759425791
  0
ARC
  5
B718
330
1F
100
AcDbEntity
  8
freecads.com
100
AcDbCircle
 10
10654.38058048488
 20
30142.21438856746
 30
0.0
 40
0.9108724170547642
100
AcDbArc
 50
301.7175106689407
 51
342.2765106920306
  0
ARC
  5
B719
330
1F
100
AcDbEntity
  8
freecads.com
100
AcDbCircle
 10
10654.70555710964
 20
30141.68856598734
 30
0.0
 40
0.2927306918711716
100
AcDbArc
 50
206.3939059452361
 51
301.7175209332215
  0
ARC
  5
B71A
330
1F
100
AcDbEntity
  8
freecads.com
100
AcDbCircle
 10
10657.7898732349
 20
30143.21922083819
 30
0.0
 40
3.73597193131144
100
AcDbArc
 50
191.3099786027726
 51
206.3938495913255
  0
ARC
  5
B71B
330
1F
100
AcDbEntity
  8
freecads.com
100
AcDbCircle
 10
10665.307191186
 20
30144.72266752098
 30
0.0
 40
11.40215880000475
100
AcDbArc
 50
183.0413182588428
 51
191.3098642784012
  0
ARC
  5
B71C
330
1F
100
AcDbEntity
  8
freecads.com
100
AcDbCircle
 10
10697.62156872435
 20
30146.4395515118
 30
0.0
 40
43.76211378032859
100
AcDbArc
 50
179.9999960710987
 51
183.0413066945166
  0
ARC
  5
B71D
330
1F
100
AcDbEntity
  8
freecads.com
100
AcDbCircle
 10
10697.62156872435
 20
30146.43955751346
 30
0.0
 40
43.76211378032859
100
AcDbArc
 50
176.9586933054834
 51
180.0000039289012
  0
ARC
  5
B71E
330
1F
100
AcDbEntity
  8
freecads.com
100
AcDbCircle
 10
10665.307191186
 20
30148.15644150428
 30
0.0
 40
11.40215880000474
100
AcDbArc
 50
168.6901357215988
 51
176.9586817411572
  0
ARC
  5
B71F
330
1F
100
AcDbEntity
  8
freecads.com
100
AcDbCircle
 10
10657.7898732349
 20
30149.65988818706
 30
0.0
 40
3.735971931311444
100
AcDbArc
 50
153.6061504086745
 51
168.6900213972274
  0
ARC
  5
B720
330
1F
100
AcDbEntity
  8
freecads.com
100
AcDbCircle
 10
10654.70555710964
 20
30151.19054303792
 30
0.0
 40
0.292730691871219
100
AcDbArc
 50
58.28247906677852
 51
153.6060940547639
  0
ARC
  5
B721
330
1F
100
AcDbEntity
  8
freecads.com
100
AcDbCircle
 10
10654.38058048488
 20
30150.66472045779
 30
0.0
 40
0.9108724170548144
100
AcDbArc
 50
17.72348930796937
 51
58.28248933105939
  0
ARC
  5
B722
330
1F
100
AcDbEntity
  8
freecads.com
100
AcDbCircle
 10
10644.46468205345
 20
30147.49566263048
 30
0.0
 40
11.32086613536208
100
AcDbArc
 50
11.30992405742094
 51
17.7235431129463
  0
ARC
  5
B723
330
1F
100
AcDbEntity
  8
freecads.com
100
AcDbCircle
 10
10641.89439891137
 20
30146.98159698989
 30
0.0
 40
13.94205268218019
100
AcDbArc
 50
4.85993147782035
 51
11.30996195651197
  0
ARC
  5
B724
330
1F
100
AcDbEntity
  8
freecads.com
100
AcDbCircle
 10
10635.51971940679
 20
30146.43955720523
 30
0.0
 40
20.33973553722439
100
AcDbArc
 50
359.9999924150466
 51
4.860008539690241
  0
ENDSEC
  0
SECTION
  2
OBJECTS
  0
DICTIONARY
  5
C
330
0
100
AcDbDictionary
281
     1
  3
ACAD_CIP_PREVIOUS_PRODUCT_INFO
350
1A5
  3
ACAD_COLOR
350
73
  3
ACAD_DETAILVIEWSTYLE
350
1AB
  3
ACAD_GROUP
350
D
  3
ACAD_LAYOUT
350
1A
  3
ACAD_MATERIAL
350
72
  3
ACAD_MLEADERSTYLE
350
D7
  3
ACAD_MLINESTYLE
350
17
  3
ACAD_PLOTSETTINGS
350
19
  3
ACAD_PLOTSTYLENAME
350
E
  3
ACAD_SCALELIST
350
B6
  3
ACAD_SECTIONVIEWSTYLE
350
1A8
  3
ACAD_TABLESTYLE
350
86
  3
ACAD_VISUALSTYLE
350
99
  3
ACDB_RECOMPOSE_DATA
350
B77C
  3
AcDbVariableDictionary
350
66
  3
AEC_PROPERTY_SET_DEFS
350
268B
  0
DICTIONARY
  5
18E
330
2
100
AcDbDictionary
280
     1
281
     1
  3
ACAD_LAYERSTATES
360
18F
  0
DICTIONARY
  5
E6
330
10
100
AcDbDictionary
280
     1
281
     1
  0
DICTIONARY
  5
15D
330
1F
100
AcDbDictionary
280
     1
281
     1
  3
ACAD_SORTENTS
360
28E
  0
XRECORD
  5
1A5
102
{ACAD_REACTORS
330
C
102
}
330
C
100
AcDbXrecord
280
     1
300
ACD
300
2022
300

  0
DICTIONARY
  5
73
102
{ACAD_REACTORS
330
C
102
}
330
C
100
AcDbDictionary
281
     1
  0
DICTIONARY
  5
1AB
102
{ACAD_REACTORS
330
C
102
}
330
C
100
AcDbDictionary
281
     1
  3
Imperial24
350
1AC
  3
Metric50
350
224
  0
DICTIONARY
  5
D
102
{ACAD_REACTORS
330
C
102
}
330
C
100
AcDbDictionary
281
     1
  0
DICTIONARY
  5
1A
102
{ACAD_REACTORS
330
C
102
}
330
C
100
AcDbDictionary
281
     1
  3
Layout1
350
59
  3
Layout2
350
5E
  3
Model
350
22
  0
DICTIONARY
  5
72
102
{ACAD_REACTORS
330
C
102
}
330
C
100
AcDbDictionary
281
     1
  3
ByBlock
350
97
  3
ByLayer
350
96
  3
Global
350
98
  0
DICTIONARY
  5
D7
102
{ACAD_REACTORS
330
C
102
}
330
C
100
AcDbDictionary
281
     1
  3
Standard
350
D8
  0
DICTIONARY
  5
17
102
{ACAD_REACTORS
330
C
102
}
330
C
100
AcDbDictionary
281
     1
  3
Standard
350
18
  0
DICTIONARY
  5
19
102
{ACAD_REACTORS
330
C
102
}
330
C
100
AcDbDictionary
281
     1
  0
ACDBDICTIONARYWDFLT
  5
E
102
{ACAD_REACTORS
330
C
102
}
330
C
100
AcDbDictionary
281
     1
  3
Normal
350
F
100
AcDbDictionaryWithDefault
340
F
  0
DICTIONARY
  5
B6
102
{ACAD_REACTORS
330
C
102
}
330
C
100
AcDbDictionary
281
     1
  3
*A1
350
47D1
  3
*A2
350
8BD6
  3
A0
350
B7
  3
A1
350
124
  3
A2
350
125
  3
A3
350
126
  3
A4
350
127
  3
A5
350
128
  3
A6
350
129
  3
A7
350
12A
  3
A8
350
12B
  3
A9
350
12C
  3
B0
350
12D
  3
B1
350
12E
  3
B2
350
12F
  3
B3
350
130
  3
B4
350
131
  3
B5
350
132
  3
B6
350
133
  3
B7
350
134
  3
B8
350
135
  3
B9
350
136
  3
C0
350
137
  3
C1
350
138
  3
C2
350
139
  3
C3
350
13A
  3
C4
350
13B
  3
C5
350
13C
  3
C6
350
13D
  3
C7
350
13E
  3
C8
350
13F
  3
C9
350
140
  3
D0
350
141
  3
D1
350
142
  3
D2
350
143
  0
DICTIONARY
  5
1A8
102
{ACAD_REACTORS
330
C
102
}
330
C
100
AcDbDictionary
281
     1
  3
Imperial24
350
1AA
  3
Metric50
350
223
  0
DICTIONARY
  5
86
102
{ACAD_REACTORS
330
C
102
}
330
C
100
AcDbDictionary
281
     1
  3
Standard
350
87
  0
DICTIONARY
  5
99
102
{ACAD_REACTORS
330
C
102
}
330
C
100
AcDbDictionary
281
     1
  3
2dWireframe
350
9F
  3
3dWireframe
350
2684
  3
Basic
350
9E
  3
Brighten
350
A5
  3
ColorChange
350
A9
  3
Conceptual
350
A2
  3
Dim
350
A4
  3
EdgeColorOff
350
175
  3
Facepattern
350
A8
  3
Flat
350
9A
  3
FlatWithEdges
350
9B
  3
Gouraud
350
9C
  3
GouraudWithEdges
350
9D
  3
Hidden
350
A1
  3
JitterOff
350
173
  3
Linepattern
350
A7
  3
OverhangOff
350
174
  3
Realistic
350
A3
  3
Shaded
350
182
  3
Shaded with edges
350
181
  3
Shades of Gray
350
17E
  3
Sketchy
350
17F
  3
Thicken
350
A6
  3
Wireframe
350
A0
  3
X-Ray
350
180
  0
XRECORD
  5
B77C
102
{ACAD_REACTORS
330
C
102
}
330
C
100
AcDbXrecord
280
     1
 90
        1
330
87
  0
DICTIONARY
  5
66
102
{ACAD_REACTORS
330
C
102
}
330
C
100
AcDbDictionary
281
     1
  3
CANNOSCALE
350
F0
  3
CMLEADERSTYLE
350
EF
  3
CTABLESTYLE
350
89
  3
CVIEWDETAILSTYLE
350
1B7
  3
CVIEWSECTIONSTYLE
350
1B8
  3
DIMASSOC
350
67
  3
HIDETEXT
350
6B
  3
LAYEREVAL
350
14D
  3
LAYERNOTIFY
350
14E
  0
DICTIONARY
  5
268B
102
{ACAD_REACTORS
330
C
102
}
330
C
100
AcDbDictionary
281
     1
  0
DICTIONARY
  5
18F
102
{ACAD_REACTORS
330
18E
102
}
330
18E
100
AcDbDictionary
281
     1
  0
SORTENTSTABLE
  5
28E
102
{ACAD_REACTORS
330
15D
102
}
330
15D
100
AcDbSortentsTable
330
1F
  0
ACDBDETAILVIEWSTYLE
  5
1AC
102
{ACAD_REACTORS
330
1AB
102
}
330
1AB
100
AcDbModelDocViewStyle
 70
     0
  3
Imperial24
290
     0
300
Imperial24
 90
        0
100
AcDbDetailViewStyle
 70
     0
 71
     0
 90
        3
 71
     1
340
11
 62
   256
 40
0.24
340
0
 62
   256
 40
0.24
300

 40
0.36
280
     3
 71
     2
340
16
 90
       25
 62
   256
 71
     3
340
11
 62
   256
 40
0.24
 90
        1
 40
0.75
 90
        1
300
%<\AcVar ViewType \f "%tc1">% %<\AcVar ViewDetailId>%\PSCALE %<\AcVar ViewScale \f "%sn">%
 71
     4
340
16
 90
       25
 62
   256
340
16
 90
       25
 62
   256
280
     0
  0
ACDBDETAILVIEWSTYLE
  5
224
102
{ACAD_REACTORS
330
1AB
102
}
330
1AB
100
AcDbModelDocViewStyle
 70
     0
  3
Metric50
290
     0
300
Metric50
 90
        0
100
AcDbDetailViewStyle
 70
     0
 71
     0
 90
        3
 71
     1
340
11
 62
   256
 40
5.0
340
0
 62
   256
 40
5.0
300

 40
0.0
280
     1
 71
     2
340
16
 90
       25
 62
   256
 71
     3
340
11
 62
   256
 40
5.0
 90
        0
 40
15.0
 90
        1
300
%<\AcVar ViewDetailId>% (%<\AcVar ViewScale \f "%sn">%)
 71
     4
340
16
 90
       25
 62
   256
340
16
 90
       25
 62
   256
280
     0
  0
LAYOUT
  5
59
102
{ACAD_REACTORS
330
1A
102
}
330
1A
100
AcDbPlotSettings
  1

  2
None
  4

  6

 40
0.0
 41
0.0
 42
0.0
 43
0.0
 44
0.0
 45
0.0
 46
0.0
 47
0.0
 48
0.0
 49
0.0
140
0.0
141
0.0
142
1.0
143
1.0
 70
   688
 72
     0
 73
     0
 74
     5
  7

 75
    16
147
1.0
 76
     0
 77
     2
 78
   300
148
0.0
149
0.0
100
AcDbLayout
  1
Layout1
 70
     1
 71
     1
 10
0.0
 20
0.0
 11
12.0
 21
9.0
 12
0.0
 22
0.0
 32
0.0
 14
0.0
 24
0.0
 34
0.0
 15
0.0
 25
0.0
 35
0.0
146
0.0
 13
0.0
 23
0.0
 33
0.0
 16
1.0
 26
0.0
 36
0.0
 17
0.0
 27
1.0
 37
0.0
 76
     0
330
58
  0
LAYOUT
  5
5E
102
{ACAD_REACTORS
330
1A
102
}
330
1A
100
AcDbPlotSettings
  1

  2
None
  4

  6

 40
0.0
 41
0.0
 42
0.0
 43
0.0
 44
0.0
 45
0.0
 46
0.0
 47
0.0
 48
0.0
 49
0.0
140
0.0
141
0.0
142
1.0
143
1.0
 70
   688
 72
     0
 73
     0
 74
     5
  7

 75
    16
147
1.0
 76
     0
 77
     2
 78
   300
148
0.0
149
0.0
100
AcDbLayout
  1
Layout2
 70
     1
 71
     2
 10
0.0
 20
0.0
 11
12.0
 21
9.0
 12
0.0
 22
0.0
 32
0.0
 14
0.0
 24
0.0
 34
0.0
 15
0.0
 25
0.0
 35
0.0
146
0.0
 13
0.0
 23
0.0
 33
0.0
 16
1.0
 26
0.0
 36
0.0
 17
0.0
 27
1.0
 37
0.0
 76
     0
330
5D
  0
LAYOUT
  5
22
102
{ACAD_XDICTIONARY
360
194
102
}
102
{ACAD_REACTORS
330
1A
102
}
330
1A
100
AcDbPlotSettings
  1

  2
none_device
  4
ANSI_A_(8.50_x_11.00_Inches)
  6

 40
6.349999904632568
 41
19.04999923706055
 42
6.350006103515625
 43
19.04998779296875
 44
215.8999938964844
 45
279.3999938964844
 46
0.0
 47
0.0
 48
0.0
 49
0.0
140
0.0
141
0.0
142
1.0
143
2.584895464708373
 70
 11952
 72
     0
 73
     1
 74
     0
  7

 75
     0
147
0.3868628397755418
 76
     0
 77
     2
 78
   300
148
0.0
149
0.0
100
AcDbLayout
  1
Model
 70
     1
 71
     0
 10
0.0
 20
0.0
 11
12.0
 21
9.0
 12
0.0
 22
0.0
 32
0.0
 14
0.0
 24
0.0
 34
0.0
 15
0.0
 25
0.0
 35
0.0
146
0.0
 13
0.0
 23
0.0
 33
0.0
 16
1.0
 26
0.0
 36
0.0
 17
0.0
 27
1.0
 37
0.0
 76
     0
330
1F
331
94
  0
MATERIAL
  5
97
102
{ACAD_XDICTIONARY
360
188
102
}
102
{ACAD_REACTORS
330
72
102
}
330
72
100
AcDbMaterial
  1
ByBlock
 94
       63
  0
MATERIAL
  5
96
102
{ACAD_XDICTIONARY
360
186
102
}
102
{ACAD_REACTORS
330
72
102
}
330
72
100
AcDbMaterial
  1
ByLayer
 94
       63
  0
MATERIAL
  5
98
102
{ACAD_XDICTIONARY
360
110
102
}
102
{ACAD_REACTORS
330
72
102
}
330
72
100
AcDbMaterial
  1
Global
 43
0.0208000000566244
 43
0.0
 43
0.0
 43
0.0
 43
0.0
 43
0.0208000000566244
 43
0.0
 43
0.0
 43
0.0
 43
0.0
 43
1.0
 43
0.0
 43
0.0
 43
0.0
 43
0.0
 43
1.0
 49
0.0208000000566244
 49
0.0
 49
0.0
 49
0.0
 49
0.0
 49
0.0208000000566244
 49
0.0
 49
0.0
 49
0.0
 49
0.0
 49
1.0
 49
0.0
 49
0.0
 49
0.0
 49
0.0
 49
1.0
142
0.0208000000566244
142
0.0
142
0.0
142
0.0
142
0.0
142
0.0208000000566244
142
0.0
142
0.0
142
0.0
142
0.0
142
1.0
142
0.0
142
0.0
142
0.0
142
0.0
142
1.0
144
0.0208000000566244
144
0.0
144
0.0
144
0.0
144
0.0
144
0.0208000000566244
144
0.0
144
0.0
144
0.0
144
0.0
144
1.0
144
0.0
144
0.0
144
0.0
144
0.0
144
1.0
 94
       63
1001
ACAD
1070
    -1
1070
     3
1070
     0
1000

1071
        0
1070
     0
  0
MLEADERSTYLE
  5
D8
102
{ACAD_REACTORS
330
D7
102
}
330
D7
100
AcDbMLeaderStyle
179
     2
170
     2
171
     1
172
     0
 90
        2
 40
0.0
 41
0.0
173
     1
 91
-1056964608
340
14
 92
       -2
290
     1
 42
0.09
291
     1
 43
0.36
  3
Standard
 44
0.18
300

342
11
174
     1
178
     1
175
     1
176
     0
 93
-1056964608
 45
0.18
292
     0
297
     0
 46
0.18
 94
-1056964608
 47
1.0
 49
1.0
140
1.0
293
     1
141
0.0
294
     1
177
     0
142
1.0
295
     0
296
     0
143
0.125
271
     0
272
     9
273
     9
298
     0
  0
MLINESTYLE
  5
18
102
{ACAD_REACTORS
330
17
102
}
330
17
100
AcDbMlineStyle
  2
STANDARD
 70
     0
  3

 62
   256
 51
90.0
 52
90.0
 71
     2
 49
0.5
 62
   256
  6
BYLAYER
 49
-0.5
 62
   256
  6
BYLAYER
  0
ACDBPLACEHOLDER
  5
F
102
{ACAD_REACTORS
330
E
102
}
330
E
  0
SCALE
  5
47D1
102
{ACAD_REACTORS
330
B6
102
}
330
B6
100
AcDbScale
 70
     0
300
1:100_1_XREF_XREF_XREF_XREF
140
1.0
141
0.1
290
     0
  0
SCALE
  5
8BD6
102
{ACAD_REACTORS
330
B6
102
}
330
B6
100
AcDbScale
 70
     0
300
1:100_1_XREF_XREF_XREF_XREF_XREF_XREF_XREF_XREF_XREF
140
1.0
141
0.1
290
     0
1001
ACAD
1000
AcRTDxfName
1000
SCALE
1000
AcRTDxfName
1000
SCALE
1000
AcRTDxfName
1000
SCALE
1000
AcRTDxfName
1000
SCALE
  0
SCALE
  5
B7
102
{ACAD_REACTORS
330
B6
102
}
330
B6
100
AcDbScale
 70
     0
300
1:1
140
1.0
141
1.0
290
     1
  0
SCALE
  5
124
102
{ACAD_REACTORS
330
B6
102
}
330
B6
100
AcDbScale
 70
     0
300
1:2
140
1.0
141
2.0
290
     0
  0
SCALE
  5
125
102
{ACAD_REACTORS
330
B6
102
}
330
B6
100
AcDbScale
 70
     0
300
1:4
140
1.0
141
4.0
290
     0
  0
SCALE
  5
126
102
{ACAD_REACTORS
330
B6
102
}
330
B6
100
AcDbScale
 70
     0
300
1:5
140
1.0
141
5.0
290
     0
  0
SCALE
  5
127
102
{ACAD_REACTORS
330
B6
102
}
330
B6
100
AcDbScale
 70
     0
300
1:8
140
1.0
141
8.0
290
     0
  0
SCALE
  5
128
102
{ACAD_REACTORS
330
B6
102
}
330
B6
100
AcDbScale
 70
     0
300
1:10
140
1.0
141
10.0
290
     0
  0
SCALE
  5
129
102
{ACAD_REACTORS
330
B6
102
}
330
B6
100
AcDbScale
 70
     0
300
1:16
140
1.0
141
16.0
290
     0
  0
SCALE
  5
12A
102
{ACAD_REACTORS
330
B6
102
}
330
B6
100
AcDbScale
 70
     0
300
1:20
140
1.0
141
20.0
290
     0
  0
SCALE
  5
12B
102
{ACAD_REACTORS
330
B6
102
}
330
B6
100
AcDbScale
 70
     0
300
1:30
140
1.0
141
30.0
290
     0
  0
SCALE
  5
12C
102
{ACAD_REACTORS
330
B6
102
}
330
B6
100
AcDbScale
 70
     0
300
1:40
140
1.0
141
40.0
290
     0
  0
SCALE
  5
12D
102
{ACAD_REACTORS
330
B6
102
}
330
B6
100
AcDbScale
 70
     0
300
1:50
140
1.0
141
50.0
290
     0
  0
SCALE
  5
12E
102
{ACAD_REACTORS
330
B6
102
}
330
B6
100
AcDbScale
 70
     0
300
1:100
140
1.0
141
100.0
290
     0
  0
SCALE
  5
12F
102
{ACAD_REACTORS
330
B6
102
}
330
B6
100
AcDbScale
 70
     0
300
2:1
140
2.0
141
1.0
290
     0
  0
SCALE
  5
130
102
{ACAD_REACTORS
330
B6
102
}
330
B6
100
AcDbScale
 70
     0
300
4:1
140
4.0
141
1.0
290
     0
  0
SCALE
  5
131
102
{ACAD_REACTORS
330
B6
102
}
330
B6
100
AcDbScale
 70
     0
300
8:1
140
8.0
141
1.0
290
     0
  0
SCALE
  5
132
102
{ACAD_REACTORS
330
B6
102
}
330
B6
100
AcDbScale
 70
     0
300
10:1
140
10.0
141
1.0
290
     0
  0
SCALE
  5
133
102
{ACAD_REACTORS
330
B6
102
}
330
B6
100
AcDbScale
 70
     0
300
100:1
140
100.0
141
1.0
290
     0
  0
SCALE
  5
134
102
{ACAD_REACTORS
330
B6
102
}
330
B6
100
AcDbScale
 70
     0
300
1/128" = 1'-0"
140
0.0078125
141
12.0
290
     0
  0
SCALE
  5
135
102
{ACAD_REACTORS
330
B6
102
}
330
B6
100
AcDbScale
 70
     0
300
1/64" = 1'-0"
140
0.015625
141
12.0
290
     0
  0
SCALE
  5
136
102
{ACAD_REACTORS
330
B6
102
}
330
B6
100
AcDbScale
 70
     0
300
1/32" = 1'-0"
140
0.03125
141
12.0
290
     0
  0
SCALE
  5
137
102
{ACAD_REACTORS
330
B6
102
}
330
B6
100
AcDbScale
 70
     0
300
1/16" = 1'-0"
140
0.0625
141
12.0
290
     0
  0
SCALE
  5
138
102
{ACAD_REACTORS
330
B6
102
}
330
B6
100
AcDbScale
 70
     0
300
3/32" = 1'-0"
140
0.09375
141
12.0
290
     0
  0
SCALE
  5
139
102
{ACAD_REACTORS
330
B6
102
}
330
B6
100
AcDbScale
 70
     0
300
1/8" = 1'-0"
140
0.125
141
12.0
290
     0
  0
SCALE
  5
13A
102
{ACAD_REACTORS
330
B6
102
}
330
B6
100
AcDbScale
 70
     0
300
3/16" = 1'-0"
140
0.1875
141
12.0
290
     0
  0
SCALE
  5
13B
102
{ACAD_REACTORS
330
B6
102
}
330
B6
100
AcDbScale
 70
     0
300
1/4" = 1'-0"
140
0.25
141
12.0
290
     0
  0
SCALE
  5
13C
102
{ACAD_REACTORS
330
B6
102
}
330
B6
100
AcDbScale
 70
     0
300
3/8" = 1'-0"
140
0.375
141
12.0
290
     0
  0
SCALE
  5
13D
102
{ACAD_REACTORS
330
B6
102
}
330
B6
100
AcDbScale
 70
     0
300
1/2" = 1'-0"
140
0.5
141
12.0
290
     0
  0
SCALE
  5
13E
102
{ACAD_REACTORS
330
B6
102
}
330
B6
100
AcDbScale
 70
     0
300
3/4" = 1'-0"
140
0.75
141
12.0
290
     0
  0
SCALE
  5
13F
102
{ACAD_REACTORS
330
B6
102
}
330
B6
100
AcDbScale
 70
     0
300
1" = 1'-0"
140
1.0
141
12.0
290
     0
  0
SCALE
  5
140
102
{ACAD_REACTORS
330
B6
102
}
330
B6
100
AcDbScale
 70
     0
300
1-1/2" = 1'-0"
140
1.5
141
12.0
290
     0
  0
SCALE
  5
141
102
{ACAD_REACTORS
330
B6
102
}
330
B6
100
AcDbScale
 70
     0
300
3" = 1'-0"
140
3.0
141
12.0
290
     0
  0
SCALE
  5
142
102
{ACAD_REACTORS
330
B6
102
}
330
B6
100
AcDbScale
 70
     0
300
6" = 1'-0"
140
6.0
141
12.0
290
     0
  0
SCALE
  5
143
102
{ACAD_REACTORS
330
B6
102
}
330
B6
100
AcDbScale
 70
     0
300
1'-0" = 1'-0"
140
12.0
141
12.0
290
     0
  0
ACDBSECTIONVIEWSTYLE
  5
1AA
102
{ACAD_REACTORS
330
1A8
102
}
330
1A8
100
AcDbModelDocViewStyle
 70
     0
  3
Imperial24
290
     0
300
Imperial24
 90
        0
100
AcDbSectionViewStyle
 70
     0
 71
     0
 90
       78
 71
     1
340
11
 62
   256
 40
0.24
340
0
340
0
 62
   256
 40
0.24
300
I, O, Q, S, X, Z
 40
0.48
 90
        3
 40
0.18
 90
        1
 71
     2
340
16
 90
       25
 62
   256
340
16
 90
       50
 62
   256
 40
0.24
 40
0.0
 40
0.24
 71
     3
340
11
 62
   256
 40
0.24
 90
        1
 40
0.75
 90
        1
300
%<\AcVar ViewType \f "%tc1">% %<\AcVar ViewSectionStartId>%-%<\AcVar ViewSectionEndId>%\PSCALE %<\AcVar ViewScale \f "%sn">%
 71
     4
 62
   256
 62
   257
300
ANSI31
 40
1.0
 90
        0
290
     0
290
     0
 90
        6
 40
0.0
 40
1.570796326794896
 40
0.2617993877991494
 40
1.308996938995747
 40
-0.2617993877991494
 40
1.832595714594046
  0
ACDBSECTIONVIEWSTYLE
  5
223
102
{ACAD_REACTORS
330
1A8
102
}
330
1A8
100
AcDbModelDocViewStyle
 70
     0
  3
Metric50
290
     0
300
Metric50
 90
        0
100
AcDbSectionViewStyle
 70
     0
 71
     0
 90
      102
 71
     1
340
11
 62
   256
 40
5.0
340
0
340
0
 62
   256
 40
5.0
300
I, O, Q, S, X, Z
 40
10.0
 90
        0
 40
2.5
 90
        0
 71
     2
340
16
 90
       25
 62
   256
340
16
 90
       50
 62
   256
 40
5.0
 40
2.5
 40
5.0
 71
     3
340
11
 62
   256
 40
5.0
 90
        0
 40
15.0
 90
        1
300
%<\AcVar ViewSectionStartId>%-%<\AcVar ViewSectionEndId>% (%<\AcVar ViewScale \f "%sn">%)
 71
     4
 62
   256
 62
   257
300
ANSI31
 40
1.0
 90
        0
290
     0
290
     0
 90
        6
 40
0.0
 40
1.570796326794896
 40
0.2617993877991494
 40
1.308996938995747
 40
-0.2617993877991494
 40
1.832595714594046
  0
TABLESTYLE
  5
87
102
{ACAD_XDICTIONARY
360
104
102
}
102
{ACAD_REACTORS
330
86
102
}
330
86
100
AcDbTableStyle
280
     0
  3
Standard
 70
     0
 71
     0
 40
0.06
 41
0.06
280
     0
281
     0
  7
Standard
140
0.18
170
     2
 62
     0
 63
     7
283
     0
 90
      512
 91
        0
  1

274
    -2
284
     1
 64
     0
275
    -2
285
     1
 65
     0
276
    -2
286
     1
 66
     0
277
    -2
287
     1
 67
     0
278
    -2
288
     1
 68
     0
279
    -2
289
     1
 69
     0
  7
Standard
140
0.25
170
     5
 62
     0
 63
     7
283
     0
 90
      512
 91
        0
  1

274
    -2
284
     1
 64
     0
275
    -2
285
     1
 65
     0
276
    -2
286
     1
 66
     0
277
    -2
287
     1
 67
     0
278
    -2
288
     1
 68
     0
279
    -2
289
     1
 69
     0
  7
Standard
140
0.18
170
     5
 62
     0
 63
     7
283
     0
 90
      512
 91
        0
  1

274
    -2
284
     1
 64
     0
275
    -2
285
     1
 65
     0
276
    -2
286
     1
 66
     0
277
    -2
287
     1
 67
     0
278
    -2
288
     1
 68
     0
279
    -2
289
     1
 69
     0
  0
VISUALSTYLE
  5
9F
102
{ACAD_REACTORS
330
99
102
}
330
99
100
AcDbVisualStyle
  2
2dWireframe
 70
     4
177
     3
291
     0
 70
    58
 90
        0
176
     1
 90
        2
176
     1
 90
        1
176
     1
 90
        0
176
     1
 40
0.6
176
     1
 40
30.0
176
     1
 62
     7
420
 16777215
176
     1
 90
        1
176
     1
 90
        4
176
     1
 62
     7
176
     1
 62
   257
176
     1
 90
        1
176
     1
 90
        1
176
     1
 40
1.0
176
     1
 90
        0
176
     1
 62
   257
176
     1
 40
1.0
176
     1
 90
        1
176
     1
 90
        6
176
     1
 90
        2
176
     1
 62
     7
176
     1
 90
        5
176
     1
 90
        0
176
     1
 90
        0
176
     1
290
     0
176
     1
 90
        1
176
     1
 40
0.0
176
     1
 90
        0
176
     1
290
     1
176
     1
290
     1
176
     1
290
     0
176
     1
290
     0
176
     1
290
     0
176
     1
290
     0
176
     1
290
     0
176
     1
290
     0
176
     1
290
     0
176
     1
 90
       50
176
     1
 40
0.0
176
     1
 40
1.0
176
     1
 90
        0
176
     1
 62
    18
420
        0
176
     1
 90
       50
176
     1
 90
        3
176
     1
 62
     5
420
      255
176
     1
290
     0
176
     1
 90
       50
176
     1
 90
       50
176
     1
 90
       50
176
     1
290
     0
176
     1
 90
       50
176
     1
 62
   256
176
     0
 40
1.0
176
     0
 90
        2
176
     1
  1
strokes_ogs.tif
176
     1
290
     0
176
     1
 40
1.0
176
     1
 40
1.0
176
     1
  0
VISUALSTYLE
  5
2684
102
{ACAD_REACTORS
330
99
102
}
330
99
100
AcDbVisualStyle
  2
3dWireframe
 70
     5
177
     3
291
     0
 70
    58
 90
        0
176
     1
 90
        2
176
     1
 90
        0
176
     1
 90
        0
176
     1
 40
0.6
176
     1
 40
30.0
176
     1
 62
     7
176
     1
 90
        1
176
     1
 90
        4
176
     1
 62
     7
176
     1
 62
   257
176
     1
 90
        1
176
     1
 90
        1
176
     1
 40
1.0
176
     1
 90
        0
176
     1
 62
   257
176
     1
 40
1.0
176
     1
 90
        1
176
     1
 90
        6
176
     1
 90
        2
176
     1
 62
     7
176
     1
 90
        5
176
     1
 90
        0
176
     1
 90
        0
176
     1
290
     0
176
     1
 90
        1
176
     1
 40
0.0
176
     1
 90
        0
176
     1
290
     0
176
     1
290
     1
176
     1
290
     1
176
     1
290
     0
176
     1
290
     0
176
     1
290
     0
176
     1
290
     0
176
     1
290
     0
176
     1
290
     0
176
     1
 90
       50
176
     1
 40
0.0
176
     1
 40
1.0
176
     1
 90
        0
176
     1
 62
    18
420
        0
176
     1
 90
       50
176
     1
 90
        3
176
     1
 62
     5
420
      255
176
     1
290
     0
176
     1
 90
       50
176
     1
 90
       50
176
     1
 90
       50
176
     1
290
     0
176
     1
 90
       50
176
     1
 62
   256
176
     0
 40
1.0
176
     0
 90
        2
176
     1
  1
strokes_ogs.tif
176
     1
290
     0
176
     1
 40
1.0
176
     1
 40
1.0
176
     1
1001
ACAD
1000
AcRTDxfName
1000
VISUALSTYLE
  0
VISUALSTYLE
  5
9E
102
{ACAD_REACTORS
330
99
102
}
330
99
100
AcDbVisualStyle
  2
Basic
 70
     7
177
     3
291
     1
 70
    58
 90
        1
176
     1
 90
        0
176
     1
 90
        1
176
     1
 90
        0
176
     1
 40
0.6
176
     1
 40
30.0
176
     1
 62
     7
420
 16777215
176
     1
 90
        0
176
     1
 90
        4
176
     1
 62
     7
176
     1
 62
   257
176
     1
 90
        1
176
     1
 90
        1
176
     1
 40
1.0
176
     1
 90
        8
176
     1
 62
     7
176
     1
 40
1.0
176
     1
 90
        1
176
     1
 90
        6
176
     1
 90
        2
176
     1
 62
     7
176
     1
 90
        5
176
     1
 90
        0
176
     1
 90
        0
176
     1
290
     0
176
     1
 90
        1
176
     1
 40
0.0
176
     1
 90
        0
176
     1
290
     0
176
     1
290
     1
176
     1
290
     1
176
     1
290
     0
176
     1
290
     0
176
     1
290
     0
176
     1
290
     0
176
     1
290
     0
176
     1
290
     0
176
     1
 90
       50
176
     1
 40
0.0
176
     1
 40
1.0
176
     1
 90
        0
176
     1
 62
    18
420
        0
176
     1
 90
       50
176
     1
 90
        3
176
     1
 62
     5
420
      255
176
     1
290
     0
176
     1
 90
       50
176
     1
 90
       50
176
     1
 90
       50
176
     1
290
     0
176
     1
 90
       50
176
     1
 62
   256
176
     0
 40
1.0
176
     0
 90
        2
176
     1
  1
strokes_ogs.tif
176
     1
290
     0
176
     1
 40
1.0
176
     1
 40
1.0
176
     1
  0
VISUALSTYLE
  5
A5
102
{ACAD_REACTORS
330
99
102
}
330
99
100
AcDbVisualStyle
  2
Brighten
 70
    12
177
     3
291
     1
 70
    58
 90
        2
176
     1
 90
        2
176
     1
 90
        1
176
     1
 90
        0
176
     1
 40
0.6
176
     1
 40
30.0
176
     1
 62
     7
420
 16777215
176
     1
 90
        1
176
     1
 90
        4
176
     1
 62
     7
176
     1
 62
   257
176
     1
 90
        1
176
     1
 90
        1
176
     1
 40
1.0
176
     1
 90
        8
176
     1
 62
     7
176
     1
 40
1.0
176
     1
 90
        1
176
     1
 90
        6
176
     1
 90
        2
176
     1
 62
     7
176
     1
 90
        5
176
     1
 90
        0
176
     1
 90
        0
176
     1
290
     0
176
     1
 90
        1
176
     1
 40
50.0
176
     1
 90
        0
176
     1
290
     0
176
     1
290
     1
176
     1
290
     1
176
     1
290
     0
176
     1
290
     0
176
     1
290
     0
176
     1
290
     0
176
     1
290
     0
176
     1
290
     0
176
     1
 90
       50
176
     1
 40
0.0
176
     1
 40
1.0
176
     1
 90
        0
176
     1
 62
    18
420
        0
176
     1
 90
       50
176
     1
 90
        3
176
     1
 62
     5
420
      255
176
     1
290
     0
176
     1
 90
       50
176
     1
 90
       50
176
     1
 90
       50
176
     1
290
     0
176
     1
 90
       50
176
     1
 62
   256
176
     0
 40
1.0
176
     0
 90
        2
176
     1
  1
strokes_ogs.tif
176
     1
290
     0
176
     1
 40
1.0
176
     1
 40
1.0
176
     1
  0
VISUALSTYLE
  5
A9
102
{ACAD_REACTORS
330
99
102
}
330
99
100
AcDbVisualStyle
  2
ColorChange
 70
    16
177
     3
291
     1
 70
    58
 90
        2
176
     1
 90
        2
176
     1
 90
        3
176
     1
 90
        0
176
     1
 40
0.6
176
     1
 40
30.0
176
     1
 62
     8
420
  8421504
176
     1
 90
        1
176
     1
 90
        4
176
     1
 62
     7
176
     1
 62
   257
176
     1
 90
        1
176
     1
 90
        1
176
     1
 40
1.0
176
     1
 90
        8
176
     1
 62
     8
420
  8421504
176
     1
 40
1.0
176
     1
 90
        1
176
     1
 90
        6
176
     1
 90
        2
176
     1
 62
     7
176
     1
 90
        5
176
     1
 90
        0
176
     1
 90
        0
176
     1
290
     0
176
     1
 90
        1
176
     1
 40
0.0
176
     1
 90
        0
176
     1
290
     0
176
     1
290
     1
176
     1
290
     1
176
     1
290
     0
176
     1
290
     0
176
     1
290
     0
176
     1
290
     0
176
     1
290
     0
176
     1
290
     0
176
     1
 90
       50
176
     1
 40
0.0
176
     1
 40
1.0
176
     1
 90
        0
176
     1
 62
    18
420
        0
176
     1
 90
       50
176
     1
 90
        3
176
     1
 62
     5
420
      255
176
     1
290
     0
176
     1
 90
       50
176
     1
 90
       50
176
     1
 90
       50
176
     1
290
     0
176
     1
 90
       50
176
     1
 62
   256
176
     0
 40
1.0
176
     0
 90
        2
176
     1
  1
strokes_ogs.tif
176
     1
290
     0
176
     1
 40
1.0
176
     1
 40
1.0
176
     1
  0
VISUALSTYLE
  5
A2
102
{ACAD_REACTORS
330
99
102
}
330
99
100
AcDbVisualStyle
  2
Conceptual
 70
     9
177
     3
291
     0
 70
    58
 90
        3
176
     1
 90
        2
176
     1
 90
        1
176
     1
 90
        0
176
     1
 40
0.6
176
     1
 40
30.0
176
     1
 62
     7
420
 16777215
176
     1
 90
        2
176
     1
 90
        2
176
     1
 62
     7
176
     1
 62
   257
176
     1
 90
        1
176
     1
 90
        1
176
     1
 40
40.0
176
     1
 90
        8
176
     1
 62
     7
176
     1
 40
1.0
176
     1
 90
        1
176
     1
 90
        6
176
     1
 90
        2
176
     1
 62
     7
176
     1
 90
        3
176
     1
 90
        0
176
     1
 90
        0
176
     1
290
     0
176
     1
 90
        1
176
     1
 40
0.0
176
     1
 90
        0
176
     1
290
     0
176
     1
290
     1
176
     1
290
     1
176
     1
290
     0
176
     1
290
     0
176
     1
290
     0
176
     1
290
     0
176
     1
290
     0
176
     1
290
     0
176
     1
 90
       50
176
     1
 40
0.0
176
     1
 40
1.0
176
     1
 90
        0
176
     1
 62
    18
420
        0
176
     1
 90
       50
176
     1
 90
        3
176
     1
 62
     5
420
      255
176
     1
290
     0
176
     1
 90
       50
176
     1
 90
       50
176
     1
 90
       50
176
     1
290
     0
176
     1
 90
       50
176
     1
 62
   256
176
     0
 40
1.0
176
     0
 90
        2
176
     1
  1
strokes_ogs.tif
176
     1
290
     0
176
     1
 40
1.0
176
     1
 40
1.0
176
     1
  0
VISUALSTYLE
  5
A4
102
{ACAD_REACTORS
330
99
102
}
330
99
100
AcDbVisualStyle
  2
Dim
 70
    11
177
     3
291
     1
 70
    58
 90
        2
176
     1
 90
        2
176
     1
 90
        1
176
     1
 90
        0
176
     1
 40
0.6
176
     1
 40
30.0
176
     1
 62
     7
420
 16777215
176
     1
 90
        1
176
     1
 90
        4
176
     1
 62
     7
176
     1
 62
   257
176
     1
 90
        1
176
     1
 90
        1
176
     1
 40
1.0
176
     1
 90
        8
176
     1
 62
     7
176
     1
 40
1.0
176
     1
 90
        1
176
     1
 90
        6
176
     1
 90
        2
176
     1
 62
     7
176
     1
 90
        5
176
     1
 90
        0
176
     1
 90
        0
176
     1
290
     0
176
     1
 90
        1
176
     1
 40
-50.0
176
     1
 90
        0
176
     1
290
     0
176
     1
290
     1
176
     1
290
     1
176
     1
290
     0
176
     1
290
     0
176
     1
290
     0
176
     1
290
     0
176
     1
290
     0
176
     1
290
     0
176
     1
 90
       50
176
     1
 40
0.0
176
     1
 40
1.0
176
     1
 90
        0
176
     1
 62
    18
420
        0
176
     1
 90
       50
176
     1
 90
        3
176
     1
 62
     5
420
      255
176
     1
290
     0
176
     1
 90
       50
176
     1
 90
       50
176
     1
 90
       50
176
     1
290
     0
176
     1
 90
       50
176
     1
 62
   256
176
     0
 40
1.0
176
     0
 90
        2
176
     1
  1
strokes_ogs.tif
176
     1
290
     0
176
     1
 40
1.0
176
     1
 40
1.0
176
     1
  0
VISUALSTYLE
  5
175
102
{ACAD_REACTORS
330
99
102
}
330
99
100
AcDbVisualStyle
  2
EdgeColorOff
 70
    22
177
     3
291
     1
 70
    58
 90
        2
176
     0
 90
        2
176
     0
 90
        0
176
     0
 90
        0
176
     0
 40
0.6
176
     0
 40
30.0
176
     0
 62
     7
420
 16777215
176
     0
 90
        1
176
     0
 90
        4
176
     0
 62
     7
176
     0
 62
   257
176
     0
 90
        1
176
     0
 90
        1
176
     0
 40
1.0
176
     0
 90
        8
176
     2
 62
     7
176
     0
 40
1.0
176
     0
 90
        1
176
     0
 90
        6
176
     0
 90
        2
176
     0
 62
     7
176
     0
 90
        5
176
     0
 90
        0
176
     0
 90
        0
176
     0
290
     0
176
     0
 90
        1
176
     0
 40
0.0
176
     0
 90
        0
176
     0
290
     0
176
     1
290
     1
176
     1
290
     1
176
     1
290
     0
176
     1
290
     0
176
     1
290
     0
176
     1
290
     0
176
     1
290
     0
176
     1
290
     0
176
     1
 90
       50
176
     1
 40
0.0
176
     1
 40
1.0
176
     1
 90
        0
176
     1
 62
    18
420
        0
176
     1
 90
       50
176
     1
 90
        3
176
     1
 62
     5
420
      255
176
     1
290
     0
176
     1
 90
       50
176
     1
 90
       50
176
     1
 90
       50
176
     1
290
     0
176
     1
 90
       50
176
     1
 62
   256
176
     0
 40
1.0
176
     0
 90
        2
176
     1
  1
strokes_ogs.tif
176
     1
290
     0
176
     1
 40
1.0
176
     1
 40
1.0
176
     1
  0
VISUALSTYLE
  5
A8
102
{ACAD_REACTORS
330
99
102
}
330
99
100
AcDbVisualStyle
  2
Facepattern
 70
    15
177
     3
291
     1
 70
    58
 90
        2
176
     1
 90
        2
176
     1
 90
        1
176
     1
 90
        0
176
     1
 40
0.6
176
     1
 40
30.0
176
     1
 62
     7
420
 16777215
176
     1
 90
        1
176
     1
 90
        4
176
     1
 62
     7
176
     1
 62
   257
176
     1
 90
        1
176
     1
 90
        1
176
     1
 40
1.0
176
     1
 90
        8
176
     1
 62
     7
176
     1
 40
1.0
176
     1
 90
        1
176
     1
 90
        6
176
     1
 90
        2
176
     1
 62
     7
176
     1
 90
        5
176
     1
 90
        0
176
     1
 90
        0
176
     1
290
     0
176
     1
 90
        1
176
     1
 40
0.0
176
     1
 90
        0
176
     1
290
     0
176
     1
290
     1
176
     1
290
     1
176
     1
290
     0
176
     1
290
     0
176
     1
290
     0
176
     1
290
     0
176
     1
290
     0
176
     1
290
     0
176
     1
 90
       50
176
     1
 40
0.0
176
     1
 40
1.0
176
     1
 90
        0
176
     1
 62
    18
420
        0
176
     1
 90
       50
176
     1
 90
        3
176
     1
 62
     5
420
      255
176
     1
290
     0
176
     1
 90
       50
176
     1
 90
       50
176
     1
 90
       50
176
     1
290
     0
176
     1
 90
       50
176
     1
 62
   256
176
     0
 40
1.0
176
     0
 90
        2
176
     1
  1
strokes_ogs.tif
176
     1
290
     0
176
     1
 40
1.0
176
     1
 40
1.0
176
     1
  0
VISUALSTYLE
  5
9A
102
{ACAD_REACTORS
330
99
102
}
330
99
100
AcDbVisualStyle
  2
Flat
 70
     0
177
     3
291
     1
 70
    58
 90
        2
176
     1
 90
        1
176
     1
 90
        1
176
     1
 90
        2
176
     1
 40
0.6
176
     1
 40
30.0
176
     1
 62
     7
420
 16777215
176
     1
 90
        0
176
     1
 90
        0
176
     1
 62
     7
176
     1
 62
   257
176
     1
 90
        1
176
     1
 90
        1
176
     1
 40
1.0
176
     1
 90
        8
176
     1
 62
     7
176
     1
 40
1.0
176
     1
 90
        1
176
     1
 90
        6
176
     1
 90
        2
176
     1
 62
     7
176
     1
 90
        5
176
     1
 90
        0
176
     1
 90
        0
176
     1
290
     0
176
     1
 90
       13
176
     1
 40
0.0
176
     1
 90
        0
176
     1
290
     0
176
     1
290
     1
176
     1
290
     1
176
     1
290
     0
176
     1
290
     0
176
     1
290
     0
176
     1
290
     0
176
     1
290
     0
176
     1
290
     0
176
     1
 90
       50
176
     1
 40
0.0
176
     1
 40
1.0
176
     1
 90
        0
176
     1
 62
    18
420
        0
176
     1
 90
       50
176
     1
 90
        3
176
     1
 62
     5
420
      255
176
     1
290
     0
176
     1
 90
       50
176
     1
 90
       50
176
     1
 90
       50
176
     1
290
     0
176
     1
 90
       50
176
     1
 62
   256
176
     0
 40
1.0
176
     0
 90
        2
176
     1
  1
strokes_ogs.tif
176
     1
290
     0
176
     1
 40
1.0
176
     1
 40
1.0
176
     1
  0
VISUALSTYLE
  5
9B
102
{ACAD_REACTORS
330
99
102
}
330
99
100
AcDbVisualStyle
  2
FlatWithEdges
 70
     1
177
     3
291
     1
 70
    58
 90
        2
176
     1
 90
        1
176
     1
 90
        1
176
     1
 90
        2
176
     1
 40
0.6
176
     1
 40
30.0
176
     1
 62
     7
420
 16777215
176
     1
 90
        1
176
     1
 90
        0
176
     1
 62
     7
176
     1
 62
   257
176
     1
 90
        1
176
     1
 90
        1
176
     1
 40
1.0
176
     1
 90
        0
176
     1
 62
   257
176
     1
 40
1.0
176
     1
 90
        1
176
     1
 90
        6
176
     1
 90
        2
176
     1
 62
     7
176
     1
 90
        5
176
     1
 90
        0
176
     1
 90
        0
176
     1
290
     0
176
     1
 90
       13
176
     1
 40
0.0
176
     1
 90
        0
176
     1
290
     0
176
     1
290
     1
176
     1
290
     1
176
     1
290
     0
176
     1
290
     0
176
     1
290
     0
176
     1
290
     0
176
     1
290
     0
176
     1
290
     0
176
     1
 90
       50
176
     1
 40
0.0
176
     1
 40
1.0
176
     1
 90
        0
176
     1
 62
    18
420
        0
176
     1
 90
       50
176
     1
 90
        3
176
     1
 62
     5
420
      255
176
     1
290
     0
176
     1
 90
       50
176
     1
 90
       50
176
     1
 90
       50
176
     1
290
     0
176
     1
 90
       50
176
     1
 62
   256
176
     0
 40
1.0
176
     0
 90
        2
176
     1
  1
strokes_ogs.tif
176
     1
290
     0
176
     1
 40
1.0
176
     1
 40
1.0
176
     1
  0
VISUALSTYLE
  5
9C
102
{ACAD_REACTORS
330
99
102
}
330
99
100
AcDbVisualStyle
  2
Gouraud
 70
     2
177
     3
291
     1
 70
    58
 90
        2
176
     1
 90
        2
176
     1
 90
        1
176
     1
 90
        2
176
     1
 40
0.6
176
     1
 40
30.0
176
     1
 62
     7
420
 16777215
176
     1
 90
        0
176
     1
 90
        0
176
     1
 62
     7
176
     1
 62
   257
176
     1
 90
        1
176
     1
 90
        1
176
     1
 40
1.0
176
     1
 90
        0
176
     1
 62
     7
176
     1
 40
1.0
176
     1
 90
        1
176
     1
 90
        6
176
     1
 90
        2
176
     1
 62
     7
176
     1
 90
        5
176
     1
 90
        0
176
     1
 90
        0
176
     1
290
     0
176
     1
 90
       13
176
     1
 40
0.0
176
     1
 90
        0
176
     1
290
     0
176
     1
290
     1
176
     1
290
     1
176
     1
290
     0
176
     1
290
     0
176
     1
290
     0
176
     1
290
     0
176
     1
290
     0
176
     1
290
     0
176
     1
 90
       50
176
     1
 40
0.0
176
     1
 40
1.0
176
     1
 90
        0
176
     1
 62
    18
420
        0
176
     1
 90
       50
176
     1
 90
        3
176
     1
 62
     5
420
      255
176
     1
290
     0
176
     1
 90
       50
176
     1
 90
       50
176
     1
 90
       50
176
     1
290
     0
176
     1
 90
       50
176
     1
 62
   256
176
     0
 40
1.0
176
     0
 90
        2
176
     1
  1
strokes_ogs.tif
176
     1
290
     0
176
     1
 40
1.0
176
     1
 40
1.0
176
     1
  0
VISUALSTYLE
  5
9D
102
{ACAD_REACTORS
330
99
102
}
330
99
100
AcDbVisualStyle
  2
GouraudWithEdges
 70
     3
177
     3
291
     1
 70
    58
 90
        2
176
     1
 90
        2
176
     1
 90
        1
176
     1
 90
        2
176
     1
 40
0.6
176
     1
 40
30.0
176
     1
 62
     7
420
 16777215
176
     1
 90
        1
176
     1
 90
        0
176
     1
 62
     7
176
     1
 62
   257
176
     1
 90
        1
176
     1
 90
        1
176
     1
 40
1.0
176
     1
 90
        0
176
     1
 62
   257
176
     1
 40
1.0
176
     1
 90
        1
176
     1
 90
        6
176
     1
 90
        2
176
     1
 62
     7
176
     1
 90
        5
176
     1
 90
        0
176
     1
 90
        0
176
     1
290
     0
176
     1
 90
       13
176
     1
 40
0.0
176
     1
 90
        0
176
     1
290
     0
176
     1
290
     1
176
     1
290
     1
176
     1
290
     0
176
     1
290
     0
176
     1
290
     0
176
     1
290
     0
176
     1
290
     0
176
     1
290
     0
176
     1
 90
       50
176
     1
 40
0.0
176
     1
 40
1.0
176
     1
 90
        0
176
     1
 62
    18
420
        0
176
     1
 90
       50
176
     1
 90
        3
176
     1
 62
     5
420
      255
176
     1
290
     0
176
     1
 90
       50
176
     1
 90
       50
176
     1
 90
       50
176
     1
290
     0
176
     1
 90
       50
176
     1
 62
   256
176
     0
 40
1.0
176
     0
 90
        2
176
     1
  1
strokes_ogs.tif
176
     1
290
     0
176
     1
 40
1.0
176
     1
 40
1.0
176
     1
  0
VISUALSTYLE
  5
A1
102
{ACAD_REACTORS
330
99
102
}
330
99
100
AcDbVisualStyle
  2
Hidden
 70
     6
177
     3
291
     0
 70
    58
 90
        1
176
     1
 90
        2
176
     1
 90
        2
176
     1
 90
        0
176
     1
 40
0.6
176
     1
 40
30.0
176
     1
 62
     7
420
 16777215
176
     1
 90
        2
176
     1
 90
        2
176
     1
 62
     7
176
     1
 62
   257
176
     1
 90
        2
176
     1
 90
        1
176
     1
 40
40.0
176
     1
 90
        0
176
     1
 62
   257
176
     1
 40
1.0
176
     1
 90
        1
176
     1
 90
        6
176
     1
 90
        2
176
     1
 62
     7
176
     1
 90
        3
176
     1
 90
        0
176
     1
 90
        0
176
     1
290
     0
176
     1
 90
        1
176
     1
 40
0.0
176
     1
 90
        0
176
     1
290
     0
176
     1
290
     1
176
     1
290
     1
176
     1
290
     0
176
     1
290
     0
176
     1
290
     0
176
     1
290
     0
176
     1
290
     0
176
     1
290
     0
176
     1
 90
       50
176
     1
 40
0.0
176
     1
 40
1.0
176
     1
 90
        0
176
     1
 62
    18
420
        0
176
     1
 90
       50
176
     1
 90
        3
176
     1
 62
     5
420
      255
176
     1
290
     0
176
     1
 90
       50
176
     1
 90
       50
176
     1
 90
       50
176
     1
290
     0
176
     1
 90
       50
176
     1
 62
   256
176
     0
 40
1.0
176
     0
 90
        2
176
     1
  1
strokes_ogs.tif
176
     1
290
     0
176
     1
 40
1.0
176
     1
 40
1.0
176
     1
  0
VISUALSTYLE
  5
173
102
{ACAD_REACTORS
330
99
102
}
330
99
100
AcDbVisualStyle
  2
JitterOff
 70
    20
177
     3
291
     1
 70
    58
 90
        2
176
     0
 90
        2
176
     0
 90
        0
176
     0
 90
        0
176
     0
 40
0.6
176
     0
 40
30.0
176
     0
 62
     7
420
 16777215
176
     0
 90
        1
176
     0
 90
        4
176
     0
 62
     7
176
     0
 62
   257
176
     0
 90
        1
176
     0
 90
        1
176
     0
 40
1.0
176
     0
 90
       10
176
     2
 62
     7
176
     0
 40
1.0
176
     0
 90
        1
176
     0
 90
        6
176
     0
 90
        2
176
     0
 62
     7
176
     0
 90
        5
176
     0
 90
        0
176
     0
 90
        0
176
     0
290
     0
176
     0
 90
        1
176
     0
 40
0.0
176
     0
 90
        0
176
     0
290
     0
176
     1
290
     1
176
     1
290
     1
176
     1
290
     0
176
     1
290
     0
176
     1
290
     0
176
     1
290
     0
176
     1
290
     0
176
     1
290
     0
176
     1
 90
       50
176
     1
 40
0.0
176
     1
 40
1.0
176
     1
 90
        0
176
     1
 62
    18
420
        0
176
     1
 90
       50
176
     1
 90
        3
176
     1
 62
     5
420
      255
176
     1
290
     0
176
     1
 90
       50
176
     1
 90
       50
176
     1
 90
       50
176
     1
290
     0
176
     1
 90
       50
176
     1
 62
   256
176
     0
 40
1.0
176
     0
 90
        2
176
     1
  1
strokes_ogs.tif
176
     1
290
     0
176
     1
 40
1.0
176
     1
 40
1.0
176
     1
  0
VISUALSTYLE
  5
A7
102
{ACAD_REACTORS
330
99
102
}
330
99
100
AcDbVisualStyle
  2
Linepattern
 70
    14
177
     3
291
     1
 70
    58
 90
        2
176
     1
 90
        2
176
     1
 90
        1
176
     1
 90
        0
176
     1
 40
0.6
176
     1
 40
30.0
176
     1
 62
     7
420
 16777215
176
     1
 90
        1
176
     1
 90
        4
176
     1
 62
     7
176
     1
 62
   257
176
     1
 90
        7
176
     1
 90
        7
176
     1
 40
1.0
176
     1
 90
        8
176
     1
 62
     7
176
     1
 40
1.0
176
     1
 90
        1
176
     1
 90
        6
176
     1
 90
        2
176
     1
 62
     7
176
     1
 90
        5
176
     1
 90
        0
176
     1
 90
        0
176
     1
290
     0
176
     1
 90
        1
176
     1
 40
0.0
176
     1
 90
        0
176
     1
290
     0
176
     1
290
     1
176
     1
290
     1
176
     1
290
     0
176
     1
290
     0
176
     1
290
     0
176
     1
290
     0
176
     1
290
     0
176
     1
290
     0
176
     1
 90
       50
176
     1
 40
0.0
176
     1
 40
1.0
176
     1
 90
        0
176
     1
 62
    18
420
        0
176
     1
 90
       50
176
     1
 90
        3
176
     1
 62
     5
420
      255
176
     1
290
     0
176
     1
 90
       50
176
     1
 90
       50
176
     1
 90
       50
176
     1
290
     0
176
     1
 90
       50
176
     1
 62
   256
176
     0
 40
1.0
176
     0
 90
        2
176
     1
  1
strokes_ogs.tif
176
     1
290
     0
176
     1
 40
1.0
176
     1
 40
1.0
176
     1
  0
VISUALSTYLE
  5
174
102
{ACAD_REACTORS
330
99
102
}
330
99
100
AcDbVisualStyle
  2
OverhangOff
 70
    21
177
     3
291
     1
 70
    58
 90
        2
176
     0
 90
        2
176
     0
 90
        0
176
     0
 90
        0
176
     0
 40
0.6
176
     0
 40
30.0
176
     0
 62
     7
420
 16777215
176
     0
 90
        1
176
     0
 90
        4
176
     0
 62
     7
176
     0
 62
   257
176
     0
 90
        1
176
     0
 90
        1
176
     0
 40
1.0
176
     0
 90
        9
176
     2
 62
     7
176
     0
 40
1.0
176
     0
 90
        1
176
     0
 90
        6
176
     0
 90
        2
176
     0
 62
     7
176
     0
 90
        5
176
     0
 90
        0
176
     0
 90
        0
176
     0
290
     0
176
     0
 90
        1
176
     0
 40
0.0
176
     0
 90
        0
176
     0
290
     0
176
     1
290
     1
176
     1
290
     1
176
     1
290
     0
176
     1
290
     0
176
     1
290
     0
176
     1
290
     0
176
     1
290
     0
176
     1
290
     0
176
     1
 90
       50
176
     1
 40
0.0
176
     1
 40
1.0
176
     1
 90
        0
176
     1
 62
    18
420
        0
176
     1
 90
       50
176
     1
 90
        3
176
     1
 62
     5
420
      255
176
     1
290
     0
176
     1
 90
       50
176
     1
 90
       50
176
     1
 90
       50
176
     1
290
     0
176
     1
 90
       50
176
     1
 62
   256
176
     0
 40
1.0
176
     0
 90
        2
176
     1
  1
strokes_ogs.tif
176
     1
290
     0
176
     1
 40
1.0
176
     1
 40
1.0
176
     1
  0
VISUALSTYLE
  5
A3
102
{ACAD_REACTORS
330
99
102
}
330
99
100
AcDbVisualStyle
  2
Realistic
 70
     8
177
     3
291
     0
 70
    58
 90
        2
176
     1
 90
        2
176
     1
 90
        0
176
     1
 90
        2
176
     1
 40
0.6
176
     1
 40
30.0
176
     1
 62
     7
420
 16777215
176
     1
 90
        0
176
     1
 90
        0
176
     1
 62
     7
176
     1
 62
   257
176
     1
 90
        1
176
     1
 90
        1
176
     1
 40
1.0
176
     1
 90
        8
176
     1
 62
   257
176
     1
 40
1.0
176
     1
 90
        1
176
     1
 90
        6
176
     1
 90
        2
176
     1
 62
     7
176
     1
 90
        3
176
     1
 90
        0
176
     1
 90
        0
176
     1
290
     0
176
     1
 90
       13
176
     1
 40
0.0
176
     1
 90
        0
176
     1
290
     0
176
     1
290
     1
176
     1
290
     1
176
     1
290
     0
176
     1
290
     0
176
     1
290
     0
176
     1
290
     0
176
     1
290
     0
176
     1
290
     0
176
     1
 90
       50
176
     1
 40
0.0
176
     1
 40
1.0
176
     1
 90
        0
176
     1
 62
    18
420
        0
176
     1
 90
       50
176
     1
 90
        3
176
     1
 62
     5
420
      255
176
     1
290
     0
176
     1
 90
       50
176
     1
 90
       50
176
     1
 90
       50
176
     1
290
     0
176
     1
 90
       50
176
     1
 62
   256
176
     0
 40
1.0
176
     0
 90
        2
176
     1
  1
strokes_ogs.tif
176
     1
290
     0
176
     1
 40
1.0
176
     1
 40
1.0
176
     1
  0
VISUALSTYLE
  5
182
102
{ACAD_REACTORS
330
99
102
}
330
99
100
AcDbVisualStyle
  2
Shaded
 70
    27
177
     3
291
     0
 70
    58
 90
        2
176
     1
 90
        2
176
     1
 90
        1
176
     1
 90
        2
176
     1
 40
0.6
176
     1
 40
30.0
176
     1
 62
     7
420
 16777215
176
     1
 90
        0
176
     1
 90
        4
176
     1
 62
     7
176
     1
 62
   257
176
     1
 90
        1
176
     1
 90
        1
176
     1
 40
1.0
176
     1
 90
        8
176
     1
 62
   257
176
     1
 40
1.0
176
     1
 90
        1
176
     1
 90
        6
176
     1
 90
        2
176
     1
 62
     8
420
  7895160
176
     1
 90
        3
176
     1
 90
        0
176
     1
 90
        0
176
     1
290
     0
176
     1
 90
        5
176
     1
 40
0.0
176
     1
 90
        0
176
     1
290
     0
176
     1
290
     1
176
     1
290
     1
176
     1
290
     0
176
     1
290
     0
176
     1
290
     0
176
     1
290
     0
176
     1
290
     0
176
     1
290
     0
176
     1
 90
       50
176
     1
 40
0.0
176
     1
 40
1.0
176
     1
 90
        0
176
     1
 62
    18
420
        0
176
     1
 90
       50
176
     1
 90
        3
176
     1
 62
     5
420
      255
176
     1
290
     0
176
     1
 90
       50
176
     1
 90
       50
176
     1
 90
       50
176
     1
290
     0
176
     1
 90
       50
176
     1
 62
   256
176
     0
 40
1.0
176
     0
 90
        2
176
     1
  1
strokes_ogs.tif
176
     1
290
     0
176
     1
 40
1.0
176
     1
 40
1.0
176
     1
  0
VISUALSTYLE
  5
181
102
{ACAD_REACTORS
330
99
102
}
330
99
100
AcDbVisualStyle
  2
Shaded with edges
 70
    26
177
     3
291
     0
 70
    58
 90
        2
176
     1
 90
        2
176
     1
 90
        1
176
     1
 90
        2
176
     1
 40
0.6
176
     1
 40
30.0
176
     1
 62
     7
420
 16777215
176
     1
 90
        1
176
     1
 90
        2
176
     1
 62
     7
176
     1
 62
   257
176
     1
 90
        2
176
     1
 90
        1
176
     1
 40
1.0
176
     1
 90
        8
176
     1
 62
   257
176
     1
 40
1.0
176
     1
 90
        1
176
     1
 90
        6
176
     1
 90
        2
176
     1
 62
     7
176
     1
 90
        3
176
     1
 90
        0
176
     1
 90
        0
176
     1
290
     0
176
     1
 90
        5
176
     1
 40
0.0
176
     1
 90
        0
176
     1
290
     0
176
     1
290
     1
176
     1
290
     1
176
     1
290
     0
176
     1
290
     0
176
     1
290
     0
176
     1
290
     0
176
     1
290
     0
176
     1
290
     0
176
     1
 90
       50
176
     1
 40
0.0
176
     1
 40
1.0
176
     1
 90
        0
176
     1
 62
    18
420
        0
176
     1
 90
       50
176
     1
 90
        3
176
     1
 62
     5
420
      255
176
     1
290
     0
176
     1
 90
       50
176
     1
 90
       50
176
     1
 90
       50
176
     1
290
     0
176
     1
 90
       50
176
     1
 62
   256
176
     0
 40
1.0
176
     0
 90
        2
176
     1
  1
strokes_ogs.tif
176
     1
290
     0
176
     1
 40
1.0
176
     1
 40
1.0
176
     1
  0
VISUALSTYLE
  5
17E
102
{ACAD_REACTORS
330
99
102
}
330
99
100
AcDbVisualStyle
  2
Shades of Gray
 70
    23
177
     3
291
     0
 70
    58
 90
        2
176
     1
 90
        2
176
     1
 90
        3
176
     1
 90
        0
176
     1
 40
0.6
176
     1
 40
30.0
176
     1
 62
     7
420
 16777215
176
     1
 90
        2
176
     1
 90
        2
176
     1
 62
     7
176
     1
 62
     7
176
     1
 90
        1
176
     1
 90
        1
176
     1
 40
40.0
176
     1
 90
        8
176
     1
 62
     7
176
     1
 40
1.0
176
     1
 90
        1
176
     1
 90
        6
176
     1
 90
        2
176
     1
 62
     7
176
     1
 90
        3
176
     1
 90
        0
176
     1
 90
        0
176
     1
290
     0
176
     1
 90
        1
176
     1
 40
0.0
176
     1
 90
        0
176
     1
290
     0
176
     1
290
     1
176
     1
290
     1
176
     1
290
     0
176
     1
290
     0
176
     1
290
     0
176
     1
290
     0
176
     1
290
     0
176
     1
290
     0
176
     1
 90
       50
176
     1
 40
0.0
176
     1
 40
1.0
176
     1
 90
        0
176
     1
 62
    18
420
        0
176
     1
 90
       50
176
     1
 90
        3
176
     1
 62
     5
420
      255
176
     1
290
     0
176
     1
 90
       50
176
     1
 90
       50
176
     1
 90
       50
176
     1
290
     0
176
     1
 90
       50
176
     1
 62
   256
176
     0
 40
1.0
176
     0
 90
        2
176
     1
  1
strokes_ogs.tif
176
     1
290
     0
176
     1
 40
1.0
176
     1
 40
1.0
176
     1
  0
VISUALSTYLE
  5
17F
102
{ACAD_REACTORS
330
99
102
}
330
99
100
AcDbVisualStyle
  2
Sketchy
 70
    24
177
     3
291
     0
 70
    58
 90
        1
176
     1
 90
        2
176
     1
 90
        2
176
     1
 90
        0
176
     1
 40
0.6
176
     1
 40
30.0
176
     1
 62
     7
420
 16777215
176
     1
 90
        2
176
     1
 90
        2
176
     1
 62
     7
176
     1
 62
     7
176
     1
 90
        1
176
     1
 90
        1
176
     1
 40
40.0
176
     1
 90
       11
176
     1
 62
     7
176
     1
 40
1.0
176
     1
 90
        1
176
     1
 90
        6
176
     1
 90
        2
176
     1
 62
     7
176
     1
 90
        6
176
     1
 90
        0
176
     1
 90
        0
176
     1
290
     0
176
     1
 90
        1
176
     1
 40
0.0
176
     1
 90
        0
176
     1
290
     0
176
     1
290
     1
176
     1
290
     1
176
     1
290
     0
176
     1
290
     0
176
     1
290
     0
176
     1
290
     0
176
     1
290
     0
176
     1
290
     0
176
     1
 90
       50
176
     1
 40
0.0
176
     1
 40
1.0
176
     1
 90
        0
176
     1
 62
    18
420
        0
176
     1
 90
       50
176
     1
 90
        3
176
     1
 62
     5
420
      255
176
     1
290
     0
176
     1
 90
       50
176
     1
 90
       50
176
     1
 90
       50
176
     1
290
     0
176
     1
 90
       50
176
     1
 62
   256
176
     0
 40
1.0
176
     0
 90
        2
176
     1
  1
strokes_ogs.tif
176
     1
290
     0
176
     1
 40
1.0
176
     1
 40
1.0
176
     1
  0
VISUALSTYLE
  5
A6
102
{ACAD_REACTORS
330
99
102
}
330
99
100
AcDbVisualStyle
  2
Thicken
 70
    13
177
     3
291
     1
 70
    58
 90
        2
176
     1
 90
        2
176
     1
 90
        1
176
     1
 90
        0
176
     1
 40
0.6
176
     1
 40
30.0
176
     1
 62
     7
420
 16777215
176
     1
 90
        1
176
     1
 90
        4
176
     1
 62
     7
176
     1
 62
   257
176
     1
 90
        1
176
     1
 90
        1
176
     1
 40
1.0
176
     1
 90
       12
176
     1
 62
     7
176
     1
 40
1.0
176
     1
 90
        1
176
     1
 90
        6
176
     1
 90
        2
176
     1
 62
     7
176
     1
 90
        5
176
     1
 90
        0
176
     1
 90
        0
176
     1
290
     0
176
     1
 90
        1
176
     1
 40
0.0
176
     1
 90
        0
176
     1
290
     0
176
     1
290
     1
176
     1
290
     1
176
     1
290
     0
176
     1
290
     0
176
     1
290
     0
176
     1
290
     0
176
     1
290
     0
176
     1
290
     0
176
     1
 90
       50
176
     1
 40
0.0
176
     1
 40
1.0
176
     1
 90
        0
176
     1
 62
    18
420
        0
176
     1
 90
       50
176
     1
 90
        3
176
     1
 62
     5
420
      255
176
     1
290
     0
176
     1
 90
       50
176
     1
 90
       50
176
     1
 90
       50
176
     1
290
     0
176
     1
 90
       50
176
     1
 62
   256
176
     0
 40
1.0
176
     0
 90
        2
176
     1
  1
strokes_ogs.tif
176
     1
290
     0
176
     1
 40
1.0
176
     1
 40
1.0
176
     1
  0
VISUALSTYLE
  5
A0
102
{ACAD_REACTORS
330
99
102
}
330
99
100
AcDbVisualStyle
  2
Wireframe
 70
     5
177
     3
291
     0
 70
    58
 90
        0
176
     1
 90
        2
176
     1
 90
        0
176
     1
 90
        0
176
     1
 40
0.6
176
     1
 40
30.0
176
     1
 62
     7
420
 16777215
176
     1
 90
        1
176
     1
 90
        4
176
     1
 62
     7
176
     1
 62
   257
176
     1
 90
        1
176
     1
 90
        1
176
     1
 40
1.0
176
     1
 90
        0
176
     1
 62
   257
176
     1
 40
1.0
176
     1
 90
        1
176
     1
 90
        6
176
     1
 90
        2
176
     1
 62
     7
176
     1
 90
        3
176
     1
 90
        0
176
     1
 90
        0
176
     1
290
     0
176
     1
 90
        1
176
     1
 40
0.0
176
     1
 90
        0
176
     1
290
     0
176
     1
290
     1
176
     1
290
     1
176
     1
290
     0
176
     1
290
     0
176
     1
290
     0
176
     1
290
     0
176
     1
290
     0
176
     1
290
     0
176
     1
 90
       50
176
     1
 40
0.0
176
     1
 40
1.0
176
     1
 90
        0
176
     1
 62
    18
420
        0
176
     1
 90
       50
176
     1
 90
        3
176
     1
 62
     5
420
      255
176
     1
290
     0
176
     1
 90
       50
176
     1
 90
       50
176
     1
 90
       50
176
     1
290
     0
176
     1
 90
       50
176
     1
 62
   256
176
     0
 40
1.0
176
     0
 90
        2
176
     1
  1
strokes_ogs.tif
176
     1
290
     0
176
     1
 40
1.0
176
     1
 40
1.0
176
     1
  0
VISUALSTYLE
  5
180
102
{ACAD_REACTORS
330
99
102
}
330
99
100
AcDbVisualStyle
  2
X-Ray
 70
    25
177
     3
291
     0
 70
    58
 90
        2
176
     1
 90
        2
176
     1
 90
        1
176
     1
 90
        1
176
     1
 40
0.5
176
     1
 40
30.0
176
     1
 62
     7
420
 16777215
176
     1
 90
        1
176
     1
 90
        0
176
     1
 62
     7
176
     1
 62
   257
176
     1
 90
        1
176
     1
 90
        1
176
     1
 40
1.0
176
     1
 90
        8
176
     1
 62
     7
176
     1
 40
1.0
176
     1
 90
        1
176
     1
 90
        6
176
     1
 90
        2
176
     1
 62
     7
176
     1
 90
        3
176
     1
 90
        0
176
     1
 90
        0
176
     1
290
     0
176
     1
 90
       13
176
     1
 40
0.0
176
     1
 90
        0
176
     1
290
     0
176
     1
290
     1
176
     1
290
     1
176
     1
290
     0
176
     1
290
     0
176
     1
290
     0
176
     1
290
     0
176
     1
290
     0
176
     1
290
     0
176
     1
 90
       50
176
     1
 40
0.0
176
     1
 40
1.0
176
     1
 90
        0
176
     1
 62
    18
420
        0
176
     1
 90
       50
176
     1
 90
        3
176
     1
 62
     5
420
      255
176
     1
290
     0
176
     1
 90
       50
176
     1
 90
       50
176
     1
 90
       50
176
     1
290
     0
176
     1
 90
       50
176
     1
 62
   256
176
     0
 40
1.0
176
     0
 90
        2
176
     1
  1
strokes_ogs.tif
176
     1
290
     0
176
     1
 40
1.0
176
     1
 40
1.0
176
     1
  0
DICTIONARYVAR
  5
F0
102
{ACAD_REACTORS
330
66
102
}
330
66
100
DictionaryVariables
280
     0
  1
1:1
  0
DICTIONARYVAR
  5
EF
102
{ACAD_REACTORS
330
66
102
}
330
66
100
DictionaryVariables
280
     0
  1
STANDARD
  0
DICTIONARYVAR
  5
89
102
{ACAD_REACTORS
330
66
102
}
330
66
100
DictionaryVariables
280
     0
  1
STANDARD
  0
DICTIONARYVAR
  5
1B7
102
{ACAD_REACTORS
330
66
102
}
330
66
100
DictionaryVariables
280
     0
  1
Imperial24
  0
DICTIONARYVAR
  5
1B8
102
{ACAD_REACTORS
330
66
102
}
330
66
100
DictionaryVariables
280
     0
  1
Imperial24
  0
DICTIONARYVAR
  5
67
102
{ACAD_REACTORS
330
66
102
}
330
66
100
DictionaryVariables
280
     0
  1
2
  0
DICTIONARYVAR
  5
6B
102
{ACAD_REACTORS
330
66
102
}
330
66
100
DictionaryVariables
280
     0
  1
1
  0
DICTIONARYVAR
  5
14D
102
{ACAD_REACTORS
330
66
102
}
330
66
100
DictionaryVariables
280
     0
  1
0
  0
DICTIONARYVAR
  5
14E
102
{ACAD_REACTORS
330
66
102
}
330
66
100
DictionaryVariables
280
     0
  1
0
  0
DICTIONARY
  5
194
330
22
100
AcDbDictionary
280
     1
281
     1
  0
DICTIONARY
  5
188
330
97
100
AcDbDictionary
280
     1
281
     1
  3
FBXASSET
360
189
  0
DICTIONARY
  5
186
330
96
100
AcDbDictionary
280
     1
281
     1
  3
FBXASSET
360
187
  0
DICTIONARY
  5
110
330
98
100
AcDbDictionary
280
     1
281
     1
  3
BUMPTILE
360
112
  3
DIFFUSETILE
360
111
  3
FBXASSET
360
18A
  3
OPACITYTILE
360
113
  3
REFLECTIONTILE
360
114
  0
DICTIONARY
  5
104
330
87
100
AcDbDictionary
280
     1
281
     1
  3
ACAD_ROUNDTRIP_2008_TABLESTYLE_CELLSTYLEMAP
360
B77B
  0
XRECORD
  5
189
102
{ACAD_REACTORS
330
188
102
}
330
188
100
AcDbXrecord
280
     1
 70
     1
 90
429727718
  1
508B35C9-AEE7-456F-BE74-D52651303AC6
310
504B03040A0000080000B670623B3DEE336E79000000790000001B0000006175746F6465736B2D64657369676E2D7061636B6167652E786D6C3C3F786D6C2076657273696F6E3D22312E302220656E636F64696E673D227574662D3822203F3E3C666F726D6174733E3C666F726D61743E687474703A2F2F736368656D612E
310
6175746F6465736B2E636F6D2F64657369676E2D7061636B6167652F323030393C2F666F726D61743E3C2F666F726D6174733E504B0304140006080800B670623BD486FD9CA0000000F4000000130000005B436F6E74656E745F54797065735D2E786D6C7D8EC10E82300C865F65E91D8A1E8C310C0EEA1BF002731658846E
310
D98AC1B77784ABF1D8FE5FBFBF75BBCE937A534CCEB38643598122B6FEE978D0B0485F9C41B54DDD7D022595594E1A469170414C76A4D9A4D207E29CF43ECE46F218070CC6BECC4078ACAA135ACF422C856C0E68EA1BF5669944DDD7BCDE7B1F8E415D77AECB980613C2E4AC91FC167A2B244592486606FC29C8FD7F045B9A
310
EF7053A7E60B504B0304140006080800B670623B28ED286BEB0000007C01000008000000636F72652E786D6C8D90416EC3201045AF82665B6183218D6D61A254764FD00B204C5C94182C03558F5F9C3852BBEB6A467FFE9B197D71FA9E6FE8CBACC17AD7012D0820E3B41FAD9B3A48F1826B40272956EFE32F1B20A766D3C1
310
268314D3EAD3B24BDABB685CCCAAF3A3D94515828980F42D371D04FD696655A814B3235C8B45E9AB9A4C419F5D8653B2237A1CB163DE672FD6AC209BF3C08E0D1B30EB19C3FC9D72FCC6EB231EFA33EDE96BDD341517E5064B11EDFCBCAF57A3A2194156843498524CAA0FCA5B7268F9E185D42D21A2DCEC7FA0B48CFF8492
310
759155FBBB0F2C80A4F991FB408A72CB22977B50B96EB9C91F504B0304140006080800B670623B55019EA25F0000007C00000007000000636E782E786D6C4DCB3B0E80201045D1AD90E915ED2CF8AC45050C11660C8261F98AB1B07AC9C97D42D718D865D3E909258CFD00CCE24AC6E326A164D74DC0B4128928FF32603847
310
2BA13128B1252AC747C6BAB984FC68F0B87FE8960A5C09FE86CFB69FBA01504B0304140006080800B670623B7BC41AC871010000D40300000C0000006662782F636F72652E786D6CC553ED6E8320147D15C2DF4501B56B6D90A64BBB27D80B50A5CE54C120983EFEAE1F4DD7A56BBA5FF3879273EEE59E7310BE393735EA95
310
ED2AA333CC428A91D2B9292A5D66D8BB63B0C26823B835C67D2BC348CB46657880B1E0A535BE9DA1DC68A7B403549B42CDA0EC3AE530CA6B5864B8CB3F552343E91D5474A7B095F949962A6421D0502778E72C0840D390E18DC5F170E664C205F7BE2A66B62A605A75AC94C522DDEEE3651AEF837817C741F2CE92E02D592D
310
83FD6ECB76EC7595A651C2C9D02CB8AB9A8BBADC2AE954814544691A3016D0E883256BBA58278B17BA5A53CAC9507ED3E4DBE2C9265F691747B3DCA9ADC382819091F8E1162272A8933DE82182932144F88C09DF060D8140C84E1EEA8B8F1340BDCA9DB1093085F157AA97B557309586747CD0EF0B4EA64E983A6E0EAEEFCE
310
889E9EF17847386AA94B30211D2C0FDE0D3AF9A4610EAD5536E8DD1969631B593F67E381C33F5157F17725E5A636F6BF1491F980C8FC7B90E13E8A2F504B0304140006080800B670623B70102A487D0000009D0000000B0000006662782F636E782E786D6C4DCCD10A83201886E15B91FFDC95A5C30335ACCDFB886521330D
310
A76397BF1A1DECE883878F57749FD5A3B74D2F17830472A901D9F088930B8B849267CC01754AA418F3DF0D5018572BE160506249B16C274D761E8BCFBB7A179E27F65CB39A0F14D396184C9921B81F34C3ACA1B4B99ABB6E6F062A25AA5F69DF23ACBE504B0304140006080800B670623B3610CA3329010000120200003100
310
00006662782F42384135303843342D343331462D343546312D424341352D3532343432364645413344462F636F72652E786D6C8D515B6EC32010BC0AE22B55850D0E446E848992B43E412FE000495162B07854397EA176A4F62F3F2C9A9D991D58BEBB8F37F0AD7D30CE76905418026DA553C65E3A98E219B510EC04F7CEC5
310
3F3408EC30EA0E16180A7EF12E4D0B249D8DDAC68C5AA7F4020E21E80881BCE54B0783FCD2E3500D296646B856D320AFC34557A4CAEDCC133C449F0380794839A138B47B86DB2345744D7A44594FD0E1B867883594369BFE63BF7EEF793D0B054FC9A8456E548E63CE46FB674D8A58F068C6477CE9F510B582A2C1F80D1182
310
70F349E816B32D65AFB8DD62CCEB42FF274A937A52948C8DEB66893BCB021484D7734370E5D2E9F608A3EF93F3119479ABA0E50B14B8C298119A43CCC4FCFCECB8A18B6388CEE7EF5D5D4F994BD86CBBA182D76543B9FCAE2FD7B24DF103504B0304140006080800B670623B1B8617914E0100003303000030000000666278
310
2F42384135303843342D343331462D343546312D424341352D3532343432364645413344462F636E782E786D6CD593C16EC32010447F0571AD6CE3D489D20813A9877E410FBD62D82434182CC055F3F75D1292E692438FBD206B7698593D61BEFD1E2DF982108D773D6D6B460938E5B571FB9ECE6957AD29D90A1EBC4F7736
310
4A9C1CA1A759A682EF839FA72269D8C9D92654AD71C72206887E0E0A22CAF926B15E498B01E0AA19451807D01A34B919F16B070157417138917400F2F6FA41FCF0092A45DEE414C19BDC21783E4BD39D891265658C3D8DEA00A3ACE59CBC8678ACB54CB26EEB6BD7839D7E9348BE70AD9C8321B9BCA7F9A4A26C542347DEE0
310
50F09802D22BA6749A800A394DD62899107273365E3C82CFC6A55557BC06C10774B7ABE7AEC3B0F34CF06446280E154026D0542C187BA9DAB6628BF7B6DBB0E5A65B3EB1F58631DE64BBE083F7B65CC218087E22CABB042E51D1F2268F1FE12B3EA24D40D63E9CFE00120194D60B9D5BC67FE6D39CDF37E20AF817881F504B
310
0304140006080800B670623BBFEF2E3B690500003C100000340000006662782F42384135303843342D343331462D343546312D424341352D3532343432364645413344462F6F626A656374732E786D6CAD575D739B3814FD2B0CFB0C98D84E931D4227B6938EA793B6534F3BFB90198F0099B001899144EAECAFDF231018B0
310
D37A3FFC609090EEE7B94757C1FB7D915B2F54C88CB31BDB7727B64559CC938CA53776A576CE956DBD0F03C1B9EA2DB32D460A7A63EB693B0C52C1ABD24C257447AA5C8D66EF177F5832A68CDA569C13296F6C193FD182B8A4523CA1F2D94D88226EBADBBBBEDB2C1C8A4D05299F46424B222853B014F30C52ACC6287F389C
310
D85E1878FA7B18E87FB36AFAF62AAFF667A83F635211161F291B8999FAB3D5DDC5FCDA99CF6653677679E13B8BFBC5CAF1DF4D27CBCBE5F2FAF6EE1A8AA51290642C117467871F101B91C581D77CEA2C36869F3229E68CD1B8F61F1ED6361B89092D294B90C78C4A68EB793D190E7D1D9BDEE7A91E1B95FDE9F3BCEAEFE809
310
6A6D6F9F7D4B79F4275C90E7A04248AA51D5C4C738DAE06F72885AC4796EBE65D22A88A22223B995679120E2D50EB1542F098381188D4EA111AE3DB043FF20AF6F2B4AE3D7D83D65E5AECA730D4D3BAC91BD05FEA992B565D95F549CD6069B90AB2A63EACA38A45E4B6A87D781574F86817E4C2FCCC72690D62E2729520E37
310
9BAF234797BAF6D62B3BFC781FED37BA1E4F2B2F052FA9501A3E80569BB8F6A9A364D4FA67654E6F803383981F82F21591FF84F23D9882BC896C3FDBCF8C162508933B2E0AE4C69DD43F6BD2BE38DDDBF10BF86CB4FA784D37F3AF16075E67EC9030DECA1FC0A55373F5DFF3378C591FA9BDF485C10B0A8C8BA909E5262639
310
A8E72163488806A595734C81CB77D1DE0ED7604A303B76913CEC0272F412782FF88EFF4636D8AA56DF7B322474C4B767303F625997056C7B032C473C592B36CEBD15F3F9FF5233B7ABCDC74D257624A60F8658567497B14CE1EC3C80B76FD02011038F9EE9EB0F2E12387A9C844D3F09855125116D1D731DF8B43D2CF4E0A0
310
79A020C6BE946BCE0B7EA1E1219331CD73C228AF5A2DDD31A4B1DA918CE91350854D40A71723140BFA92E94E62B0626016CEFA5864A50E5977E8753CEDBEE1CBB7F52780D20E17AF0BA0F5F9B02A3AD07DCC732EB6D1EBB661421BE0C39E21BABF0FE16D22EA6929407C8DE596724C88B749B6DB5512BC7B228ADFD7CB7EA6
310
3A22397E690BA8D5D8D4E40CEC8CDA23C2C0B7D5898640101CEC9C6D331CE328CB93CAFBBAC70A642DF70DF95155945B52F08AA973C23469FD69ADEF84F7BB18F983A8F8C90E37F5D35980B2139A1C523540813E824EF83448CF7C72B598CE97D7CEEDDDDD3B6736BFBC771677EF66CE6A7E7139F7A793E9EDF2B2B3A8B624
310
0CDA13AA5F8388264EC4A0129909F3B7F5A16CEDF08128E97D680ACA4B9BE7B7B58BB638F0B00700EF36AE8B32A705658A68F83EE897FC2B41573190D1CCAF0B92D233A47CFEB019D9809933F67DD1A5467F8CF69AD9A5AE859342D45355448C64F968A371DC2D596ADC6E43D93D1B466F877A64E2893E54F23C4B40388995
310
525E5005DA3983ED45412510D3EFCA13737B3863F74BD30F2A12E5B4B5E489A025CE25500DB855B11ACE5BBFA185D35DD48D8DC3CE7DC69F2944DB42AA6F6CF09BCA622ADD08C7A36E7C6AE18000BAB08E040135C2D21C9D75B3A91B77BB746C403F38018DFE6EC939DD92F16B40BC05294B9CDA035AAD6D330AE27FE4786B
310
8E45145EA34A75BE1C263A676A35A8ACC6297337400BF16C54EF515F3F77CB77EB3583889C754FFA29081AA98E2222ADEF05DA3E63D2EDEA8B8756C05A7FB6CABC4A91CBF325398202CC952E70A008A830324BA200D5E5EF8F5F04C75DB4B0EE3340E071C98B823333B83577596BF3849B69F2085AA0FAFA212F26BEFF5877
310
FDE622B28D88A42E49E43326DA82D31E8CB006401E1DA726059ECEC168F97A6599036306A135688F9AD2E61A6EA178F4CD51974A9F2CCB9F36FE5EBD14601068D9C3BF01504B0304140006080000B670623B000000000000000000000000350000006662782F42384135303843342D343331462D343546312D424341352D35
310
32343432364645413344462F76657274696365732E62696E504B0304140006080800B670623BF270F1330600000004000000360000006662782F42384135303843342D343331462D343546312D424341352D3532343432364645413344462F747269616E676C65732E62696E636660600000504B0304140006080000B67062
310
3B000000000000000000000000370000006662782F42384135303843342D343331462D343546312D424341352D3532343432364645413344462F617474726962757465732E62696E504B0304140006080800B670623B08DA0BD19000000041010000360000006662782F42384135303843342D343331462D343546312D4243
310
41352D3532343432364645413344462F6469726563746F72792E786D6C858F410AC3201045AF22B36F53E9A60B35CBEEBAE80D244E44489C6234F4F835464A48035D0DF398FF9F8AF63D0E6CC63039F212F8F9020C7D47C6792B21C5FE7403D62A1188E2E60C98D7234A5830286103A55745067B9D86B8A3CF9C7F90C11DE6
310
07FB144396D7B6A82D282E9A152AD114D5EF2CB866EEE831B8EEA07A7BB5A8D7D61A2BAAEB7FD5F70921FF497D00504B0304140006080800B670623B3B4606F3FE000000A00100003B0000006662782F42384135303843342D343331462D343546312D424341352D3532343432364645413344462F7265736F75726365732F
310
636F72652E786D6C8D504B6E833010BD0A9A6D65B08134808CA354A427E8052C332156828DFCA97AFC9A40A576D7CDCCE87D344F8F9FBEE647F689CE6B6B7A6039850C8DB2A336530F315C4903D94970676DF82583CCC8197B5861107C72362E3BA4AC096842428D1D7107A5F71820538F74F4E0D50D6799CB1892C2DFF345
310
AABB9C306779A2934E701F5C0A906D4FD609C2A1B7D129F4BCD858C163D4E3AED163FAA9AF1A1D88F67CA98E6D35906AA82A52BFB39ABCD5CD915C86331BD86BD3B665CD8BD52C78D0F34F46E550061C419494B6843142CB0F5677F4D0D58717DA7494F26295FF31C565FCA7296A13AA728FBBD93C0896823C09C18BB5AFB4
310
9E65A6BD762BBE01504B010214000A0000080000B670623B3DEE336E79000000790000001B00000000000000000000000000000000006175746F6465736B2D64657369676E2D7061636B6167652E786D6C504B01021400140006080800B670623BD486FD9CA0000000F40000001300000000000000000000000000B2000000
310
5B436F6E74656E745F54797065735D2E786D6C504B01021400140006080800B670623B28ED286BEB0000007C010000080000000000000000000000000083010000636F72652E786D6C504B01021400140006080800B670623B55019EA25F0000007C000000070000000000000000000000000094020000636E782E786D6C50
310
4B01021400140006080800B670623B7BC41AC871010000D40300000C00000000000000000000000000180300006662782F636F72652E786D6C504B01021400140006080800B670623B70102A487D0000009D0000000B00000000000000000000000000B30400006662782F636E782E786D6C504B01021400140006080800B6
310
70623B3610CA3329010000120200003100000000000000000000000000590500006662782F42384135303843342D343331462D343546312D424341352D3532343432364645413344462F636F72652E786D6C504B01021400140006080800B670623B1B8617914E010000330300003000000000000000000000000000D10600
310
006662782F42384135303843342D343331462D343546312D424341352D3532343432364645413344462F636E782E786D6C504B01021400140006080800B670623BBFEF2E3B690500003C10000034000000000000000000000000006D0800006662782F42384135303843342D343331462D343546312D424341352D35323434
310
32364645413344462F6F626A656374732E786D6C504B01021400140006080000B670623B0000000000000000000000003500000000000000000000000000280E00006662782F42384135303843342D343331462D343546312D424341352D3532343432364645413344462F76657274696365732E62696E504B010214001400
310
06080800B670623BF270F133060000000400000036000000000000000000000000007B0E00006662782F42384135303843342D343331462D343546312D424341352D3532343432364645413344462F747269616E676C65732E62696E504B01021400140006080000B670623B00000000000000000000000037000000000000
310
00000000000000D50E00006662782F42384135303843342D343331462D343546312D424341352D3532343432364645413344462F617474726962757465732E62696E504B01021400140006080800B670623B08DA0BD1900000004101000036000000000000000000000000002A0F00006662782F42384135303843342D3433
310
31462D343546312D424341352D3532343432364645413344462F6469726563746F72792E786D6C504B01021400140006080800B670623B3B4606F3FE000000A00100003B000000000000000000000000000E1000006662782F42384135303843342D343331462D343546312D424341352D3532343432364645413344462F72
310
65736F75726365732F636F72652E786D6C504B0506000000000E000E0080040000651100000000
  0
XRECORD
  5
187
102
{ACAD_REACTORS
330
186
102
}
330
186
100
AcDbXrecord
280
     1
 70
     1
 90
429727718
  1
887D55A9-D0DD-414E-B741-A7DCD4DA2B4C
310
504B03040A0000080000B670623B3DEE336E79000000790000001B0000006175746F6465736B2D64657369676E2D7061636B6167652E786D6C3C3F786D6C2076657273696F6E3D22312E302220656E636F64696E673D227574662D3822203F3E3C666F726D6174733E3C666F726D61743E687474703A2F2F736368656D612E
310
6175746F6465736B2E636F6D2F64657369676E2D7061636B6167652F323030393C2F666F726D61743E3C2F666F726D6174733E504B0304140006080800B670623BD486FD9CA0000000F4000000130000005B436F6E74656E745F54797065735D2E786D6C7D8EC10E82300C865F65E91D8A1E8C310C0EEA1BF002731658846E
310
D98AC1B77784ABF1D8FE5FBFBF75BBCE937A534CCEB38643598122B6FEE978D0B0485F9C41B54DDD7D022595594E1A469170414C76A4D9A4D207E29CF43ECE46F218070CC6BECC4078ACAA135ACF422C856C0E68EA1BF5669944DDD7BCDE7B1F8E415D77AECB980613C2E4AC91FC167A2B244592486606FC29C8FD7F045B9A
310
EF7053A7E60B504B0304140006080800B670623BBC1638F5EC0000007C01000008000000636F72652E786D6C8D90416EC3201045AF82665B61836BE2D8C24471DB9CA01740401C94182C03558F5F9C3852BBEB6A467FFE9B197D7EF89E6EE8CB2CC17AD7032D0820E394D7D68D3DA478C67B4007C117EFE32F1B202727D3C3
310
2A83E0E3E2D3BC49CABB685CCCAAF3DA6CA20CC14440EA969B1E82BA98491632C5EC08D76296EA2A4753D06797E194AC468F2356E77DF66CCD02825543D50CACC62D39ED70FDC68EB8FD68F6F8787A6784342D1DDA1D2F5758F068A7E77DB518198D065111D2624A31A93E69DD11D6D5EC85EC3B4278B9DAFF4069D6FF8492
310
75F1B5DADE7D600104CD8FDC0782976B16B9DC83CA75CD4DFC00504B0304140006080800B670623B55019EA25F0000007C00000007000000636E782E786D6C4DCB3B0E80201045D1AD90E915ED2CF8AC45050C11660C8261F98AB1B07AC9C97D42D718D865D3E909258CFD00CCE24AC6E326A164D74DC0B4128928FF326038
310
472BA13128B1252AC747C6BAB984FC68F0B87FE8960A5C09FE86CFB69FBA01504B0304140006080800B670623B3586FFB671010000D40300000C0000006662782F636F72652E786D6CC553ED6E8320147D15C2DF4541A76D6D90A6DDD627D80B50A4CE54C120983EFEAE1F4DD7A55BBA5FF3879273EEE59E7310B6393735EA
310
95ED2AA3731C851423A5A5292A5DE6D8BB63B0C268C39935C67D29C3488B46E578803167A535BE9D2169B453DA01AA4DA16650749D7218C91A1639EEE4876A4428BC838AEE14B6429E44A9C228041AEA38EB9C0501681A32BC313F1ECE8C4C3867DE57C5CC56054CAB8E95B298A7F12E5EEED224C8E87E11242FE936C8DE96
310
AB60BB7F4D295D66D12E5B30323473E6AAE6A24E5A259C2A308F29CD82280A68FC1E256B9AAE93F489AED694323294DF34F9B678B0C957DA3DC7B3DCA9ADC33C022123F1CD2D44E450277AD04338234388F01913BE0D1A0281909D38D4171F27807A259DB1093085F157AA17B557309586747CD0CF0B46A64E983A6E0EAEEF
310
CE881F9EF1FB8E70D44297604238581EBC1B74B249C31C5AAB6CD0BB33D2C636A27ECCC62F0EFF445DC5DF95244D6DEC7F2922F30191F9F720C37DE49F504B0304140006080800B670623B4220A0FF7D0000009D0000000B0000006662782F636E782E786D6C4DCCD10A83201886E15B91FFDCE542CB0335D0EC3E6259C84A
310
C3E9D8E5AF46073BFAE0E1E315DD675BD1DBA5978F41C2FD4600B9F088930F8B849267CC01754AA418F3DF0D50183727E164506249B1EC174D6E1ECB9A0F5D7D785E68DB8151CD286E5A5363CA6B8A39E90D36D40E96B086F55A43A544F52B1D7B86D517504B0304140006080800B670623B2FA3FEDE290100001202000031
310
0000006662782F45374635344235342D363743322D343832342D383044432D4334454645303536354442422F636F72652E786D6C8D515B6EC32010BC0AE22B55850D2E386E848994D7097A0117488A1283C5A3CAF10BB523B57FF961D1ECCCECC0F2ED7DBC816FED8371B687A4C210682B9D32F6D2C314CFA883602BB8772E
310
FEA141608751F7B0C050F08B77695A20E96CD43666D43AA5177008414708E42D5F7A18E4971E876A483133C2B59A06791D2EBA22556E679EE021FA1C00CC43CA09C5717D6274C7286AD7FB06D1AEA1A8C3873DDAD3E3E98859CB0EBB1DAF67A1E02919B5C88DCA71CCD968FFAC49110B1ECDF8882FBD1EA256503418BF2342
310
106E3E08DD60B6A1EC15771B8C795DE8FF4469524F8A92B1F1AD59E2CEB20005E1F5DC105CB9F4797B84D1F7C9F908CABC55D0F2050A5C61CC1AD2F27A26E6E767C7962E8E213A9FBF7775FDCC5CC266DB960A5E970DE5F2BBBE5CCB36C50F504B0304140006080800B670623B1B8617914E01000033030000300000006662
310
782F45374635344235342D363743322D343832342D383044432D4334454645303536354442422F636E782E786D6CD593C16EC32010447F0571AD6CE3D489D20813A9877E410FBD62D82434182CC055F3F75D1292E692438FBD206B7698593D61BEFD1E2DF982108D773D6D6B460938E5B571FB9ECE6957AD29D90A1EBC4F77
310
364A9C1CA1A759A682EF839FA72269D8C9D92654AD71C72206887E0E0A22CAF926B15E498B01E0AA19451807D01A34B919F16B070157417138917400F2F6FA41FCF0092A45DEE414C19BDC21783E4BD39D891265658C3D8DEA00A3ACE59CBC8678ACB54CB26EEB6BD7839D7E9348BE70AD9C8321B9BCA7F9A4A26C542347DE
310
E050F09802D22BA6749A800A394DD62899107273365E3C82CFC6A55557BC06C10774B7ABE7AEC3B0F34CF06446280E154026D0542C187BA9DAB6628BF7B6DBB0E5A65B3EB1F58631DE64BBE083F7B65CC218087E22CABB042E51D1F2268F1FE12B3EA24D40D63E9CFE00120194D60B9D5BC67FE6D39CDF37E20AF817881F50
310
4B0304140006080800B670623B29652116630500003C100000340000006662782F45374635344235342D363743322D343832342D383044432D4334454645303536354442422F6F626A656374732E786D6CAD575D739B3814FD2B0CFB0C989834C90EA1639B24E3E9A6EDD4D3CE3E64C623834CD8006224913AFDF57B040203
310
B65BEF871F0C12D2FD3CF7E8CA7FBFCB33E3957291B2E2D674ED8969D02262715A24B76625B7D6B569BC0F7CCE98EC2D338D82E4F4D654D366E0279C55A59E8AE99654991CCDDECFFF3444440B6A1A514684B83545F44C7362934AB2988A173B2692D8C97667BB76B3702836E1A47C1E092D09A78584A5982F20C5688C7287
310
C389E904BEA3BE07BEFAD7ABA6A75739B53F43FD69212429A20365233153D70BEF2E2E6FAC4BCF9B5ADEBB0BD79ADFCF43CBBD9A4E16EF168B9BD9DD0D140BC921495BC2E9D60C1E101B9E46BED37CEA2CD6861F3329624541A3DA7F7858DBAC25C6B4A4458C3CA654405BCFEBC970E8AAD8F43E4FD558ABEC4F9FE7557F47
310
4F506B7BFBEC5BCA367FC105710E2AB8A00A554D7CB4A30DFE26FBA86D18CBF4B75418399194A72433B274C3097F33032C554B027F2046A1932B842B0FCCC0DDCBEBDB8AD2F835768F59B9ADB24C41D30C6A64AF817F2A456D59FA83F2E3DA60137255A585BCD60EC9B7929AC18DEFD49381AF1ED30BFDB109A4B1CD488294
310
C3CDE6EBC8D185AABD6568061FEE37BB95AAC7E3CA4BCE4ACAA5820FA0D526AE7DAA2869B5EE5999531BE0CC20E6FBA07C41E43FA27CF7A6206F3CDD793B4F6B919C1462CB788EDCD893FA674CDA17AB7B3B7C019F8D561FAEE966FED562DFE98C1D12C6A9FC015C2A35D7FF3D7FC398F591DA4B5FE0BFA2C0189FEA50AE22
310
92817A1ED3020951A03432862970F976B33383259812CC8E5D240BBA801CBCF8CE2BBEE3BF910DB6AAD5F79E05123AE2DB33981FB1ACCB02B69D00CB014FD68AB573A7627EF9BFD4CC2C5C7D58557C4B22FAA88925A4DBB44825CECE3D78FB060D1231F0E885BE7D673C86A3874958F593906B5502D1563157814FDAC3420D
310
F69A070A22EC4B98E23CFF171A1E5311D12C23056555ABA53B8614563B92D17D02AAB009E8F46284624E5F53D5490C560CCCC2591FF1B45421EB0EBD8EA7ED13BE7C5D7E0428CD60FEF60779EB13E6664FF711CB185F6FDED60D139A001FF60CD1FD6D086F1D51474901E26B2CB794A343BC8ED3EDB612E0DD2351FCB65CF4
310
33D511C9E14B5B40ADC6A6263DB0336A8F700DDF56271A024E70B0B3629DE21847591E55DED73D56206AB927E46FAABC5C939C55853C274C93D69FD6FA4E78BF8B11DF898C9ECD60553FAD39283BA6F18984AA23E8884F83F45C5F5F859797B31B2B9C84A1E5B9DE9D35BFF25C6B76152E422F9C5DCC3D847F5801ED09D5AF
310
41441327A25FF15487F9EB725FB666F048A4701E9A827292E6F97569A32DF61DEC01C0BB8DCBBCCC684E0B49147C1FD54BF685A0AB18C868E6973949E819523E3DAC463660E68C7D9F55A9D1EFA3BD7A76A16AE1A810F95CE59B82A4D968A376DC2E8B44BBDD86B27B368CDE0ED548C7137DA860591A83706223A12CA712B4
310
7306DBF39C0A20A6DF95C7FAF670C6EED7A61F946493D1D6926782963813403548A78AE470DEF80D2D9CEAA26E4D1C76F60BFE74219A06527D6B82DF641A51616F703CAAC6A7160E08A00BEB4810A0274592A1B36E3675E36E978A0DE80727A0D6DF2D39A75BD27E0D8837276589537B40ABB56D5A41F48F1C6FCD3188C4EB
310
A6929D2FFB89CE995A4D00AE813BDD032DC48B56BD437DFDDC2DD7AED70C2272D63DE9A72068A45A92F0A4BE17A8A06B9366E16707AD80B1FC649459952097E74BB23805982B55E0401150A165964402AA8BDF9F3E7386BB686EDCA780C0D382E5392BF460A6EFB2C6EA1937D3F809B440D5F5435C4C5CF7A9EEFAF54564BD
310
2182DA24162F98680B4E7930C21A0079709CEAEB99A372305ABE0C0D7D6078105A83F6A0296DAEE1068A47DD1C55A9F4C9B2FC69E3EFD44B81028E963DF81B504B0304140006080000B670623B000000000000000000000000350000006662782F45374635344235342D363743322D343832342D383044432D433445464530
310
3536354442422F76657274696365732E62696E504B0304140006080800B670623BF270F1330600000004000000360000006662782F45374635344235342D363743322D343832342D383044432D4334454645303536354442422F747269616E676C65732E62696E636660600000504B0304140006080000B670623B00000000
310
0000000000000000370000006662782F45374635344235342D363743322D343832342D383044432D4334454645303536354442422F617474726962757465732E62696E504B0304140006080800B670623B08DA0BD19000000041010000360000006662782F45374635344235342D363743322D343832342D383044432D4334
310
454645303536354442422F6469726563746F72792E786D6C858F410AC3201045AF22B36F53E9A60B35CBEEBAE80D244E44489C6234F4F835464A48035D0DF398FF9F8AF63D0E6CC63039F212F8F9020C7D47C6792B21C5FE7403D62A1188E2E60C98D7234A5830286103A55745067B9D86B8A3CF9C7F90C11DE607FB144396
310
D7B6A82D282E9A152AD114D5EF2CB866EEE831B8EEA07A7BB5A8D7D61A2BAAEB7FD5F70921FF497D00504B0304140006080800B670623B6378F24DFF000000A00100003B0000006662782F45374635344235342D363743322D343832342D383044432D4334454645303536354442422F7265736F75726365732F636F72652E
310
786D6C8D504B6E833010BD0A9A6D65B0094E42641C85B639412F6099496225D8C89FAAC7AF09546A77DDCC8CDE47F3F4C4F16B7C149FE88371B603565228D06A37187BED20C50BD9437194C23B177FC9A0B06AC40E6618A4B87A97A615D2CE46B431A3D60DB8822A048C50E8473E3A08FA86A32A558A5911EEE5A4F45D5DB1
310
6465A6B34E8A107D0E502C4FE609D26370C96B0CA25A58295232C3AA3143FE692E063D485EF7F5AEE71BD2D2F39634AFFC44DAF7DD9E9CCE6F9CD25DCBFA762BAAD92C4534E34F46ED51451C40D694B6843142EB0FD61C283F34FC85EE0F948A6A96FF31A569F8A729191B37F51A77B105902C0779125254735F793DCBCC7B
310
EE567E03504B010214000A0000080000B670623B3DEE336E79000000790000001B00000000000000000000000000000000006175746F6465736B2D64657369676E2D7061636B6167652E786D6C504B01021400140006080800B670623BD486FD9CA0000000F40000001300000000000000000000000000B20000005B436F6E
310
74656E745F54797065735D2E786D6C504B01021400140006080800B670623BBC1638F5EC0000007C010000080000000000000000000000000083010000636F72652E786D6C504B01021400140006080800B670623B55019EA25F0000007C000000070000000000000000000000000095020000636E782E786D6C504B010214
310
00140006080800B670623B3586FFB671010000D40300000C00000000000000000000000000190300006662782F636F72652E786D6C504B01021400140006080800B670623B4220A0FF7D0000009D0000000B00000000000000000000000000B40400006662782F636E782E786D6C504B01021400140006080800B670623B2F
310
A3FEDE290100001202000031000000000000000000000000005A0500006662782F45374635344235342D363743322D343832342D383044432D4334454645303536354442422F636F72652E786D6C504B01021400140006080800B670623B1B8617914E010000330300003000000000000000000000000000D2060000666278
310
2F45374635344235342D363743322D343832342D383044432D4334454645303536354442422F636E782E786D6C504B01021400140006080800B670623B29652116630500003C10000034000000000000000000000000006E0800006662782F45374635344235342D363743322D343832342D383044432D4334454645303536
310
354442422F6F626A656374732E786D6C504B01021400140006080000B670623B0000000000000000000000003500000000000000000000000000230E00006662782F45374635344235342D363743322D343832342D383044432D4334454645303536354442422F76657274696365732E62696E504B01021400140006080800
310
B670623BF270F13306000000040000003600000000000000000000000000760E00006662782F45374635344235342D363743322D343832342D383044432D4334454645303536354442422F747269616E676C65732E62696E504B01021400140006080000B670623B0000000000000000000000003700000000000000000000
310
000000D00E00006662782F45374635344235342D363743322D343832342D383044432D4334454645303536354442422F617474726962757465732E62696E504B01021400140006080800B670623B08DA0BD190000000410100003600000000000000000000000000250F00006662782F45374635344235342D363743322D34
310
3832342D383044432D4334454645303536354442422F6469726563746F72792E786D6C504B01021400140006080800B670623B6378F24DFF000000A00100003B00000000000000000000000000091000006662782F45374635344235342D363743322D343832342D383044432D4334454645303536354442422F7265736F75
310
726365732F636F72652E786D6C504B0506000000000E000E0080040000611100000000
  0
XRECORD
  5
112
102
{ACAD_REACTORS
330
110
102
}
330
110
100
AcDbXrecord
280
     1
270
     1
271
     1
  0
XRECORD
  5
111
102
{ACAD_REACTORS
330
110
102
}
330
110
100
AcDbXrecord
280
     1
270
     1
271
     1
  0
XRECORD
  5
18A
102
{ACAD_REACTORS
330
110
102
}
330
110
100
AcDbXrecord
280
     1
 70
     0
 90
1778669749
  1
9BF507EE-FAF7-4A99-A33D-4EE51894BC40
310
504B03040A0000080000B670623B3DEE336E79000000790000001B0000006175746F6465736B2D64657369676E2D7061636B6167652E786D6C3C3F786D6C2076657273696F6E3D22312E302220656E636F64696E673D227574662D3822203F3E3C666F726D6174733E3C666F726D61743E687474703A2F2F736368656D612E
310
6175746F6465736B2E636F6D2F64657369676E2D7061636B6167652F323030393C2F666F726D61743E3C2F666F726D6174733E504B0304140006080800B670623BD486FD9CA0000000F4000000130000005B436F6E74656E745F54797065735D2E786D6C7D8EC10E82300C865F65E91D8A1E8C310C0EEA1BF002731658846E
310
D98AC1B77784ABF1D8FE5FBFBF75BBCE937A534CCEB38643598122B6FEE978D0B0485F9C41B54DDD7D022595594E1A469170414C76A4D9A4D207E29CF43ECE46F218070CC6BECC4078ACAA135ACF422C856C0E68EA1BF5669944DDD7BCDE7B1F8E415D77AECB980613C2E4AC91FC167A2B244592486606FC29C8FD7F045B9A
310
EF7053A7E60B504B0304140006080800B670623BCA089DFFEC0000007C01000008000000636F72652E786D6C8D90416E83301045AF62CDB632D8402020E32882F604BD80653BC44AB011B6AB1EBF262152BBEB6A467FFE9B197D76FA9EEFE84BAFDE38DB03CD08206DA553C64E3DC470C1474027CE56E7C22F1B202B66DDC3
310
260367D3EAE2B24BD2D9A06D48AA754AEFA2F05E0740F29E9A1EBCBCEA59642286E4F0B76C11F226269DD15797E0188D42CF2346A57DE662F40ABCAEC77628C6120F654571D50C04B7F5B9C1E3997CD4F550BE3745C3F20DE62C98F9755FAE5A04AD801784B498524C8A4F5A75E4D055873772EC0861F966FF03C545FD138A
310
C686B2D8DF7D621E384D8F3C069CE55B16A93C824A75CB8DFF00504B0304140006080800B670623B55019EA25F0000007C00000007000000636E782E786D6C4DCB3B0E80201045D1AD90E915ED2CF8AC45050C11660C8261F98AB1B07AC9C97D42D718D865D3E909258CFD00CCE24AC6E326A164D74DC0B4128928FF326038
310
472BA13128B1252AC747C6BAB984FC68F0B87FE8960A5C09FE86CFB69FBA01504B0304140006080800B670623B68FC0B7272010000D40300000C0000006662782F636F72652E786D6CC5535B6E833010BC8AE5DF0A6C1E8124328E22D29EA01770C0A128602363A31CBFCB234A53A555FA553EC09AD9F5CE8C31DB5DDA060D
310
D2F4B556190E7C8A9154852E6B5565D8D993B7C668C799D1DA7E29C3488956667884316795D1AE5BA0422B2B950554E9522EA0E87B69312A1A5864B82F3E642B7CE12C54F467BF13C55954D20F7CA0A18EB3DE1A1080E621E31BF3D3F1C2C88C73E65C5D2E6C5DC2B4FA544B8379921C36797888BC3C8A032F4E73EA6D927D
310
EA1DF6F42D49F2E8350D5346C666CE6CDD5ED515460A2B4BCC434A375E1078347C0FE22D5D6DE3D50B5D6F2965642CBF6B725DF96493AB958DC245EEDCD6631E809089F8E61622B2A81703E8219C913144F84C09DF070D8140C8561C9BAB8F3340832CAC363130A576376A108D933095FA747AD0CF0B46E64E983A6D0EAE1F
310
CE089F9EF1FB8E70D44255604258581E9D1D75B259C3125A278D37D80B52DAB4A279CEC62F0EFF44DDC43F9454E8469BFF5244960322CBEF41C6FBC83F01504B0304140006080800B670623B0F71DDB67E0000009D0000000B0000006662782F636E782E786D6C4DCCD10A83201886E15B91FFDCA54DB73F502386BB8F5816
310
32D3703976F9ABD1C18E3E78F87855FB990379BBFCF2296AE02706C4C5471A7C9C349475A408A4352AA7B4FEDD80C47E761A7606A3A69CCA72D0E0C6BE8475D3E0E3F3409428EA6B27A84079A782899AA2EC1A7AE3ECCC2FD858CB2D544655BFD2B67BD87C01504B0304140006080800B670623BE134B4FB28010000120200
310
00310000006662782F38353834323741342D343835462D343034322D383541392D4331303331363839454531452F636F72652E786D6C8D515B6EC32010BC0AE22B55850D0EA424C24451959EA0172086A42831583CAA1CBF503B52FB971F16CDCECC0EACD8DFC71BF836215AEF7A481A0C817183D7D65D7A98D3197108F652
310
04EFD31F1A044E8DA6871586525C82CFD3020DDE25E352419DD76601558C264130DCCAA58771F832A36A544E8511AFCDA486ABBA988634A55D7852C4144A00300FA927949C71DABD1D28A29C7D208A6987383B6CD13BC16BB2E1DBE3911C453B0BA5C8D9EA456E758963CFD684674DAA588A64C747FC2118958C86B2C3788B
310
0841B8FB247487D98EB257CC77188BB6D2FF89F2A49F1465EBD2BA5BE2CEB2082511EDDC9042FB7CBA3DC298FBE4430275DE2A9AE1054ADC60CC08E3A29D89E5F9C5714317C7987C28DFBBBA9E0A97B0D97643A568EB864AF95D5FA9759BF207504B0304140006080800B670623B1B8617914E010000330300003000000066
310
62782F38353834323741342D343835462D343034322D383541392D4331303331363839454531452F636E782E786D6CD593C16EC32010447F0571AD6CE3D489D20813A9877E410FBD62D82434182CC055F3F75D1292E692438FBD206B7698593D61BEFD1E2DF982108D773D6D6B460938E5B571FB9ECE6957AD29D90A1EBC4F
310
77364A9C1CA1A759A682EF839FA72269D8C9D92654AD71C72206887E0E0A22CAF926B15E498B01E0AA19451807D01A34B919F16B070157417138917400F2F6FA41FCF0092A45DEE414C19BDC21783E4BD39D891265658C3D8DEA00A3ACE59CBC8678ACB54CB26EEB6BD7839D7E9348BE70AD9C8321B9BCA7F9A4A26C542347
310
DEE050F09802D22BA6749A800A394DD62899107273365E3C82CFC6A55557BC06C10774B7ABE7AEC3B0F34CF06446280E154026D0542C187BA9DAB6628BF7B6DBB0E5A65B3EB1F58631DE64BBE083F7B65CC218087E22CABB042E51D1F2268F1FE12B3EA24D40D63E9CFE00120194D60B9D5BC67FE6D39CDF37E20AF817881F
310
504B0304140006080800B670623B5933D422630500003B100000340000006662782F38353834323741342D343835462D343034322D383541392D4331303331363839454531452F6F626A656374732E786D6CAD575B6FA33814FE2B887D0642934E9B156594264D158D3A534DD4D13E548A0C38942D60649B4EBABF7E3F8321
310
40924EF6928780CDF1B97EE762EFF32E4B8D37CA45C2F21BD3B547A641F39045491EDF98A5DC5AD7A6F1D9F73863B243661A39C9E88DA9B64DDF8B392B0BBD15D12D295339D85DDEFE618890E6D434C2940871638AF08566C426A5641115AF764424B1E3EDCE76ED9AB0CF36E6A47819302D08A7B984A6D8CFC1C5A89572FB
310
CB91E9F89EA3BEFB9EFAD754E3D3544E654F5F7E920B49F2F040D880CDD89D2CEE2E2EA7D6E56432B6269F2E5CEB7679BBB0DCABF168FE693E9FCEEEA6102C240727AD09A75BD3BF876F78127A4EFDA9D5582B7E4CA590E5390D2BFB6161A5B3E618D182E611E2985001691DAB47FDA5AB7CD3F93C566B2DB2BB7D9E55DD13
310
1D468DEECDB3AB290BFE8409E21C54704115AA6AFF68436BFC8DF65E0B184BF5B74418199194272435D224E084BF9B3E481589EFF5D828747285706581E9BB7B7E5D5D911ABFC6EE312DB7659A2A689A7E85EC0DF04FA5A8344BFEA2FCB834E8845895492EAFB541F2BDA0A63FF59C6AD3F7D4637CA13FD68E34B629891172
310
98597F1D183A57B9B75A98FE9765B05BAB7C3C2EBCE0ACA05C2AF8005A4DE09AA7F29216EB9E15397500C6F47CBE77CA7778FE2BD277AF0AE2C693DD6437D1522427B9D8329E2136F6A8FA19A3E6C56ADF0E5F50CF06D48734EDCEBF22F69C56D97EC138153F804B85E6FABFC7AFEFB32E523BE1F3BD372418E363EDCA7548
310
52949E8724474014288D94610BB57C1BEC4C7F854A89CA8E5324F55B871CBC78CE1BBEE3BFE68D6A5589EF3C730474506FCFA8FCF0659516D0ED04580EEA6425581B77CAE797FF4BCECC16EB2FEB926F49481F746159D06D922712BD730FDEAE42BD40F42C7AA5EF3F198F60E86110D6DD20645A9480B795CF95E3E3A659A8
310
C55E724F408873315335CFFB8584874484344D494E59D94869DB90C26A5B64F49C802CAC1D3ABE18A098D3B7444D123D8A9E5AE8F5214F0AE5B2B6E9B575DA3E61CBD3EA2B4009FA940524DD1305FB6A1FB294F14DF0BEA90BA109ECE1481FDC3FFAE8D60E75141700BE82725371B4873751B2DD960265F788137FACE6DD40
310
B575E4F0A5C99F46629D92131467A41EE11ABD8D4CCC039CA0AFB37C93A08B232B8F0AEFCA1E0A1015DF13FC83322B362463652ECF71D3A8B1A7D1BE65DE1D62C44F22C317D35F574FEB16153BA2D13E543D10A80E74C4A65E78A6B7CBCBD1D5DD9DB59C2DAFACC96C3AB566E3F1C29ADCDD5DBAD7D3C9ED7C822ED74F80A6
310
41755310DE4443F44A9E68373FADF6596BFA0F440AE7BECE2727AE9F4F2B1B53B1E7E00CF0DD1E5C65454A339A4BA2D0FBA05ED2EF0443458F47BDBFCA484CCFE0F2ED7E3DD0013B679C7B5499467F0ECEEADDB9CA85A34CE44B99053949D2C1416DB85DE4B136BB7165FBAC0B7AB3542BED4F8CA182A549847A1319316519
310
95A83A67147B9E5101C47487F2485F1ECE38FD568F839204296D3479219888530154036E6528FBFBC66F98E0D4107563A2D7D9AFF8D389681A08F58D89F22693900A3B407754734FC51C10C010D6D640809EE4718AC1BA3ED4AEDB53CA37283F68805A7E4B72CEB0A4EDEAD5DD8C14059A76AFAA56BA6901E13F32BC51C720
310
12AF41295B5BF61BAD3195181FB506E6B40F4C10AF5AF40EF9F5B159AE5DD1F43C72D635E94310D45C2D49785C5D0B94D3B54AB3C5A38349C0587D338AB48C11CBF339599C02CCA54A70A008A8D03C0B2201D5F9EFCF8F9CE12A9A19CB0410789EB32C63B95ECCF455D658BFE0621A3DA32C5075FB101723D77DAE867E7D0F
310
D90444509B44E2151B4DC2290B065803200FBAA9BE9D392A0603F2D5C2D00D6302A615680F66D2FA166E2079D4C551A54AB758161FCEFD4E450A14704CECFEDF504B0304140006080000B670623B000000000000000000000000350000006662782F38353834323741342D343835462D343034322D383541392D4331303331
310
363839454531452F76657274696365732E62696E504B0304140006080800B670623BF270F1330600000004000000360000006662782F38353834323741342D343835462D343034322D383541392D4331303331363839454531452F747269616E676C65732E62696E636660600000504B0304140006080000B670623B000000
310
000000000000000000370000006662782F38353834323741342D343835462D343034322D383541392D4331303331363839454531452F617474726962757465732E62696E504B0304140006080800B670623B08DA0BD19000000041010000360000006662782F38353834323741342D343835462D343034322D383541392D43
310
31303331363839454531452F6469726563746F72792E786D6C858F410AC3201045AF22B36F53E9A60B35CBEEBAE80D244E44489C6234F4F835464A48035D0DF398FF9F8AF63D0E6CC63039F212F8F9020C7D47C6792B21C5FE7403D62A1188E2E60C98D7234A5830286103A55745067B9D86B8A3CF9C7F90C11DE607FB1443
310
96D7B6A82D282E9A152AD114D5EF2CB866EEE831B8EEA07A7BB5A8D7D61A2BAAEB7FD5F70921FF497D00504B0304140006080800B670623BD9A3B367FE000000A00100003B0000006662782F38353834323741342D343835462D343034322D383541392D4331303331363839454531452F7265736F75726365732F636F7265
310
2E786D6C8D504B6E833010BD0A9A6D65B01D0201194711694FD00B586642AD043BF2A7EAF16B122AB5BB6E6646EFA3797AE2F8B5DC8A4FF4C1383B002B291468B59B8C9D0748F1420E501CA5F0CEC55F3228AC5A708015062966EFD27D83B4B3116DCCA875136EA00A012314FA968F0182FEC045952AC5AC08D7F2AEF455CD
310
58B232D3592745883E07289E4FD609D26370C96B0CA27AB252A464A64D63A6FCD35C0C7A904D73EE467EE664DCD58CD4ED4849D79C5A723ED1B7A61977AF2D6F45B59AA58866F9C9A83DAA8813484E6947182394BFB3BAA7FBBEDEBFD0434FA9A856F91F53BA4FFF342563E38E6F719FB60092E5200F428A6AED2BAF479979
310
AFDDCA6F504B010214000A0000080000B670623B3DEE336E79000000790000001B00000000000000000000000000000000006175746F6465736B2D64657369676E2D7061636B6167652E786D6C504B01021400140006080800B670623BD486FD9CA0000000F40000001300000000000000000000000000B20000005B436F6E
310
74656E745F54797065735D2E786D6C504B01021400140006080800B670623BCA089DFFEC0000007C010000080000000000000000000000000083010000636F72652E786D6C504B01021400140006080800B670623B55019EA25F0000007C000000070000000000000000000000000095020000636E782E786D6C504B010214
310
00140006080800B670623B68FC0B7272010000D40300000C00000000000000000000000000190300006662782F636F72652E786D6C504B01021400140006080800B670623B0F71DDB67E0000009D0000000B00000000000000000000000000B50400006662782F636E782E786D6C504B01021400140006080800B670623BE1
310
34B4FB280100001202000031000000000000000000000000005C0500006662782F38353834323741342D343835462D343034322D383541392D4331303331363839454531452F636F72652E786D6C504B01021400140006080800B670623B1B8617914E010000330300003000000000000000000000000000D3060000666278
310
2F38353834323741342D343835462D343034322D383541392D4331303331363839454531452F636E782E786D6C504B01021400140006080800B670623B5933D422630500003B10000034000000000000000000000000006F0800006662782F38353834323741342D343835462D343034322D383541392D4331303331363839
310
454531452F6F626A656374732E786D6C504B01021400140006080000B670623B0000000000000000000000003500000000000000000000000000240E00006662782F38353834323741342D343835462D343034322D383541392D4331303331363839454531452F76657274696365732E62696E504B01021400140006080800
310
B670623BF270F13306000000040000003600000000000000000000000000770E00006662782F38353834323741342D343835462D343034322D383541392D4331303331363839454531452F747269616E676C65732E62696E504B01021400140006080000B670623B0000000000000000000000003700000000000000000000
310
000000D10E00006662782F38353834323741342D343835462D343034322D383541392D4331303331363839454531452F617474726962757465732E62696E504B01021400140006080800B670623B08DA0BD190000000410100003600000000000000000000000000260F00006662782F38353834323741342D343835462D34
310
3034322D383541392D4331303331363839454531452F6469726563746F72792E786D6C504B01021400140006080800B670623BD9A3B367FE000000A00100003B000000000000000000000000000A1000006662782F38353834323741342D343835462D343034322D383541392D4331303331363839454531452F7265736F75
310
726365732F636F72652E786D6C504B0506000000000E000E0080040000611100000000
  0
XRECORD
  5
113
102
{ACAD_REACTORS
330
110
102
}
330
110
100
AcDbXrecord
280
     1
270
     1
271
     1
  0
XRECORD
  5
114
102
{ACAD_REACTORS
330
110
102
}
330
110
100
AcDbXrecord
280
     1
270
     1
271
     1
  0
CELLSTYLEMAP
  5
B77B
102
{ACAD_REACTORS
330
104
102
}
330
104
100
AcDbCellStyleMap
 90
        3
300
CELLSTYLE
  1
TABLEFORMAT_BEGIN
 90
        5
170
     1
 91
        0
 92
    32768
 62
   257
 93
        1
300
CONTENTFORMAT
  1
CONTENTFORMAT_BEGIN
 90
        0
 91
        0
 92
      512
 93
        0
300

 40
0.0
140
1.0
 94
        5
 62
     0
340
11
144
0.25
309
CONTENTFORMAT_END
171
     1
301
MARGIN
  1
CELLMARGIN_BEGIN
 40
0.06
 40
0.06
 40
0.06
 40
0.06
 40
0.18
 40
0.18
309
CELLMARGIN_END
 94
        6
 95
        1
302
GRIDFORMAT
  1
GRIDFORMAT_BEGIN
 90
        0
 91
        1
 62
     0
 92
       -2
340
0
 93
        0
 40
0.045
309
GRIDFORMAT_END
 95
        2
302
GRIDFORMAT
  1
GRIDFORMAT_BEGIN
 90
        0
 91
        1
 62
     0
 92
       -2
340
0
 93
        0
 40
0.045
309
GRIDFORMAT_END
 95
        4
302
GRIDFORMAT
  1
GRIDFORMAT_BEGIN
 90
        0
 91
        1
 62
     0
 92
       -2
340
0
 93
        0
 40
0.045
309
GRIDFORMAT_END
 95
        8
302
GRIDFORMAT
  1
GRIDFORMAT_BEGIN
 90
        0
 91
        1
 62
     0
 92
       -2
340
0
 93
        0
 40
0.045
309
GRIDFORMAT_END
 95
       16
302
GRIDFORMAT
  1
GRIDFORMAT_BEGIN
 90
        0
 91
        1
 62
     0
 92
       -2
340
0
 93
        0
 40
0.045
309
GRIDFORMAT_END
 95
       32
302
GRIDFORMAT
  1
GRIDFORMAT_BEGIN
 90
        0
 91
        1
 62
     0
 92
       -2
340
0
 93
        0
 40
0.045
309
GRIDFORMAT_END
309
TABLEFORMAT_END
  1
CELLSTYLE_BEGIN
 90
        1
 91
        1
300
_TITLE
309
CELLSTYLE_END
300
CELLSTYLE
  1
TABLEFORMAT_BEGIN
 90
        5
170
     1
 91
        0
 92
        0
 62
   257
 93
        1
300
CONTENTFORMAT
  1
CONTENTFORMAT_BEGIN
 90
        0
 91
        0
 92
      512
 93
        0
300

 40
0.0
140
1.0
 94
        5
 62
     0
340
11
144
0.18
309
CONTENTFORMAT_END
171
     1
301
MARGIN
  1
CELLMARGIN_BEGIN
 40
0.06
 40
0.06
 40
0.06
 40
0.06
 40
0.18
 40
0.18
309
CELLMARGIN_END
 94
        6
 95
        1
302
GRIDFORMAT
  1
GRIDFORMAT_BEGIN
 90
        0
 91
        1
 62
     0
 92
       -2
340
0
 93
        0
 40
0.045
309
GRIDFORMAT_END
 95
        2
302
GRIDFORMAT
  1
GRIDFORMAT_BEGIN
 90
        0
 91
        1
 62
     0
 92
       -2
340
0
 93
        0
 40
0.045
309
GRIDFORMAT_END
 95
        4
302
GRIDFORMAT
  1
GRIDFORMAT_BEGIN
 90
        0
 91
        1
 62
     0
 92
       -2
340
0
 93
        0
 40
0.045
309
GRIDFORMAT_END
 95
        8
302
GRIDFORMAT
  1
GRIDFORMAT_BEGIN
 90
        0
 91
        1
 62
     0
 92
       -2
340
0
 93
        0
 40
0.045
309
GRIDFORMAT_END
 95
       16
302
GRIDFORMAT
  1
GRIDFORMAT_BEGIN
 90
        0
 91
        1
 62
     0
 92
       -2
340
0
 93
        0
 40
0.045
309
GRIDFORMAT_END
 95
       32
302
GRIDFORMAT
  1
GRIDFORMAT_BEGIN
 90
        0
 91
        1
 62
     0
 92
       -2
340
0
 93
        0
 40
0.045
309
GRIDFORMAT_END
309
TABLEFORMAT_END
  1
CELLSTYLE_BEGIN
 90
        2
 91
        1
300
_HEADER
309
CELLSTYLE_END
300
CELLSTYLE
  1
TABLEFORMAT_BEGIN
 90
        5
170
     1
 91
        0
 92
        0
 62
   257
 93
        1
300
CONTENTFORMAT
  1
CONTENTFORMAT_BEGIN
 90
        0
 91
        0
 92
      512
 93
        0
300

 40
0.0
140
1.0
 94
        2
 62
     0
340
11
144
0.18
309
CONTENTFORMAT_END
171
     1
301
MARGIN
  1
CELLMARGIN_BEGIN
 40
0.06
 40
0.06
 40
0.06
 40
0.06
 40
0.18
 40
0.18
309
CELLMARGIN_END
 94
        6
 95
        1
302
GRIDFORMAT
  1
GRIDFORMAT_BEGIN
 90
        0
 91
        1
 62
     0
 92
       -2
340
0
 93
        0
 40
0.045
309
GRIDFORMAT_END
 95
        2
302
GRIDFORMAT
  1
GRIDFORMAT_BEGIN
 90
        0
 91
        1
 62
     0
 92
       -2
340
0
 93
        0
 40
0.045
309
GRIDFORMAT_END
 95
        4
302
GRIDFORMAT
  1
GRIDFORMAT_BEGIN
 90
        0
 91
        1
 62
     0
 92
       -2
340
0
 93
        0
 40
0.045
309
GRIDFORMAT_END
 95
        8
302
GRIDFORMAT
  1
GRIDFORMAT_BEGIN
 90
        0
 91
        1
 62
     0
 92
       -2
340
0
 93
        0
 40
0.045
309
GRIDFORMAT_END
 95
       16
302
GRIDFORMAT
  1
GRIDFORMAT_BEGIN
 90
        0
 91
        1
 62
     0
 92
       -2
340
0
 93
        0
 40
0.045
309
GRIDFORMAT_END
 95
       32
302
GRIDFORMAT
  1
GRIDFORMAT_BEGIN
 90
        0
 91
        1
 62
     0
 92
       -2
340
0
 93
        0
 40
0.045
309
GRIDFORMAT_END
309
TABLEFORMAT_END
  1
CELLSTYLE_BEGIN
 90
        3
 91
        2
300
_DATA
309
CELLSTYLE_END
  0
ENDSEC
  0
SECTION
  2
ACDSDATA
 70
     2
 71
     8
  0
ACDSSCHEMA
 90
        0
  1
AcDb_Thumbnail_Schema
  2
AcDbDs::ID
280
    10
 91
        8
  2
Thumbnail_Data
280
    15
 91
        0
101
ACDSRECORD
 95
        0
 90
        1
  2
AcDbDs::TreatedAsObjectData
280
     1
291
     1
101
ACDSRECORD
 95
        0
 90
        2
  2
AcDbDs::Legacy
280
     1
291
     1
101
ACDSRECORD
  1
AcDbDs::ID
 90
        3
  2
AcDs:Indexable
280
     1
291
     1
101
ACDSRECORD
  1
AcDbDs::ID
 90
        4
  2
AcDbDs::HandleAttribute
280
     7
282
     1
  0
ACDSSCHEMA
 90
        1
  1
AcDbDs::TreatedAsObjectDataSchema
  2
AcDbDs::TreatedAsObjectData
280
     1
 91
        0
  0
ACDSSCHEMA
 90
        2
  1
AcDbDs::LegacySchema
  2
AcDbDs::Legacy
280
     1
 91
        0
  0
ACDSSCHEMA
 90
        3
  1
AcDbDs::IndexedPropertySchema
  2
AcDs:Indexable
280
     1
 91
        0
  0
ACDSSCHEMA
 90
        4
  1
AcDbDs::HandleAttributeSchema
  2
AcDbDs::HandleAttribute
280
     7
 91
        1
284
     1
  0
ACDSRECORD
 90
        0
  2
AcDbDs::ID
280
    10
320
22
  2
Thumbnail_Data
280
    15
 94
     1534
310
89504E470D0A1A0A0000000D49484452000001000000006D080300000079B14F6400000300504C5445212830FFFFFF2128300000000000000000000000000000000000000000000000000000330000660000990000CC0000FF0033000033330033660033990033CC0033FF0066000066330066660066990066CC0066FF0099
310
000099330099660099990099CC0099FF00CC0000CC3300CC6600CC9900CCCC00CCFF00FF0000FF3300FF6600FF9900FFCC00FFFF3300003300333300663300993300CC3300FF3333003333333333663333993333CC3333FF3366003366333366663366993366CC3366FF3399003399333399663399993399CC3399FF33CC00
310
33CC3333CC6633CC9933CCCC33CCFF33FF0033FF3333FF6633FF9933FFCC33FFFF6600006600336600666600996600CC6600FF6633006633336633666633996633CC6633FF6666006666336666666666996666CC6666FF6699006699336699666699996699CC6699FF66CC0066CC3366CC6666CC9966CCCC66CCFF66FF0066
310
FF3366FF6666FF9966FFCC66FFFF9900009900339900669900999900CC9900FF9933009933339933669933999933CC9933FF9966009966339966669966999966CC9966FF9999009999339999669999999999CC9999FF99CC0099CC3399CC6699CC9999CCCC99CCFF99FF0099FF3399FF6699FF9999FFCC99FFFFCC0000CC00
310
33CC0066CC0099CC00CCCC00FFCC3300CC3333CC3366CC3399CC33CCCC33FFCC6600CC6633CC6666CC6699CC66CCCC66FFCC9900CC9933CC9966CC9999CC99CCCC99FFCCCC00CCCC33CCCC66CCCC99CCCCCCCCCCFFCCFF00CCFF33CCFF66CCFF99CCFFCCCCFFFFFF0000FF0033FF0066FF0099FF00CCFF00FFFF3300FF3333
310
FF3366FF3399FF33CCFF33FFFF6600FF6633FF6666FF6699FF66CCFF66FFFF9900FF9933FF9966FF9999FF99CCFF99FFFFCC00FFCC33FFCC66FFCC99FFCCCCFFCCFFFFFF00FFFF33FFFF66FFFF99FFFFCCFFFFFF0000000D0D0D1A1A1A2828283535354343435050505D5D5D6B6B6B787878868686939393A1A1A1AEAEAEBB
310
BBBBC9C9C9D6D6D6E4E4E4F1F1F1FFFFFF0000000000000000000000000000000000000000000000000000000000002E4550F1000002B94944415478DAED9DC96EC3300C44F9FFFFFBEE059AD496AC85545014D550BE346872089F8743518B6376AE7F7341F6F8BFAFC4E1577FF301489E090C5E6704801D00D90190DC03D2
310
034859063839403D26CC3A101CFF2361239407C1E86E6721C0476FE500908200C90138894E66FD1F00090060B901042ABDF66080C847481DBF7616F06B897200EC6D81596B01F36E507FA6F827EEBED1175864E37F85382A743701B415300460E21AF01684B9DF119500552674C78097487401300170A903610B60E201C587
310
A48BE00C800903B0B9004A009204EE31006404E0877700489B4015B96F02A200C80EC0514011BB1A0042F1970010BEFFF30C1006E0F5BA986E1DA4BAA9F90010038009B443FD6697C89427121280DE16B0CA01F0264C768FBFFDF6042C50A319B8E7F45875000D05D05DFBA0B2000FC0A3644800B01080724A78D78DA33DA1
310
131B0615651014143018067B9DC05B3DDBC6DF0EF7A10B642E1FF6AE826DD567C504B7DE3EDF4C79D064840FC0768EFF36B2B2B98F6480420374B9D7BB92419BD0E9F68A33B43A4D050CEBC2204CA533B40FA98F96811902422BFE90D09BA64946FED14C5715C001B09E02BBCF84F3B89D2100288CFFEFAE9758D74F5529CA
310
A2B1B9008225ADBEEB45F7C4EE1940D0D128B7CC86F74F6FD106058B3A1DDB500040F4B910E5B4910A009EDBBF22C7439514807D9202520A78FA78320F7815B4681DCC0EC044AB40B4B541D1039E2BA01113444A012BBD6D6F153823804A0D2607C04B01240144BB215505D801B0600292C7033E5580CEA2586481971C006C
310
0580200137036401D0CC900F6AA526806B8B9B0B00D143623F5D31B10CC808C0B401BC9F02406C47B0E20199F7EC786C4FB8E01931B70C720054A27FA945CC0423000A60885900AB00C49E2CED3E06A59E3FA7A426046012129D8D145200FC5BDA6E1DD652C0D2EF0769A6C0423CC97F6EE9EFAF2F60C835503890DD8F0000
310
000049454E44AE426082
  0
ENDSEC
  0
EOF
