  0
SECTION
  2
HEADER
  9
$ACADVER
  1
AC1032
  9
$ACADMAINTVER
 90
      197
  9
$DWGCODEPAGE
  3
ANSI_1252
  9
$LASTSAVEDBY
  1
gregb
  9
$REQUIREDVERSIONS
160
                 0
  9
$INSBASE
 10
0.0
 20
0.0
 30
0.0
  9
$EXTMIN
 10
13844.34667655801
 20
9968.717291863775
 30
-0.000000000001022
  9
$EXTMAX
 10
20037.44428233452
 20
17222.55249277172
 30
0.0
  9
$LIMMIN
 10
0.0
 20
0.0
  9
$LIMMAX
 10
12.0
 20
9.0
  9
$ORTHOMODE
 70
     1
  9
$REGENMODE
 70
     1
  9
$FILLMODE
 70
     1
  9
$QTEXTMODE
 70
     0
  9
$MIRRTEXT
 70
     0
  9
$LTSCALE
 40
1.0
  9
$ATTMODE
 70
     1
  9
$TEXTSIZE
 40
0.2
  9
$TRACEWID
 40
0.05
  9
$TEXTSTYLE
  7
Standard
  9
$CLAYER
  8
freecads.com
  9
$CELTYPE
  6
ByLayer
  9
$CECOLOR
 62
   256
  9
$CELTSCALE
 40
1.0
  9
$DISPSILH
 70
     1
  9
$DIMSCALE
 40
1.0
  9
$DIMASZ
 40
0.18
  9
$DIMEXO
 40
0.0625
  9
$DIMDLI
 40
0.38
  9
$DIMRND
 40
0.0
  9
$DIMDLE
 40
0.0
  9
$DIMEXE
 40
0.18
  9
$DIMTP
 40
0.0
  9
$DIMTM
 40
0.0
  9
$DIMTXT
 40
0.18
  9
$DIMCEN
 40
0.09
  9
$DIMTSZ
 40
0.0
  9
$DIMTOL
 70
     0
  9
$DIMLIM
 70
     0
  9
$DIMTIH
 70
     1
  9
$DIMTOH
 70
     1
  9
$DIMSE1
 70
     0
  9
$DIMSE2
 70
     0
  9
$DIMTAD
 70
     0
  9
$DIMZIN
 70
     0
  9
$DIMBLK
  1

  9
$DIMASO
 70
     1
  9
$DIMSHO
 70
     1
  9
$DIMPOST
  1

  9
$DIMAPOST
  1

  9
$DIMALT
 70
     0
  9
$DIMALTD
 70
     2
  9
$DIMALTF
 40
25.4
  9
$DIMLFAC
 40
1.0
  9
$DIMTOFL
 70
     0
  9
$DIMTVP
 40
0.0
  9
$DIMTIX
 70
     0
  9
$DIMSOXD
 70
     0
  9
$DIMSAH
 70
     0
  9
$DIMBLK1
  1

  9
$DIMBLK2
  1

  9
$DIMSTYLE
  2
Standard
  9
$DIMCLRD
 70
     0
  9
$DIMCLRE
 70
     0
  9
$DIMCLRT
 70
     0
  9
$DIMTFAC
 40
1.0
  9
$DIMGAP
 40
0.09
  9
$DIMJUST
 70
     0
  9
$DIMSD1
 70
     0
  9
$DIMSD2
 70
     0
  9
$DIMTOLJ
 70
     1
  9
$DIMTZIN
 70
     0
  9
$DIMALTZ
 70
     0
  9
$DIMALTTZ
 70
     0
  9
$DIMUPT
 70
     0
  9
$DIMDEC
 70
     4
  9
$DIMTDEC
 70
     4
  9
$DIMALTU
 70
     2
  9
$DIMALTTD
 70
     2
  9
$DIMTXSTY
  7
Standard
  9
$DIMAUNIT
 70
     0
  9
$DIMADEC
 70
     0
  9
$DIMALTRND
 40
0.0
  9
$DIMAZIN
 70
     0
  9
$DIMDSEP
 70
    46
  9
$DIMATFIT
 70
     3
  9
$DIMFRAC
 70
     0
  9
$DIMLDRBLK
  1

  9
$DIMLUNIT
 70
     2
  9
$DIMLWD
 70
    -2
  9
$DIMLWE
 70
    -2
  9
$DIMTMOVE
 70
     0
  9
$DIMFXL
 40
1.0
  9
$DIMFXLON
 70
     0
  9
$DIMJOGANG
 40
0.7853981633974483
  9
$DIMTFILL
 70
     0
  9
$DIMTFILLCLR
 70
     0
  9
$DIMARCSYM
 70
     0
  9
$DIMLTYPE
  6

  9
$DIMLTEX1
  6

  9
$DIMLTEX2
  6

  9
$DIMTXTDIRECTION
 70
     0
  9
$LUNITS
 70
     2
  9
$LUPREC
 70
     4
  9
$SKETCHINC
 40
0.1
  9
$FILLETRAD
 40
0.0
  9
$AUNITS
 70
     0
  9
$AUPREC
 70
     0
  9
$MENU
  1
.
  9
$ELEVATION
 40
0.0
  9
$PELEVATION
 40
0.0
  9
$THICKNESS
 40
0.0
  9
$LIMCHECK
 70
     0
  9
$CHAMFERA
 40
0.0
  9
$CHAMFERB
 40
0.0
  9
$CHAMFERC
 40
0.0
  9
$CHAMFERD
 40
0.0
  9
$SKPOLY
 70
     0
  9
$TDCREATE
 40
2458157.371250000
  9
$TDUCREATE
 40
2458157.287916667
  9
$TDUPDATE
 40
2461016.529849537
  9
$TDUUPDATE
 40
2461016.446516204
  9
$TDINDWG
 40
0.0632638889
  9
$TDUSRTIMER
 40
0.0632638889
  9
$USRTIMER
 70
     1
  9
$ANGBASE
 50
0.0
  9
$ANGDIR
 70
     0
  9
$PDMODE
 70
     0
  9
$PDSIZE
 40
0.0
  9
$PLINEWID
 40
0.0
  9
$SPLFRAME
 70
     0
  9
$SPLINETYPE
 70
     6
  9
$SPLINESEGS
 70
     8
  9
$HANDSEED
  5
9FB4
  9
$SURFTAB1
 70
     6
  9
$SURFTAB2
 70
     6
  9
$SURFTYPE
 70
     6
  9
$SURFU
 70
     6
  9
$SURFV
 70
     6
  9
$UCSBASE
  2

  9
$UCSNAME
  2

  9
$UCSORG
 10
0.0
 20
0.0
 30
0.0
  9
$UCSXDIR
 10
1.0
 20
0.0
 30
0.0
  9
$UCSYDIR
 10
0.0
 20
1.0
 30
0.0
  9
$UCSORTHOREF
  2

  9
$UCSORTHOVIEW
 70
     0
  9
$UCSORGTOP
 10
0.0
 20
0.0
 30
0.0
  9
$UCSORGBOTTOM
 10
0.0
 20
0.0
 30
0.0
  9
$UCSORGLEFT
 10
0.0
 20
0.0
 30
0.0
  9
$UCSORGRIGHT
 10
0.0
 20
0.0
 30
0.0
  9
$UCSORGFRONT
 10
0.0
 20
0.0
 30
0.0
  9
$UCSORGBACK
 10
0.0
 20
0.0
 30
0.0
  9
$PUCSBASE
  2

  9
$PUCSNAME
  2

  9
$PUCSORG
 10
0.0
 20
0.0
 30
0.0
  9
$PUCSXDIR
 10
1.0
 20
0.0
 30
0.0
  9
$PUCSYDIR
 10
0.0
 20
1.0
 30
0.0
  9
$PUCSORTHOREF
  2

  9
$PUCSORTHOVIEW
 70
     0
  9
$PUCSORGTOP
 10
0.0
 20
0.0
 30
0.0
  9
$PUCSORGBOTTOM
 10
0.0
 20
0.0
 30
0.0
  9
$PUCSORGLEFT
 10
0.0
 20
0.0
 30
0.0
  9
$PUCSORGRIGHT
 10
0.0
 20
0.0
 30
0.0
  9
$PUCSORGFRONT
 10
0.0
 20
0.0
 30
0.0
  9
$PUCSORGBACK
 10
0.0
 20
0.0
 30
0.0
  9
$USERI1
 70
     0
  9
$USERI2
 70
     0
  9
$USERI3
 70
     0
  9
$USERI4
 70
     0
  9
$USERI5
 70
     0
  9
$USERR1
 40
0.0
  9
$USERR2
 40
0.0
  9
$USERR3
 40
0.0
  9
$USERR4
 40
0.0
  9
$USERR5
 40
0.0
  9
$WORLDVIEW
 70
     1
  9
$SHADEDGE
 70
     3
  9
$SHADEDIF
 70
    70
  9
$TILEMODE
 70
     1
  9
$MAXACTVP
 70
    64
  9
$PINSBASE
 10
0.0
 20
0.0
 30
0.0
  9
$PLIMCHECK
 70
     0
  9
$PEXTMIN
 10
0.0
 20
0.0
 30
0.0
  9
$PEXTMAX
 10
0.0
 20
0.0
 30
0.0
  9
$PLIMMIN
 10
0.0
 20
0.0
  9
$PLIMMAX
 10
12.0
 20
9.0
  9
$UNITMODE
 70
     0
  9
$VISRETAIN
 70
     1
  9
$PLINEGEN
 70
     0
  9
$PSLTSCALE
 70
     1
  9
$TREEDEPTH
 70
  3020
  9
$CMLSTYLE
  2
Standard
  9
$CMLJUST
 70
     0
  9
$CMLSCALE
 40
1.0
  9
$PROXYGRAPHICS
 70
     1
  9
$MEASUREMENT
 70
     0
  9
$CELWEIGHT
370
    -1
  9
$ENDCAPS
280
     0
  9
$JOINSTYLE
280
     0
  9
$LWDISPLAY
290
     0
  9
$INSUNITS
 70
     1
  9
$HYPERLINKBASE
  1

  9
$STYLESHEET
  1
monochrome.ctb
  9
$XEDIT
290
     1
  9
$CEPSNTYPE
380
     0
  9
$PSTYLEMODE
290
     1
  9
$FINGERPRINTGUID
  2
{358EB121-6EE0-9143-8A3E-6E8E8869FDA6}
  9
$VERSIONGUID
  2
{3F477FBC-403C-984A-BBFC-2208DD445326}
  9
$EXTNAMES
290
     1
  9
$PSVPSCALE
 40
0.0
  9
$OLESTARTUP
290
     0
  9
$SORTENTS
280
   127
  9
$INDEXCTL
280
     0
  9
$HIDETEXT
280
     1
  9
$XCLIPFRAME
280
     2
  9
$HALOGAP
280
     0
  9
$OBSCOLOR
 70
   257
  9
$OBSLTYPE
280
     0
  9
$INTERSECTIONDISPLAY
280
     0
  9
$INTERSECTIONCOLOR
 70
   257
  9
$DIMASSOC
280
     2
  9
$PROJECTNAME
  1

  9
$CAMERADISPLAY
290
     0
  9
$LENSLENGTH
 40
50.0
  9
$CAMERAHEIGHT
 40
0.0
  9
$STEPSPERSEC
 40
2.0
  9
$STEPSIZE
 40
6.0
  9
$3DDWFPREC
 40
2.0
  9
$PSOLWIDTH
 40
0.25
  9
$PSOLHEIGHT
 40
4.0
  9
$LOFTANG1
 40
1.570796326794896
  9
$LOFTANG2
 40
1.570796326794896
  9
$LOFTMAG1
 40
0.0
  9
$LOFTMAG2
 40
0.0
  9
$LOFTPARAM
 70
     7
  9
$LOFTNORMALS
280
     1
  9
$LATITUDE
 40
37.795
  9
$LONGITUDE
 40
-122.394
  9
$NORTHDIRECTION
 40
0.0
  9
$TIMEZONE
 70
 -8000
  9
$LIGHTGLYPHDISPLAY
280
     1
  9
$TILEMODELIGHTSYNCH
280
     1
  9
$CMATERIAL
347
96
  9
$SOLIDHIST
280
     0
  9
$SHOWHIST
280
     1
  9
$DWFFRAME
280
     2
  9
$DGNFRAME
280
     0
  9
$REALWORLDSCALE
290
     1
  9
$INTERFERECOLOR
 62
     1
  9
$INTERFEREOBJVS
345
A3
  9
$INTERFEREVPVS
346
A0
  9
$CSHADOW
280
     0
  9
$SHADOWPLANELOCATION
 40
0.0
  0
ENDSEC
  0
SECTION
  2
CLASSES
  0
CLASS
  1
ACDBDICTIONARYWDFLT
  2
AcDbDictionaryWithDefault
  3
ObjectDBX Classes
 90
        0
 91
        1
280
     0
281
     0
  0
CLASS
  1
DICTIONARYVAR
  2
AcDbDictionaryVar
  3
ObjectDBX Classes
 90
        0
 91
       10
280
     0
281
     0
  0
CLASS
  1
TABLESTYLE
  2
AcDbTableStyle
  3
ObjectDBX Classes
 90
     4095
 91
        1
280
     0
281
     0
  0
CLASS
  1
MATERIAL
  2
AcDbMaterial
  3
ObjectDBX Classes
 90
     1153
 91
        3
280
     0
281
     0
  0
CLASS
  1
VISUALSTYLE
  2
AcDbVisualStyle
  3
ObjectDBX Classes
 90
     4095
 91
       24
280
     0
281
     0
  0
CLASS
  1
SCALE
  2
AcDbScale
  3
ObjectDBX Classes
 90
     1153
 91
       35
280
     0
281
     0
  0
CLASS
  1
MLEADERSTYLE
  2
AcDbMLeaderStyle
  3
ACDB_MLEADERSTYLE_CLASS
 90
     4095
 91
        1
280
     0
281
     0
  0
CLASS
  1
CELLSTYLEMAP
  2
AcDbCellStyleMap
  3
ObjectDBX Classes
 90
     1152
 91
        2
280
     0
281
     0
  0
CLASS
  1
EXACXREFPANELOBJECT
  2
ExAcXREFPanelObject
  3
EXAC_ESW
 90
     1025
 91
        0
280
     0
281
     0
  0
CLASS
  1
NPOCOLLECTION
  2
AcDbImpNonPersistentObjectsCollection
  3
ObjectDBX Classes
 90
     1153
 91
        0
280
     0
281
     0
  0
CLASS
  1
LAYER_INDEX
  2
AcDbLayerIndex
  3
ObjectDBX Classes
 90
        0
 91
        0
280
     0
281
     0
  0
CLASS
  1
SPATIAL_INDEX
  2
AcDbSpatialIndex
  3
ObjectDBX Classes
 90
        0
 91
        0
280
     0
281
     0
  0
CLASS
  1
IDBUFFER
  2
AcDbIdBuffer
  3
ObjectDBX Classes
 90
        0
 91
        0
280
     0
281
     0
  0
CLASS
  1
ACDBSECTIONVIEWSTYLE
  2
AcDbSectionViewStyle
  3
ObjectDBX Classes
 90
     1025
 91
        2
280
     0
281
     0
  0
CLASS
  1
ACDBDETAILVIEWSTYLE
  2
AcDbDetailViewStyle
  3
ObjectDBX Classes
 90
     1025
 91
        2
280
     0
281
     0
  0
CLASS
  1
SORTENTSTABLE
  2
AcDbSortentsTable
  3
ObjectDBX Classes
 90
        0
 91
        1
280
     0
281
     0
  0
CLASS
  1
DIMASSOC
  2
AcDbDimAssoc
  3
"AcDbDimAssoc|Product Desc:     AcDim ARX App For Dimension|Company:          Autodesk, Inc.|WEB Address:      www.autodesk.com"
 90
        0
 91
        0
280
     0
281
     0
  0
ENDSEC
  0
SECTION
  2
TABLES
  0
TABLE
  2
VPORT
  5
8
330
0
100
AcDbSymbolTable
 70
     1
  0
VPORT
  5
94
330
8
100
AcDbSymbolTableRecord
100
AcDbViewportTableRecord
  2
*Active
 70
     0
 10
0.0
 20
0.0
 11
1.0
 21
1.0
 12
16940.83734712491
 22
14424.79981562262
 13
0.0
 23
0.0
 14
0.5
 24
0.5
 15
0.5
 25
0.5
 16
0.0
 26
0.0
 36
1.0
 17
0.0
 27
0.0
 37
0.0
 40
8459.924420992688
 41
2.114740368509212
 42
50.0
 43
0.0
 44
0.0
 50
0.0
 51
0.0
 71
     0
 72
  1000
 73
     1
 74
     3
 75
     0
 76
     0
 77
     0
 78
     0
281
     0
 65
     1
110
0.0
120
0.0
130
0.0
111
1.0
121
0.0
131
0.0
112
0.0
122
1.0
132
0.0
 79
     0
146
0.0
348
9F
 60
     3
 61
     5
292
     1
282
     1
141
0.0
142
0.0
 63
   250
421
  3355443
1001
ACAD_NAV_VCDISPLAY
1070
     3
  0
ENDTAB
  0
TABLE
  2
LTYPE
  5
5
330
0
100
AcDbSymbolTable
 70
     1
  0
LTYPE
  5
14
330
5
100
AcDbSymbolTableRecord
100
AcDbLinetypeTableRecord
  2
ByBlock
 70
     0
  3

 72
    65
 73
     0
 40
0.0
  0
LTYPE
  5
15
330
5
100
AcDbSymbolTableRecord
100
AcDbLinetypeTableRecord
  2
ByLayer
 70
     0
  3

 72
    65
 73
     0
 40
0.0
  0
LTYPE
  5
16
330
5
100
AcDbSymbolTableRecord
100
AcDbLinetypeTableRecord
  2
Continuous
 70
     0
  3
Solid line
 72
    65
 73
     0
 40
0.0
  0
ENDTAB
  0
TABLE
  2
LAYER
  5
2
102
{ACAD_XDICTIONARY
360
18E
102
}
330
0
100
AcDbSymbolTable
 70
     2
  0
LAYER
  5
10
102
{ACAD_XDICTIONARY
360
E6
102
}
330
2
100
AcDbSymbolTableRecord
100
AcDbLayerTableRecord
  2
0
 70
     0
 62
     7
  6
Continuous
370
    -3
390
F
347
98
348
0
  0
LAYER
  5
204
330
2
100
AcDbSymbolTableRecord
100
AcDbLayerTableRecord
  2
freecads.com
 70
     0
 62
     7
  6
Continuous
370
    -3
390
F
347
98
348
0
1001
AcAecLayerStandard
1000

1000

1001
AcCmTransparency
1071
        0
  0
ENDTAB
  0
TABLE
  2
STYLE
  5
3
330
0
100
AcDbSymbolTable
 70
     1
  0
STYLE
  5
11
330
3
100
AcDbSymbolTableRecord
100
AcDbTextStyleTableRecord
  2
Standard
 70
     0
 40
0.0
 41
1.0
 50
0.0
 71
     0
 42
0.2
  3
arial.ttf
  4

1001
ACAD
1000
Arial
1071
       34
  0
ENDTAB
  0
TABLE
  2
VIEW
  5
6
330
0
100
AcDbSymbolTable
 70
     0
  0
ENDTAB
  0
TABLE
  2
UCS
  5
7
330
0
100
AcDbSymbolTable
 70
     0
  0
ENDTAB
  0
TABLE
  2
APPID
  5
9
330
0
100
AcDbSymbolTable
 70
    20
  0
APPID
  5
12
330
9
100
AcDbSymbolTableRecord
100
AcDbRegAppTableRecord
  2
ACAD
 70
     0
  0
APPID
  5
DD
330
9
100
AcDbSymbolTableRecord
100
AcDbRegAppTableRecord
  2
AcadAnnoPO
 70
     0
  0
APPID
  5
DE
330
9
100
AcDbSymbolTableRecord
100
AcDbRegAppTableRecord
  2
AcadAnnotative
 70
     0
  0
APPID
  5
DF
330
9
100
AcDbSymbolTableRecord
100
AcDbRegAppTableRecord
  2
ACAD_DSTYLE_DIMJAG
 70
     0
  0
APPID
  5
E0
330
9
100
AcDbSymbolTableRecord
100
AcDbRegAppTableRecord
  2
ACAD_DSTYLE_DIMTALN
 70
     0
  0
APPID
  5
107
330
9
100
AcDbSymbolTableRecord
100
AcDbRegAppTableRecord
  2
ACAD_MLEADERVER
 70
     0
  0
APPID
  5
1A6
330
9
100
AcDbSymbolTableRecord
100
AcDbRegAppTableRecord
  2
ACAD_NAV_VCDISPLAY
 70
     0
  0
APPID
  5
205
330
9
100
AcDbSymbolTableRecord
100
AcDbRegAppTableRecord
  2
AcAecLayerStandard
 70
     0
  0
APPID
  5
206
330
9
100
AcDbSymbolTableRecord
100
AcDbRegAppTableRecord
  2
AcCmTransparency
 70
     0
  0
APPID
  5
222
330
9
100
AcDbSymbolTableRecord
100
AcDbRegAppTableRecord
  2
ACAD_PSEXT
 70
     0
  0
APPID
  5
2DA
330
9
100
AcDbSymbolTableRecord
100
AcDbRegAppTableRecord
  2
GradientColor1ACI
 70
     0
  0
APPID
  5
2DB
330
9
100
AcDbSymbolTableRecord
100
AcDbRegAppTableRecord
  2
GradientColor2ACI
 70
     0
  0
APPID
  5
2F3
330
9
100
AcDbSymbolTableRecord
100
AcDbRegAppTableRecord
  2
ACAD_EXEMPT_FROM_CAD_STANDARDS
 70
     0
  0
APPID
  5
A1A
330
9
100
AcDbSymbolTableRecord
100
AcDbRegAppTableRecord
  2
AcDbBlockRepETag
 70
     0
  0
APPID
  5
22FD
330
9
100
AcDbSymbolTableRecord
100
AcDbRegAppTableRecord
  2
ACAD_DSTYLE_DIMBREAK
 70
     0
  0
APPID
  5
67C0
330
9
100
AcDbSymbolTableRecord
100
AcDbRegAppTableRecord
  2
RAK
 70
     0
  0
APPID
  5
75EB
330
9
100
AcDbSymbolTableRecord
100
AcDbRegAppTableRecord
  2
AEC_XDATA_BOUND_SPACE
 70
     0
  0
APPID
  5
884E
330
9
100
AcDbSymbolTableRecord
100
AcDbRegAppTableRecord
  2
AcDbDynamicBlockGUID
 70
     0
  0
APPID
  5
8F0A
330
9
100
AcDbSymbolTableRecord
100
AcDbRegAppTableRecord
  2
ACAD_DSTYLE_DIMJOGGED_JOGANGLE_SYMBOL
 70
     0
  0
APPID
  5
9B00
330
9
100
AcDbSymbolTableRecord
100
AcDbRegAppTableRecord
  2
AME_SOL
 70
     0
  0
ENDTAB
  0
TABLE
  2
DIMSTYLE
  5
A
330
0
100
AcDbSymbolTable
 70
     1
100
AcDbDimStyleTable
 71
     1
340
27
  0
DIMSTYLE
105
27
330
A
100
AcDbSymbolTableRecord
100
AcDbDimStyleTableRecord
  2
Standard
 70
     0
340
11
  0
ENDTAB
  0
TABLE
  2
BLOCK_RECORD
  5
1
330
0
100
AcDbSymbolTable
 70
     1
  0
BLOCK_RECORD
  5
1F
102
{ACAD_XDICTIONARY
360
15D
102
}
330
1
100
AcDbSymbolTableRecord
100
AcDbBlockTableRecord
  2
*Model_Space
340
22
 70
     0
280
     1
281
     0
  0
BLOCK_RECORD
  5
58
330
1
100
AcDbSymbolTableRecord
100
AcDbBlockTableRecord
  2
*Paper_Space
340
59
 70
     0
280
     1
281
     0
  0
BLOCK_RECORD
  5
5D
330
1
100
AcDbSymbolTableRecord
100
AcDbBlockTableRecord
  2
*Paper_Space0
340
5E
 70
     0
280
     1
281
     0
  0
ENDTAB
  0
ENDSEC
  0
SECTION
  2
BLOCKS
  0
BLOCK
  5
20
330
1F
100
AcDbEntity
  8
0
100
AcDbBlockBegin
  2
*Model_Space
 70
     0
 10
0.0
 20
0.0
 30
0.0
  3
*Model_Space
  1

  0
ENDBLK
  5
21
330
1F
100
AcDbEntity
  8
0
100
AcDbBlockEnd
  0
BLOCK
  5
5A
330
58
100
AcDbEntity
 67
     1
  8
0
100
AcDbBlockBegin
  2
*Paper_Space
 70
     0
 10
0.0
 20
0.0
 30
0.0
  3
*Paper_Space
  1

  0
ENDBLK
  5
5B
330
58
100
AcDbEntity
 67
     1
  8
0
100
AcDbBlockEnd
  0
BLOCK
  5
5F
330
5D
100
AcDbEntity
 67
     1
  8
0
100
AcDbBlockBegin
  2
*Paper_Space0
 70
     0
 10
0.0
 20
0.0
 30
0.0
  3
*Paper_Space0
  1

  0
ENDBLK
  5
60
330
5D
100
AcDbEntity
 67
     1
  8
0
100
AcDbBlockEnd
  0
ENDSEC
  0
SECTION
  2
ENTITIES
  0
LINE
  5
9B09
330
1F
100
AcDbEntity
  8
freecads.com
100
AcDbLine
 10
19887.44428233452
 20
12168.46729186377
 30
0.0
 11
19572.44428233452
 21
12168.46729186377
 31
0.0
  0
LINE
  5
9B0A
330
1F
100
AcDbEntity
  8
freecads.com
100
AcDbLine
 10
19729.94428233452
 20
12138.46729186377
 30
0.0
 11
19572.44428233452
 21
12138.46729186377
 31
0.0
  0
ARC
  5
9B0B
330
1F
100
AcDbEntity
  8
freecads.com
100
AcDbCircle
 10
18966.75686586671
 20
12308.24979393675
 30
0.0
 40
15.0
100
AcDbArc
 50
303.565870773846
 51
33.5658707646349
  0
LINE
  5
9B0C
330
1F
100
AcDbEntity
  8
freecads.com
100
AcDbLine
 10
19265.1259262606
 20
11885.71729186377
 30
0.0
 11
19493.06224797898
 21
11885.71729186377
 31
0.0
1001
AME_SOL
1070
     0
1071
        0
  0
LINE
  5
9B0D
330
1F
100
AcDbEntity
  8
freecads.com
100
AcDbLine
 10
19271.09778752922
 20
11876.71729186377
 30
0.0
 11
19502.06224797898
 21
11876.71729186377
 31
0.0
1001
AME_SOL
1070
     0
1071
        0
  0
ARC
  5
9B0E
330
1F
100
AcDbEntity
  8
freecads.com
100
AcDbCircle
 10
19572.44428233452
 20
12018.46729186377
 30
0.0
 40
120.0
100
AcDbArc
 50
90.0
 51
224.9999999999509
  0
ARC
  5
9B0F
330
1F
100
AcDbEntity
  8
freecads.com
100
AcDbCircle
 10
19572.44428233452
 20
12018.46729186377
 30
0.0
 40
150.0
100
AcDbArc
 50
90.0
 51
224.9999999999509
  0
ARC
  5
9B10
330
1F
100
AcDbEntity
  8
freecads.com
100
AcDbCircle
 10
18817.47513297176
 20
12533.22749110634
 30
0.0
 40
15.0
100
AcDbArc
 50
33.5658707646349
 51
123.565870773846
  0
ARC
  5
9B11
330
1F
100
AcDbEntity
  8
freecads.com
100
AcDbCircle
 10
19887.44428233452
 20
12018.46729186377
 30
0.0
 40
150.0000000000001
100
AcDbArc
 50
315.0000000000491
 51
90.0
  0
ARC
  5
9B12
330
1F
100
AcDbEntity
  8
freecads.com
100
AcDbCircle
 10
19887.44428233452
 20
12018.46729186377
 30
0.0
 40
120.0000000000001
100
AcDbArc
 50
315.0000000000491
 51
90.0
  0
LINE
  5
9B13
330
1F
100
AcDbEntity
  8
freecads.com
100
AcDbLine
 10
19804.94428233452
 20
12013.21729186377
 30
0.0
 11
19804.94428233452
 21
12138.46729186377
 31
0.0
  0
LINE
  5
9B14
330
1F
100
AcDbEntity
  8
freecads.com
100
AcDbLine
 10
19692.44428233452
 20
11975.71729186377
 30
0.0
 11
19654.94428233452
 21
12013.21729186377
 31
0.0
  0
LINE
  5
9B15
330
1F
100
AcDbEntity
  8
freecads.com
100
AcDbLine
 10
19654.94428233452
 20
12013.21729186377
 30
0.0
 11
19654.94428233452
 21
12138.46729186377
 31
0.0
  0
LINE
  5
9B16
330
1F
100
AcDbEntity
  8
freecads.com
100
AcDbLine
 10
19692.44428233452
 20
11975.71729186377
 30
0.0
 11
19767.44428233452
 21
11975.71729186377
 31
0.0
  0
LINE
  5
9B17
330
1F
100
AcDbEntity
  8
freecads.com
100
AcDbLine
 10
19887.44428233452
 20
12138.46729186377
 30
0.0
 11
19729.94428233452
 21
12138.46729186377
 31
0.0
  0
LINE
  5
9B18
330
1F
100
AcDbEntity
  8
freecads.com
100
AcDbLine
 10
19767.44428233452
 20
11975.71729186377
 30
0.0
 11
19804.94428233452
 21
12013.21729186377
 31
0.0
  0
CIRCLE
  5
9B19
330
1F
100
AcDbEntity
  8
freecads.com
100
AcDbCircle
 10
19650.44428233452
 20
11033.71729186377
 30
-0.000000000001022
 40
25.5
1001
AME_SOL
1070
     0
1071
        0
  0
CIRCLE
  5
9B1A
330
1F
100
AcDbEntity
  8
freecads.com
100
AcDbCircle
 10
19650.44428233452
 20
11033.71729186377
 30
-0.000000000001022
 40
25.5
1001
AME_SOL
1070
     0
1071
        0
  0
CIRCLE
  5
9B1B
330
1F
100
AcDbEntity
  8
freecads.com
100
AcDbCircle
 10
19650.44428233452
 20
11033.71729186377
 30
-0.000000000001022
 40
25.5
1001
AME_SOL
1070
     0
1071
        0
  0
LINE
  5
9B1C
330
1F
100
AcDbEntity
  8
freecads.com
100
AcDbLine
 10
19800.44428233452
 20
10460.71729186377
 30
0.0
 11
19800.44428233452
 21
10685.71729186377
 31
0.0
  0
LINE
  5
9B1D
330
1F
100
AcDbEntity
  8
freecads.com
100
AcDbLine
 10
19807.94428233452
 20
10460.71729186377
 30
0.0
 11
19807.94428233452
 21
10685.71729186377
 31
0.0
  0
LINE
  5
9B1E
330
1F
100
AcDbEntity
  8
freecads.com
100
AcDbLine
 10
19537.94428233452
 20
10445.71729186377
 30
0.0
 11
19612.94428233452
 21
10445.71729186377
 31
0.0
210
0.0
220
1.0
230
0.0
1001
AME_SOL
1070
     0
1071
        0
  0
LINE
  5
9B1F
330
1F
100
AcDbEntity
  8
freecads.com
100
AcDbLine
 10
19500.44428233452
 20
10423.21729186377
 30
0.0
 11
19650.44428233452
 21
10423.21729186377
 31
0.0
210
0.0
220
1.0
230
0.0
1001
AME_SOL
1070
     0
1071
        0
  0
LINE
  5
9B20
330
1F
100
AcDbEntity
  8
freecads.com
100
AcDbLine
 10
19392.44428233452
 20
10385.71729186377
 30
0.0
 11
19662.44428233452
 21
10385.71729186377
 31
0.0
210
0.0
220
1.0
230
0.0
1001
AME_SOL
1070
     0
1071
        0
  0
LINE
  5
9B21
330
1F
100
AcDbEntity
  8
freecads.com
100
AcDbLine
 10
19682.69428233452
 20
10385.71729186377
 30
0.0
 11
19377.44428233452
 21
10385.71729186377
 31
0.0
210
0.0
220
1.0
230
0.0
1001
AME_SOL
1070
     0
1071
        0
  0
LINE
  5
9B22
330
1F
100
AcDbEntity
  8
freecads.com
100
AcDbLine
 10
19392.44428233452
 20
10400.71729186377
 30
0.0
 11
19682.69428233452
 21
10400.71729186377
 31
0.0
210
0.0
220
1.0
230
0.0
1001
AME_SOL
1070
     0
1071
        0
  0
LINE
  5
9B23
330
1F
100
AcDbEntity
  8
freecads.com
100
AcDbLine
 10
19170.44428233452
 20
10430.71729186377
 30
0.0
 11
19125.44428233452
 21
10430.71729186377
 31
0.0
  0
LINE
  5
9B24
330
1F
100
AcDbEntity
  8
freecads.com
100
AcDbLine
 10
19125.44428233452
 20
10430.71729186377
 30
0.0
 11
19125.44428233452
 21
10460.71729186377
 31
0.0
  0
LINE
  5
9B25
330
1F
100
AcDbEntity
  8
freecads.com
100
AcDbLine
 10
19537.94428233452
 20
10423.21729186377
 30
0.0
 11
19537.94428233452
 21
10460.71729186377
 31
0.0
  0
LINE
  5
9B26
330
1F
100
AcDbEntity
  8
freecads.com
100
AcDbLine
 10
19500.44428233452
 20
10400.71729186377
 30
0.0
 11
19500.44428233452
 21
10423.21729186377
 31
0.0
  0
LINE
  5
9B27
330
1F
100
AcDbEntity
  8
freecads.com
100
AcDbLine
 10
19377.44428233452
 20
10385.71729186377
 30
0.0
 11
19392.44428233452
 21
10385.71729186377
 31
0.0
210
0.0
220
1.0
230
0.0
1001
AME_SOL
1070
     0
1071
        0
  0
LINE
  5
9B28
330
1F
100
AcDbEntity
  8
freecads.com
100
AcDbLine
 10
19170.44428233452
 20
10430.71729186377
 30
0.0
 11
19170.44428233452
 21
10460.71729186377
 31
0.0
  0
LINE
  5
9B29
330
1F
100
AcDbEntity
  8
freecads.com
100
AcDbLine
 10
19767.44428233452
 20
10267.26738646646
 30
0.0
 11
19692.44428233452
 21
10267.26738646646
 31
0.0
  0
LINE
  5
9B2A
330
1F
100
AcDbEntity
  8
freecads.com
100
AcDbLine
 10
19667.69428233452
 20
10196.71729186377
 30
0.0
 11
19667.69428233452
 21
10343.71729186377
 31
0.0
  0
LINE
  5
9B2B
330
1F
100
AcDbEntity
  8
freecads.com
100
AcDbLine
 10
19767.44428233452
 20
10385.71729186377
 30
0.0
 11
19767.44428233452
 21
10400.71729186377
 31
0.0
210
0.0
220
1.0
230
0.0
1001
AME_SOL
1070
     0
1071
        0
  0
LINE
  5
9B2C
330
1F
100
AcDbEntity
  8
freecads.com
100
AcDbLine
 10
19626.44428233452
 20
10343.71729186377
 30
0.0
 11
19667.69428233452
 21
10343.71729186377
 31
0.0
  0
LINE
  5
9B2D
330
1F
100
AcDbEntity
  8
freecads.com
100
AcDbLine
 10
19612.94428233452
 20
10423.21729186377
 30
0.0
 11
19612.94428233452
 21
10460.71729186377
 31
0.0
  0
LINE
  5
9B2E
330
1F
100
AcDbEntity
  8
freecads.com
100
AcDbLine
 10
19650.44428233452
 20
10400.71729186377
 30
0.0
 11
19650.44428233452
 21
10423.21729186377
 31
0.0
  0
LINE
  5
9B2F
330
1F
100
AcDbEntity
  8
freecads.com
100
AcDbLine
 10
19800.44428233452
 20
10460.71729186377
 30
0.0
 11
19767.44428233452
 21
10460.71729186377
 31
0.0
1001
ACAD
1000
ASC_BOUNDS
1002
{
1070
    19
1005
0
1005
0
1002
}
  0
LINE
  5
9B30
330
1F
100
AcDbEntity
  8
freecads.com
100
AcDbLine
 10
19692.44428233452
 20
10430.71729186377
 30
0.0
 11
19692.44428233452
 21
10625.71729186377
 31
0.0
1001
AME_SOL
1070
     0
1071
        0
  0
LINE
  5
9B31
330
1F
100
AcDbEntity
  8
freecads.com
100
AcDbLine
 10
19691.69428233452
 20
10625.71729186377
 30
0.0
 11
19682.69428233452
 21
10625.71729186377
 31
0.0
1001
AME_SOL
1070
     0
1071
        0
  0
LINE
  5
9B32
330
1F
100
AcDbEntity
  8
freecads.com
100
AcDbLine
 10
19692.44428233452
 20
10430.71729186377
 30
0.0
 11
19767.44428233452
 21
10430.71729186377
 31
0.0
1001
AME_SOL
1070
     0
1071
        0
  0
LINE
  5
9B33
330
1F
100
AcDbEntity
  8
freecads.com
100
AcDbLine
 10
19768.19428233452
 20
10625.71729186377
 30
0.0
 11
19777.19428233452
 21
10625.71729186377
 31
0.0
1001
AME_SOL
1070
     0
1071
        0
  0
LINE
  5
9B34
330
1F
100
AcDbEntity
  8
freecads.com
100
AcDbLine
 10
19798.19428233452
 20
10184.71729186377
 30
0.0
 11
19798.19428233452
 21
10196.71729186377
 31
0.0
  0
LINE
  5
9B35
330
1F
100
AcDbEntity
  8
freecads.com
100
AcDbLine
 10
19820.69428233452
 20
10184.71729186377
 30
0.0
 11
19820.69428233452
 21
10196.71729186377
 31
0.0
  0
LINE
  5
9B36
330
1F
100
AcDbEntity
  8
freecads.com
100
AcDbLine
 10
19692.44428233452
 20
10340.71729186377
 30
0.0
 11
19767.44428233452
 21
10340.71729186377
 31
0.0
1001
AME_SOL
1070
     0
1071
        0
  0
LINE
  5
9B37
330
1F
100
AcDbEntity
  8
freecads.com
100
AcDbLine
 10
19661.69428233452
 20
10184.71729186377
 30
0.0
 11
19661.69428233452
 21
10196.71729186377
 31
0.0
  0
LINE
  5
9B38
330
1F
100
AcDbEntity
  8
freecads.com
100
AcDbLine
 10
19777.19428233452
 20
10179.46729186377
 30
0.0
 11
19783.19428233452
 21
10179.46729186377
 31
0.0
  0
LINE
  5
9B39
330
1F
100
AcDbEntity
  8
freecads.com
100
AcDbLine
 10
19777.19428233452
 20
10201.96729186377
 30
0.0
 11
19783.19428233452
 21
10201.96729186377
 31
0.0
  0
LINE
  5
9B3A
330
1F
100
AcDbEntity
  8
freecads.com
100
AcDbLine
 10
19639.19428233452
 20
10184.71729186377
 30
0.0
 11
19676.69428233452
 21
10184.71729186377
 31
0.0
  0
LINE
  5
9B3B
330
1F
100
AcDbEntity
  8
freecads.com
100
AcDbLine
 10
19639.19428233452
 20
10196.71729186377
 30
0.0
 11
19676.69428233452
 21
10196.71729186377
 31
0.0
  0
LINE
  5
9B3C
330
1F
100
AcDbEntity
  8
freecads.com
100
AcDbLine
 10
19676.69428233452
 20
10179.46729186377
 30
0.0
 11
19682.69428233452
 21
10179.46729186377
 31
0.0
  0
LINE
  5
9B3D
330
1F
100
AcDbEntity
  8
freecads.com
100
AcDbLine
 10
19676.69428233452
 20
10201.96729186377
 30
0.0
 11
19682.69428233452
 21
10201.96729186377
 31
0.0
  0
LINE
  5
9B3E
330
1F
100
AcDbEntity
  8
freecads.com
100
AcDbLine
 10
19783.19428233452
 20
10179.46729186377
 30
0.0
 11
19783.19428233452
 21
10201.96729186377
 31
0.0
  0
LINE
  5
9B3F
330
1F
100
AcDbEntity
  8
freecads.com
100
AcDbLine
 10
19676.69428233452
 20
10179.46729186377
 30
0.0
 11
19676.69428233452
 21
10201.96729186377
 31
0.0
  0
LINE
  5
9B40
330
1F
100
AcDbEntity
  8
freecads.com
100
AcDbLine
 10
19639.19428233452
 20
10184.71729186377
 30
0.0
 11
19639.19428233452
 21
10196.71729186377
 31
0.0
  0
LINE
  5
9B41
330
1F
100
AcDbEntity
  8
freecads.com
100
AcDbLine
 10
19768.19428233452
 20
10325.71729186377
 30
0.0
 11
19777.19428233452
 21
10325.71729186377
 31
0.0
  0
LINE
  5
9B42
330
1F
100
AcDbEntity
  8
freecads.com
100
AcDbLine
 10
19682.69428233452
 20
10325.71729186377
 30
0.0
 11
19691.69428233452
 21
10325.71729186377
 31
0.0
  0
LINE
  5
9B43
330
1F
100
AcDbEntity
  8
freecads.com
100
AcDbLine
 10
19768.19428233452
 20
10175.71729186377
 30
0.0
 11
19777.19428233452
 21
10175.71729186377
 31
0.0
  0
LINE
  5
9B44
330
1F
100
AcDbEntity
  8
freecads.com
100
AcDbLine
 10
19682.69428233452
 20
10175.71729186377
 30
0.0
 11
19691.69428233452
 21
10175.71729186377
 31
0.0
  0
LINE
  5
9B45
330
1F
100
AcDbEntity
  8
freecads.com
100
AcDbLine
 10
19783.19428233452
 20
10196.71729186377
 30
0.0
 11
19820.69428233452
 21
10196.71729186377
 31
0.0
  0
LINE
  5
9B46
330
1F
100
AcDbEntity
  8
freecads.com
100
AcDbLine
 10
19783.19428233452
 20
10184.71729186377
 30
0.0
 11
19820.69428233452
 21
10184.71729186377
 31
0.0
  0
LINE
  5
9B47
330
1F
100
AcDbEntity
  8
freecads.com
100
AcDbLine
 10
19682.69428233452
 20
10175.71729186377
 30
0.0
 11
19682.69428233452
 21
10625.71729186377
 31
0.0
  0
LINE
  5
9B48
330
1F
100
AcDbEntity
  8
freecads.com
100
AcDbLine
 10
19777.19428233452
 20
10175.71729186377
 30
0.0
 11
19777.19428233452
 21
10625.71729186377
 31
0.0
  0
LINE
  5
9B49
330
1F
100
AcDbEntity
  8
freecads.com
100
AcDbLine
 10
19768.19428233452
 20
10175.71729186377
 30
0.0
 11
19768.19428233452
 21
10625.71729186377
 31
0.0
  0
LINE
  5
9B4A
330
1F
100
AcDbEntity
  8
freecads.com
100
AcDbLine
 10
19691.69428233452
 20
10175.71729186377
 30
0.0
 11
19691.69428233452
 21
10625.71729186377
 31
0.0
  0
LINE
  5
9B4B
330
1F
100
AcDbEntity
  8
freecads.com
100
AcDbLine
 10
19800.44428233452
 20
10460.71729186377
 30
0.0
 11
19807.94428233452
 21
10460.71729186377
 31
0.0
  0
ARC
  5
9B4C
330
1F
100
AcDbEntity
  8
freecads.com
100
AcDbCircle
 10
19650.44428233452
 20
11033.71729186377
 30
0.0
 40
89.99999999999932
100
AcDbArc
 50
62.18186070872714
 51
180.0
1001
AME_SOL
1070
     0
1071
        0
  0
LINE
  5
9B4D
330
1F
100
AcDbEntity
  8
freecads.com
100
AcDbLine
 10
19560.44428233452
 20
10853.71729186377
 30
0.0
 11
19692.44428233452
 21
10853.71729186377
 31
0.0
  0
LINE
  5
9B4F
330
1F
100
AcDbEntity
  8
freecads.com
100
AcDbLine
 10
19007.69428233452
 20
11461.63683878929
 30
0.0
 11
19007.69428233452
 21
10896.88683878929
 31
0.0
  0
LINE
  5
9B50
330
1F
100
AcDbEntity
  8
freecads.com
100
AcDbLine
 10
19187.69428233452
 20
11461.63683878929
 30
0.0
 11
19187.69428233452
 21
10896.88683878929
 31
0.0
  0
LINE
  5
9B51
330
1F
100
AcDbEntity
  8
freecads.com
100
AcDbLine
 10
19214.6192823348
 20
10820.71729186377
 30
0.0
 11
19081.26928233494
 21
10820.71729186377
 31
0.0
210
-0.0000000000000001
220
1.0
230
0.0
1001
AME_SOL
1070
     0
1071
        0
  0
LINE
  5
9B52
330
1F
100
AcDbEntity
  8
freecads.com
100
AcDbLine
 10
19209.44428233452
 20
10828.21729186377
 30
0.0
 11
19086.44428233452
 21
10828.21729186377
 31
0.0
210
-0.0000000000000001
220
1.0
230
0.0
1001
AME_SOL
1070
     0
1071
        0
  0
LINE
  5
9B53
330
1F
100
AcDbEntity
  8
freecads.com
100
AcDbLine
 10
18760.02551576448
 20
10976.71729186377
 30
0.0
 11
19455.44428233452
 21
10976.71729186377
 31
0.0
1001
AME_SOL
1070
     0
1071
        0
  0
LINE
  5
9B54
330
1F
100
AcDbEntity
  8
freecads.com
100
AcDbLine
 10
19007.69428233452
 20
10896.88683878929
 30
0.0
 11
19187.69428233452
 21
10896.88683878929
 31
0.0
  0
LINE
  5
9B55
330
1F
100
AcDbEntity
  8
freecads.com
100
AcDbLine
 10
19015.19428233452
 20
10906.50752178029
 30
0.0
 11
19180.19428233452
 21
10906.50752178029
 31
0.0
  0
LINE
  5
9B56
330
1F
100
AcDbEntity
  8
freecads.com
100
AcDbLine
 10
19015.19428233452
 20
11056.42733583002
 30
0.0
 11
19180.19428233452
 21
11056.42733583002
 31
0.0
  0
LINE
  5
9B57
330
1F
100
AcDbEntity
  8
freecads.com
100
AcDbLine
 10
19015.19428233452
 20
11046.54801882084
 30
0.0
 11
19180.19428233452
 21
11046.54801882084
 31
0.0
  0
LINE
  5
9B58
330
1F
100
AcDbEntity
  8
freecads.com
100
AcDbLine
 10
19081.26928233494
 20
10820.71729186377
 30
0.0
 11
19081.26928233494
 21
10685.71729186377
 31
0.0
  0
LINE
  5
9B59
330
1F
100
AcDbEntity
  8
freecads.com
100
AcDbLine
 10
19086.44428233452
 20
10828.21729186377
 30
0.0
 11
19086.44428233452
 21
10820.71729186377
 31
0.0
  0
LINE
  5
9B5A
330
1F
100
AcDbEntity
  8
freecads.com
100
AcDbLine
 10
18817.94428233452
 20
10853.71729186377
 30
0.0
 11
18817.94428233452
 21
10835.71729186377
 31
0.0
  0
LINE
  5
9B5B
330
1F
100
AcDbEntity
  8
freecads.com
100
AcDbLine
 10
19060.19428233452
 20
10835.71729186377
 30
0.0
 11
19135.19428233452
 21
10835.71729186377
 31
0.0
  0
LINE
  5
9B5C
330
1F
100
AcDbEntity
  8
freecads.com
100
AcDbLine
 10
19135.19428233452
 20
10896.88683878929
 30
0.0
 11
19135.19428233452
 21
10835.7172918636
 31
0.0
  0
LINE
  5
9B5D
330
1F
100
AcDbEntity
  8
freecads.com
100
AcDbLine
 10
19060.19428233452
 20
10896.88683878929
 30
0.0
 11
19060.19428233452
 21
10835.71729186377
 31
0.0
  0
LINE
  5
9B5E
330
1F
100
AcDbEntity
  8
freecads.com
100
AcDbLine
 10
19097.69428233452
 20
11120.78071059242
 30
0.0
 11
19097.69428233452
 21
10835.71729186377
 31
0.0
  0
LINE
  5
9B5F
330
1F
100
AcDbEntity
  8
freecads.com
100
AcDbLine
 10
19560.44428233452
 20
10943.70656532191
 30
0.0
 11
19525.45667279604
 21
10950.78299581069
 31
0.0
1001
AME_SOL
1070
     0
1071
        0
  0
LINE
  5
9B60
330
1F
100
AcDbEntity
  8
freecads.com
100
AcDbLine
 10
19214.6192823348
 20
10820.71729186377
 30
0.0
 11
19214.6192823348
 21
10685.71729186377
 31
0.0
  0
LINE
  5
9B61
330
1F
100
AcDbEntity
  8
freecads.com
100
AcDbLine
 10
19209.44428233452
 20
10828.21729186377
 30
0.0
 11
19209.44428233452
 21
10820.71729186377
 31
0.0
  0
LINE
  5
9B62
330
1F
100
AcDbEntity
  8
freecads.com
100
AcDbLine
 10
19560.44428233452
 20
10835.71729186377
 30
0.0
 11
19560.44428233452
 21
11033.71729186377
 31
0.0
210
-0.0000000000000002
220
1.0
230
0.0
1001
AME_SOL
1070
     0
1071
        0
  0
LINE
  5
9B63
330
1F
100
AcDbEntity
  8
freecads.com
100
AcDbLine
 10
19455.44428233452
 20
10835.71729186377
 30
0.0
 11
19455.44428233452
 21
11056.29641713728
 31
0.0
  0
LINE
  5
9B64
330
1F
100
AcDbEntity
  8
freecads.com
100
AcDbLine
 10
19521.44428233452
 20
10835.71729186377
 30
0.0
 11
19521.44428233452
 21
10956.64138325015
 31
0.0
  0
ARC
  5
9B65
330
1F
100
AcDbEntity
  8
freecads.com
100
AcDbCircle
 10
19097.69428233452
 20
11379.88683878929
 30
0.0
 40
371.25
100
AcDbArc
 50
284.0296653873828
 51
322.2913310773395
  0
ARC
  5
9B66
330
1F
100
AcDbEntity
  8
freecads.com
100
AcDbCircle
 10
19097.69428233452
 20
11379.88683878929
 30
0.0
 40
356.25
100
AcDbArc
 50
284.6332902911465
 51
323.1111126029745
  0
ARC
  5
9B67
330
1F
100
AcDbEntity
  8
freecads.com
100
AcDbCircle
 10
19097.69428233452
 20
11379.88683878929
 30
0.0
 40
356.25
100
AcDbArc
 50
284.6332902911465
 51
318.9511005052366
  0
LINE
  5
9B68
330
1F
100
AcDbEntity
  8
freecads.com
100
AcDbLine
 10
19139.74841520981
 20
11532.07150236903
 30
0.0
 11
19042.96174673596
 21
11478.17518777798
 31
0.0
  0
LINE
  5
9B69
330
1F
100
AcDbEntity
  8
freecads.com
100
AcDbLine
 10
19015.94428233452
 20
11469.88683878929
 30
0.0
 11
19179.44428233452
 21
11469.88683878929
 31
0.0
  0
ARC
  5
9B6A
330
1F
100
AcDbEntity
  8
freecads.com
100
AcDbCircle
 10
19097.69428233452
 20
11379.88683878929
 30
0.0
 40
112.5
100
AcDbArc
 50
119.1115445607779
 51
126.8698976525141
  0
ARC
  5
9B6B
330
1F
100
AcDbEntity
  8
freecads.com
100
AcDbCircle
 10
19015.94428233452
 20
11461.63683878929
 30
0.0
 40
8.25
100
AcDbArc
 50
90.0
 51
180.0
  0
CIRCLE
  5
9B6D
330
1F
100
AcDbEntity
  8
freecads.com
100
AcDbCircle
 10
19031.40302159846
 20
11446.17809952553
 30
0.0
 40
12.75
  0
CIRCLE
  5
9B6E
330
1F
100
AcDbEntity
  8
freecads.com
100
AcDbCircle
 10
19031.40302159846
 20
11446.17809952553
 30
0.0
 40
15.75
  0
CIRCLE
  5
9B6F
330
1F
100
AcDbEntity
  8
freecads.com
100
AcDbCircle
 10
19031.40302159846
 20
11313.59557805306
 30
0.0
 40
15.75
  0
CIRCLE
  5
9B70
330
1F
100
AcDbEntity
  8
freecads.com
100
AcDbCircle
 10
19031.40302159846
 20
11313.59557805306
 30
0.0
 40
12.75
  0
ARC
  5
9B72
330
1F
100
AcDbEntity
  8
freecads.com
100
AcDbCircle
 10
19097.69428233452
 20
11379.88683878929
 30
0.0
 40
112.5
100
AcDbArc
 50
143.1301023381477
 51
216.8698976618523
  0
CIRCLE
  5
9B73
330
1F
100
AcDbEntity
  8
freecads.com
100
AcDbCircle
 10
19097.69428233452
 20
11379.88683878929
 30
0.0
 40
30.0
  0
LINE
  5
9B74
330
1F
100
AcDbEntity
  8
freecads.com
100
AcDbLine
 10
19314.89143683318
 20
11810.71729186377
 30
0.0
 11
19455.44428233452
 21
11810.71729186377
 31
0.0
1001
AME_SOL
1070
     0
1071
        0
  0
ARC
  5
9B75
330
1F
100
AcDbEntity
  8
freecads.com
100
AcDbCircle
 10
19179.44428233452
 20
11461.63683878929
 30
0.0
 40
8.25
100
AcDbArc
 50
0.0
 51
90.0
  0
CIRCLE
  5
9B76
330
1F
100
AcDbEntity
  8
freecads.com
100
AcDbCircle
 10
19163.98554307058
 20
11446.17809952553
 30
0.0
 40
15.75
  0
CIRCLE
  5
9B77
330
1F
100
AcDbEntity
  8
freecads.com
100
AcDbCircle
 10
19163.98554307058
 20
11446.17809952553
 30
0.0
 40
12.75
  0
LINE
  5
9B79
330
1F
100
AcDbEntity
  8
freecads.com
100
AcDbLine
 10
19455.44428233452
 20
11598.89462007218
 30
0.0
 11
19455.44428233452
 21
11810.71729186377
 31
0.0
  0
CIRCLE
  5
9B7A
330
1F
100
AcDbEntity
  8
freecads.com
100
AcDbCircle
 10
19477.94428233452
 20
11833.21729186377
 30
0.0
 40
6.75
  0
LINE
  5
9B7B
330
1F
100
AcDbEntity
  8
freecads.com
100
AcDbLine
 10
19455.44428233452
 20
11810.71729186377
 30
0.0
 11
19473.17131156147
 21
11828.44432109073
 31
0.0
  0
LINE
  5
9B7C
330
1F
100
AcDbEntity
  8
freecads.com
100
AcDbLine
 10
19530.44428233452
 20
11485.86453286398
 30
0.0
 11
19530.44428233452
 21
11848.33525750771
 31
0.0
  0
LINE
  5
9B7D
330
1F
100
AcDbEntity
  8
freecads.com
100
AcDbLine
 10
19517.69428233452
 20
11664.88683878929
 30
0.0
 11
19517.69428233452
 21
11574.8868387893
 31
0.0
  0
LINE
  5
9B7E
330
1F
100
AcDbEntity
  8
freecads.com
100
AcDbLine
 10
19420.77366398274
 20
11679.88683878929
 30
0.0
 11
19502.69428233452
 21
11679.88683878929
 31
0.0
  0
LINE
  5
9B7F
330
1F
100
AcDbEntity
  8
freecads.com
100
AcDbLine
 10
19481.32751102628
 20
11559.88683878929
 30
0.0
 11
19502.69428233452
 21
11559.88683878929
 31
0.0
  0
ARC
  5
9B80
330
1F
100
AcDbEntity
  8
freecads.com
100
AcDbCircle
 10
19420.77366398274
 20
11619.88683878929
 30
0.0
 40
60.0
100
AcDbArc
 50
90.0
 51
106.8248030795307
  0
CIRCLE
  5
9B81
330
1F
100
AcDbEntity
  8
freecads.com
100
AcDbCircle
 10
19501.19428233452
 20
11663.38683878929
 30
0.0
 40
5.551442841485012
  0
CIRCLE
  5
9B82
330
1F
100
AcDbEntity
  8
freecads.com
100
AcDbCircle
 10
19501.19428233452
 20
11576.38683878929
 30
0.0
 40
5.551442841485012
  0
ARC
  5
9B83
330
1F
100
AcDbEntity
  8
freecads.com
100
AcDbCircle
 10
19502.69428233452
 20
11664.88683878929
 30
0.0
 40
15.0
100
AcDbArc
 50
0.0
 51
90.0
  0
ARC
  5
9B84
330
1F
100
AcDbEntity
  8
freecads.com
100
AcDbCircle
 10
19502.69428233452
 20
11574.8868387893
 30
0.0
 40
15.0
100
AcDbArc
 50
270.0
 51
0.0
  0
CIRCLE
  5
9B85
330
1F
100
AcDbEntity
  8
freecads.com
100
AcDbCircle
 10
19501.19428233452
 20
11663.38683878929
 30
0.0
 40
15.75
  0
CIRCLE
  5
9B86
330
1F
100
AcDbEntity
  8
freecads.com
100
AcDbCircle
 10
19501.19428233452
 20
11576.38683878929
 30
0.0
 40
15.75
  0
CIRCLE
  5
9B87
330
1F
100
AcDbEntity
  8
freecads.com
100
AcDbCircle
 10
19501.19428233452
 20
11663.38683878929
 30
0.0
 40
12.75
  0
CIRCLE
  5
9B89
330
1F
100
AcDbEntity
  8
freecads.com
100
AcDbCircle
 10
19501.19428233452
 20
11576.38683878929
 30
0.0
 40
12.75
  0
CIRCLE
  5
9B8B
330
1F
100
AcDbEntity
  8
freecads.com
100
AcDbCircle
 10
19163.98554307058
 20
11313.59557805306
 30
0.0
 40
15.75
  0
CIRCLE
  5
9B8C
330
1F
100
AcDbEntity
  8
freecads.com
100
AcDbCircle
 10
19163.98554307058
 20
11313.59557805306
 30
0.0
 40
12.75
  0
LINE
  5
9B8E
330
1F
100
AcDbEntity
  8
freecads.com
100
AcDbLine
 10
19246.14565647718
 20
11371.72364291376
 30
0.0
 11
19187.69428233452
 21
11311.14264258977
 31
0.0
  0
LINE
  5
9B8F
330
1F
100
AcDbEntity
  8
freecads.com
100
AcDbLine
 10
19767.44428233452
 20
11128.68945728658
 30
0.0
 11
19775.4318918737
 21
11116.65158791668
 31
0.0
  0
LINE
  5
9B90
330
1F
100
AcDbEntity
  8
freecads.com
100
AcDbLine
 10
19775.4318918737
 20
11116.65158791668
 30
0.0
 11
19767.44428233452
 21
11077.15888546939
 31
0.0
1001
AME_SOL
1070
     0
1071
        0
  0
CIRCLE
  5
9B91
330
1F
100
AcDbEntity
  8
freecads.com
100
AcDbCircle
 10
19650.44428233452
 20
11033.71729186377
 30
0.0
 40
33.75
  0
CIRCLE
  5
9B92
330
1F
100
AcDbEntity
  8
freecads.com
100
AcDbCircle
 10
19650.44428233452
 20
11033.71729186377
 30
0.0
 40
33.75
  0
LINE
  5
9B93
330
1F
100
AcDbEntity
  8
freecads.com
100
AcDbLine
 10
19800.44428233452
 20
10685.71729186377
 30
0.0
 11
19767.44428233452
 21
10685.71729186377
 31
0.0
1001
ACAD
1000
ASC_BOUNDS
1002
{
1070
    19
1005
0
1002
}
  0
LINE
  5
9B94
330
1F
100
AcDbEntity
  8
freecads.com
100
AcDbLine
 10
19767.44428233452
 20
10685.71729186377
 30
0.0
 11
19807.94428233452
 21
10685.71729186377
 31
0.0
1001
AME_SOL
1070
     0
1071
        0
  0
LINE
  5
9B95
330
1F
100
AcDbEntity
  8
freecads.com
100
AcDbLine
 10
19767.44428233452
 20
10835.71729186377
 30
0.0
 11
19807.94428233452
 21
10835.71729186377
 31
0.0
1001
AME_SOL
1070
     0
1071
        0
  0
LINE
  5
9B96
330
1F
100
AcDbEntity
  8
freecads.com
100
AcDbLine
 10
19767.44428233452
 20
10835.71729186377
 30
0.0
 11
19800.44428233452
 21
10835.71729186377
 31
0.0
  0
LINE
  5
9B97
330
1F
100
AcDbEntity
  8
freecads.com
100
AcDbLine
 10
19767.44428233452
 20
10853.71729186377
 30
0.0
 11
19800.44428233452
 21
10853.71729186377
 31
0.0
  0
CIRCLE
  5
9B98
330
1F
100
AcDbEntity
  8
freecads.com
100
AcDbCircle
 10
19650.44428233452
 20
11033.71729186377
 30
0.0
 40
22.50000000000001
1001
AME_SOL
1070
     0
1071
        0
  0
LINE
  5
9B99
330
1F
100
AcDbEntity
  8
freecads.com
100
AcDbLine
 10
19800.44428233452
 20
10853.71729186377
 30
0.0
 11
19800.44428233452
 21
10835.71729186377
 31
0.0
  0
LINE
  5
9B9A
330
1F
100
AcDbEntity
  8
freecads.com
100
AcDbLine
 10
19800.44428233452
 20
10853.71729186377
 30
0.0
 11
19767.44428233452
 21
10960.21098889768
 31
0.0
  0
LINE
  5
9B9B
330
1F
100
AcDbEntity
  8
freecads.com
100
AcDbLine
 10
19807.94428233452
 20
10685.71729186377
 30
0.0
 11
19807.94428233452
 21
10835.71729186377
 31
0.0
  0
LINE
  5
9B9C
330
1F
100
AcDbEntity
  8
freecads.com
100
AcDbLine
 10
19800.44428233452
 20
10685.71729186377
 30
0.0
 11
19800.44428233452
 21
10835.71729186377
 31
0.0
  0
CIRCLE
  5
9B9D
330
1F
100
AcDbEntity
  8
freecads.com
100
AcDbCircle
 10
19650.44428233452
 20
11033.71729186377
 30
0.0
 40
33.75
  0
CIRCLE
  5
9B9E
330
1F
100
AcDbEntity
  8
freecads.com
100
AcDbCircle
 10
19650.44428233452
 20
11033.71729186377
 30
0.0
 40
22.50000000000001
1001
AME_SOL
1070
     0
1071
        0
  0
LINE
  5
9BA0
330
1F
100
AcDbEntity
  8
freecads.com
100
AcDbLine
 10
19767.44428233452
 20
10267.26738646646
 30
0.0
 11
19767.44428233452
 21
11975.71729186377
 31
0.0
1001
AME_SOL
1070
     0
1071
        0
  0
LINE
  5
9BA1
330
1F
100
AcDbEntity
  8
freecads.com
100
AcDbLine
 10
19692.44428233452
 20
10267.26738646646
 30
0.0
 11
19692.44428233452
 21
11975.71729186377
 31
0.0
1001
AME_SOL
1070
     0
1071
        0
  0
LINE
  5
9BA2
330
1F
100
AcDbEntity
  8
freecads.com
100
AcDbLine
 10
19487.59146859216
 20
11933.61447812142
 30
0.0
 11
19692.44428233452
 21
11728.76166437889
 31
0.0
  0
LINE
  5
9BA3
330
1F
100
AcDbEntity
  8
freecads.com
100
AcDbLine
 10
19466.3782651564
 20
11912.40127468565
 30
0.0
 11
19692.44428233452
 21
11686.33525750753
 31
0.0
  0
LINE
  5
9BA4
330
1F
100
AcDbEntity
  8
freecads.com
100
AcDbLine
 10
19482.71725310757
 20
11837.99026263665
 30
0.0
 11
19511.7532651564
 21
11867.02627468565
 31
0.0
  0
LINE
  5
9BA5
330
1F
100
AcDbEntity
  8
freecads.com
100
AcDbLine
 10
19521.44428233452
 20
11499.42814332901
 30
0.0
 11
19521.44428233452
 21
11857.33525750771
 31
0.0
  0
LINE
  5
9BA6
330
1F
100
AcDbEntity
  8
freecads.com
100
AcDbLine
 10
19972.29709607688
 20
11933.61447812142
 30
0.0
 11
19767.44428233452
 21
11728.76166437889
 31
0.0
  0
LINE
  5
9BA7
330
1F
100
AcDbEntity
  8
freecads.com
100
AcDbLine
 10
19993.51029951264
 20
11912.40127468565
 30
0.0
 11
19767.44428233452
 21
11686.33525750771
 31
0.0
  0
LINE
  5
9BA8
330
1F
100
AcDbEntity
  8
freecads.com
100
AcDbLine
 10
18737.53849470498
 20
12138.15241921934
 30
0.0
 11
18546.82612011232
 21
12110.20103967931
 31
0.0
  0
ARC
  5
9BA9
330
1F
100
AcDbEntity
  8
freecads.com
100
AcDbCircle
 10
18596.28260880009
 20
12188.4377439999
 30
0.0
 40
7.5
100
AcDbArc
 50
290.9377290915096
 51
224.1343082842238
  0
CIRCLE
  5
9BAA
330
1F
100
AcDbEntity
  8
freecads.com
100
AcDbCircle
 10
18596.28260880009
 20
12188.4377439999
 30
0.0
 40
6.375
  0
CIRCLE
  5
9BAB
330
1F
100
AcDbEntity
  8
freecads.com
100
AcDbCircle
 10
18563.10889037907
 20
12238.43278781536
 30
0.0
 40
6.375
  0
ARC
  5
9BAC
330
1F
100
AcDbEntity
  8
freecads.com
100
AcDbCircle
 10
18563.10889037907
 20
12238.43278781536
 30
0.0
 40
7.5
100
AcDbArc
 50
290.9377290915096
 51
224.1343082842238
  0
LINE
  5
9BAD
330
1F
100
AcDbEntity
  8
freecads.com
100
AcDbLine
 10
18554.81546077364
 20
12250.93154876914
 30
0.0
 11
18604.57603840552
 21
12175.93898304595
 31
0.0
  0
ARC
  5
9BAE
330
1F
100
AcDbEntity
  8
freecads.com
100
AcDbCircle
 10
18535.95008625136
 20
12184.40826228898
 30
0.0
 40
75.0
100
AcDbArc
 50
148.7808871692642
 51
278.3380774477239
  0
LINE
  5
9BAF
330
1F
100
AcDbEntity
  8
freecads.com
100
AcDbLine
 10
18601.71181827643
 20
12085.30087154553
 30
0.0
 11
18471.01196418934
 21
12282.2744169523
 31
0.0
210
0.8332507302580934
220
0.552895307019651
230
0.0
1001
AME_SOL
1070
     0
1071
        0
  0
LINE
  5
9BB0
330
1F
100
AcDbEntity
  8
freecads.com
100
AcDbLine
 10
18571.75397027725
 20
12388.18342057612
 30
0.0
 11
18471.81073065101
 21
12223.28168589967
 31
0.0
  0
ARC
  5
9BB1
330
1F
100
AcDbEntity
  8
freecads.com
100
AcDbCircle
 10
18535.95008625136
 20
12184.40826228898
 30
0.0
 40
37.5
100
AcDbArc
 50
154.8676375904713
 51
355.5902994961516
  0
ARC
  5
9BB2
330
1F
100
AcDbEntity
  8
freecads.com
100
AcDbCircle
 10
18535.95008625136
 20
12184.40826228898
 30
0.0
 40
37.49999999999993
100
AcDbArc
 50
355.5902994961516
 51
154.8676375904713
  0
LINE
  5
9BB3
330
1F
100
AcDbEntity
  8
freecads.com
100
AcDbLine
 10
18570.40060881641
 20
12171.26399808199
 30
0.0
 11
18617.43462027399
 21
12202.4729526751
 31
0.0
  0
LINE
  5
9BB4
330
1F
100
AcDbEntity
  8
freecads.com
100
AcDbLine
 10
18537.22689039539
 20
12221.25904189745
 30
0.0
 11
18584.26090185297
 21
12252.46799649056
 31
0.0
  0
ARC
  5
9BB5
330
1F
100
AcDbEntity
  8
freecads.com
100
AcDbCircle
 10
18592.49743580165
 20
12383.94575821104
 30
0.0
 40
15.0
100
AcDbArc
 50
123.565870773846
 51
213.5658707646349
  0
ARC
  5
9BB6
330
1F
100
AcDbEntity
  8
freecads.com
100
AcDbCircle
 10
18741.7791686973
 20
12158.96806104146
 30
0.0
 40
15.0
100
AcDbArc
 50
213.5658707646349
 51
303.565870773846
  0
LINE
  5
9BB7
330
1F
100
AcDbEntity
  8
freecads.com
100
AcDbLine
 10
18502.94428233452
 20
10460.71729186377
 30
0.0
 11
18502.94428233452
 21
10685.71729186377
 31
0.0
1001
ACAD
1000
ASC_BOUNDS
1002
{
1070
    19
1005
0
1005
0
1002
}
  0
CIRCLE
  5
9BB8
330
1F
100
AcDbEntity
  8
freecads.com
100
AcDbCircle
 10
18667.94428233452
 20
10996.21729186377
 30
0.0
 40
37.5
  0
ARC
  5
9BB9
330
1F
100
AcDbEntity
  8
freecads.com
100
AcDbCircle
 10
18667.94428233452
 20
10996.21729186377
 30
0.0
 40
75.0
100
AcDbArc
 50
25.21500892936358
 51
154.7849910706364
  0
LINE
  5
9BBA
330
1F
100
AcDbEntity
  8
freecads.com
100
AcDbLine
 10
18442.94428233452
 20
10676.71729186377
 30
0.0
 11
18442.94428233452
 21
10685.71729186377
 31
0.0
  0
LINE
  5
9BBB
330
1F
100
AcDbEntity
  8
freecads.com
100
AcDbLine
 10
18502.94428233452
 20
10676.71729186377
 30
0.0
 11
18442.94428233452
 21
10676.71729186377
 31
0.0
  0
LINE
  5
9BBC
330
1F
100
AcDbEntity
  8
freecads.com
100
AcDbLine
 10
18517.94428233452
 20
10853.71729186377
 30
0.0
 11
18517.94428233452
 21
10835.71729186377
 31
0.0
  0
LINE
  5
9BBD
330
1F
100
AcDbEntity
  8
freecads.com
100
AcDbLine
 10
18517.94428233452
 20
10853.71729186377
 30
0.0
 11
18600.09062086697
 21
11028.16851446099
 31
0.0
  0
LINE
  5
9BBE
330
1F
100
AcDbEntity
  8
freecads.com
100
AcDbLine
 10
18502.94428233452
 20
10685.71729186377
 30
0.0
 11
18502.94428233452
 21
10835.7172918636
 31
0.0
  0
LINE
  5
9BBF
330
1F
100
AcDbEntity
  8
freecads.com
100
AcDbLine
 10
18679.94428233452
 20
11810.71729186377
 30
0.0
 11
18662.21725310757
 21
11828.44432109073
 31
0.0
  0
LINE
  5
9BC0
330
1F
100
AcDbEntity
  8
freecads.com
100
AcDbLine
 10
18679.94428233452
 20
11716.9304836367
 30
0.0
 11
18679.94428233452
 21
11810.71729186377
 31
0.0
  0
LINE
  5
9BC1
330
1F
100
AcDbEntity
  8
freecads.com
100
AcDbLine
 10
18502.94428233452
 20
10835.7172918636
 30
0.0
 11
19692.44428233452
 21
10835.71729186377
 31
0.0
  0
LINE
  5
9BC3
330
1F
100
AcDbEntity
  8
freecads.com
100
AcDbLine
 10
18679.94428233452
 20
11810.71729186377
 30
0.0
 11
18954.85574876749
 21
11810.71729186377
 31
0.0
1001
AME_SOL
1070
     0
1071
        0
  0
LINE
  5
9BC4
330
1F
100
AcDbEntity
  8
freecads.com
100
AcDbLine
 10
18817.94428233452
 20
10835.71729186377
 30
0.0
 11
18517.94428233452
 21
10835.71729186377
 31
0.0
  0
LINE
  5
9BC5
330
1F
100
AcDbEntity
  8
freecads.com
100
AcDbLine
 10
18817.94428233452
 20
10853.71729186377
 30
0.0
 11
18517.94428233452
 21
10853.71729186377
 31
0.0
  0
ARC
  5
9BC6
330
1F
100
AcDbEntity
  8
freecads.com
100
AcDbCircle
 10
19097.69428233452
 20
11379.88683878929
 30
0.0
 40
356.25
100
AcDbArc
 50
104.0206289249088
 51
255.3667097088534
  0
ARC
  5
9BC7
330
1F
100
AcDbEntity
  8
freecads.com
100
AcDbCircle
 10
19097.69428233452
 20
11379.88683878929
 30
0.0
 40
371.25
100
AcDbArc
 50
104.8404104422196
 51
255.9703346126172
  0
LINE
  5
9BC8
330
1F
100
AcDbEntity
  8
freecads.com
100
AcDbLine
 10
18817.94428233452
 20
10853.71729186377
 30
0.0
 11
18735.79794380208
 21
11028.16851446099
 31
0.0
  0
LINE
  5
9BC9
330
1F
100
AcDbEntity
  8
freecads.com
100
AcDbLine
 10
18584.20400619622
 20
12396.44451916499
 30
0.0
 11
18809.18170336633
 21
12545.72625206029
 31
0.0
  0
LINE
  5
9BCB
330
1F
100
AcDbEntity
  8
freecads.com
100
AcDbLine
 10
18661.19403122528
 20
11885.71729186377
 30
0.0
 11
18905.09023819421
 21
11885.71729186377
 31
0.0
1001
AME_SOL
1070
     0
1071
        0
  0
LINE
  5
9BCC
330
1F
100
AcDbEntity
  8
freecads.com
100
AcDbLine
 10
18662.19382653967
 20
11876.71729186377
 30
0.0
 11
18911.06209946283
 21
11876.71729186377
 31
0.0
1001
AME_SOL
1070
     0
1071
        0
  0
LINE
  5
9BCD
330
1F
100
AcDbEntity
  8
freecads.com
100
AcDbLine
 10
18750.07259830203
 20
12146.46930008751
 30
0.0
 11
18975.05029547214
 21
12295.7510329828
 31
0.0
  0
LINE
  5
9BCE
330
1F
100
AcDbEntity
  8
freecads.com
100
AcDbLine
 10
19487.69428233452
 20
9968.717291863775
 30
0.0
 11
19667.69428233452
 21
9968.717291863775
 31
0.0
  0
LINE
  5
9BCF
330
1F
100
AcDbEntity
  8
freecads.com
100
AcDbLine
 10
19392.44428233452
 20
10069.29387708692
 30
0.0
 11
19392.44428233452
 21
10017.96600632086
 31
0.0
210
0.0
220
1.0
230
0.0
1001
AME_SOL
1070
     0
1071
        0
  0
LINE
  5
9BD0
330
1F
100
AcDbEntity
  8
freecads.com
100
AcDbLine
 10
19377.44428233452
 20
10069.29387708692
 30
0.0
 11
19377.44428233452
 21
10017.96600632086
 31
0.0
210
0.0
220
1.0
230
0.0
1001
AME_SOL
1070
     0
1071
        0
  0
LINE
  5
9BD1
330
1F
100
AcDbEntity
  8
freecads.com
100
AcDbLine
 10
19377.44428233452
 20
10013.71729186377
 30
0.0
 11
19392.44428233452
 21
10013.71729186377
 31
0.0
210
0.0
220
1.0
230
0.0
1001
AME_SOL
1070
     0
1071
        0
  0
LINE
  5
9BD2
330
1F
100
AcDbEntity
  8
freecads.com
100
AcDbLine
 10
19392.44428233452
 20
10017.96600632086
 30
0.0
 11
19392.44428233452
 21
10013.71729186377
 31
0.0
210
0.0
220
1.0
230
0.0
1001
AME_SOL
1070
     0
1071
        0
  0
LINE
  5
9BD3
330
1F
100
AcDbEntity
  8
freecads.com
100
AcDbLine
 10
19377.44428233452
 20
10017.96600632086
 30
0.0
 11
19377.44428233452
 21
10013.71729186377
 31
0.0
210
0.0
220
1.0
230
0.0
1001
AME_SOL
1070
     0
1071
        0
  0
LINE
  5
9BD4
330
1F
100
AcDbEntity
  8
freecads.com
100
AcDbLine
 10
19662.44428233452
 20
10385.71729186377
 30
0.0
 11
19392.44428233452
 21
10070.71729186377
 31
0.0
210
0.0
220
1.0
230
0.0
1001
AME_SOL
1070
     0
1071
        0
  0
LINE
  5
9BD5
330
1F
100
AcDbEntity
  8
freecads.com
100
AcDbLine
 10
19487.69428233452
 20
9968.717291863775
 30
0.0
 11
19487.69428233452
 21
10181.84229186366
 31
0.0
  0
LINE
  5
9BD6
330
1F
100
AcDbEntity
  8
freecads.com
100
AcDbLine
 10
19392.44428233452
 20
10070.71729186377
 30
0.0
 11
19392.44428233452
 21
10385.71729186377
 31
0.0
210
0.0
220
1.0
230
0.0
1001
AME_SOL
1070
     0
1071
        0
  0
LINE
  5
9BD7
330
1F
100
AcDbEntity
  8
freecads.com
100
AcDbLine
 10
19392.44428233452
 20
10400.71729186377
 30
0.0
 11
19392.44428233452
 21
10069.29387708692
 31
0.0
210
0.0
220
1.0
230
0.0
1001
AME_SOL
1070
     0
1071
        0
  0
LINE
  5
9BD8
330
1F
100
AcDbEntity
  8
freecads.com
100
AcDbLine
 10
19377.44428233452
 20
10385.71729186377
 30
0.0
 11
19377.44428233452
 21
10069.29387708692
 31
0.0
210
0.0
220
1.0
230
0.0
1001
AME_SOL
1070
     0
1071
        0
  0
LINE
  5
9BD9
330
1F
100
AcDbEntity
  8
freecads.com
100
AcDbLine
 10
19667.69428233452
 20
9968.717291863775
 30
0.0
 11
19667.69428233452
 21
10184.71729186377
 31
0.0
  0
LINE
  5
9BDA
330
1F
100
AcDbEntity
  8
freecads.com
100
AcDbLine
 10
16852.94428233452
 20
9968.717291863775
 30
0.0
 11
16972.94428233452
 21
9968.717291863775
 31
0.0
  0
LINE
  5
9BDB
330
1F
100
AcDbEntity
  8
freecads.com
100
AcDbLine
 10
16825.94428233452
 20
9998.717291863776
 30
0.0
 11
16837.94428233452
 21
9998.717291863776
 31
0.0
210
0.0
220
1.0
230
0.0
1001
AME_SOL
1070
     0
1071
        0
  0
LINE
  5
9BDC
330
1F
100
AcDbEntity
  8
freecads.com
100
AcDbLine
 10
16987.94428233452
 20
9998.717291863776
 30
0.0
 11
16999.94428233452
 21
9998.717291863776
 31
0.0
210
0.0
220
1.0
230
0.0
1001
AME_SOL
1070
     0
1071
        0
  0
LINE
  5
9BDD
330
1F
100
AcDbEntity
  8
freecads.com
100
AcDbLine
 10
16987.94428233452
 20
10043.71729186377
 30
0.0
 11
16837.94428233452
 21
10043.71729186377
 31
0.0
210
0.0
220
1.0
230
0.0
1001
AME_SOL
1070
     0
1071
        0
  0
LINE
  5
9BDE
330
1F
100
AcDbEntity
  8
freecads.com
100
AcDbLine
 10
16852.94428233452
 20
9968.717291863775
 30
0.0
 11
16852.94428233452
 21
10043.71729186377
 31
0.0
  0
LINE
  5
9BDF
330
1F
100
AcDbEntity
  8
freecads.com
100
AcDbLine
 10
16972.94428233452
 20
9968.717291863775
 30
0.0
 11
16972.94428233452
 21
10043.71729186377
 31
0.0
  0
LINE
  5
9BE0
330
1F
100
AcDbEntity
  8
freecads.com
100
AcDbLine
 10
17025.44428233452
 20
10460.71729186377
 30
0.0
 11
17025.44428233452
 21
10685.71729186377
 31
0.0
  0
LINE
  5
9BE1
330
1F
100
AcDbEntity
  8
freecads.com
100
AcDbLine
 10
16806.44428233452
 20
10475.71729186377
 30
0.0
 11
16806.44428233452
 21
10670.71729186377
 31
0.0
210
0.0000000000000002
220
1.0
230
0.0
1001
AME_SOL
1070
     0
1071
        0
  0
LINE
  5
9BE2
330
1F
100
AcDbEntity
  8
freecads.com
100
AcDbLine
 10
16719.44428233452
 20
10475.71729186377
 30
0.0
 11
16719.44428233452
 21
10670.71729186377
 31
0.0
210
0.0000000000000002
220
1.0
230
0.0
1001
AME_SOL
1070
     0
1071
        0
  0
LINE
  5
9BE3
330
1F
100
AcDbEntity
  8
freecads.com
100
AcDbLine
 10
16800.44428233452
 20
10685.71729186377
 30
0.0
 11
16800.44428233452
 21
10460.71729186377
 31
0.0
210
-0.0000000000000001
220
1.0
230
0.0
1001
AME_SOL
1070
     0
1071
        0
  0
LINE
  5
9BE4
330
1F
100
AcDbEntity
  8
freecads.com
100
AcDbLine
 10
16987.94428233452
 20
10400.71729186377
 30
0.0
 11
16837.94428233452
 21
10400.71729186377
 31
0.0
210
0.0
220
1.0
230
0.0
1001
AME_SOL
1070
     0
1071
        0
  0
LINE
  5
9BE5
330
1F
100
AcDbEntity
  8
freecads.com
100
AcDbLine
 10
16837.94428233452
 20
10423.21729186377
 30
0.0
 11
16987.94428233452
 21
10423.21729186377
 31
0.0
210
0.0
220
1.0
230
0.0
1001
AME_SOL
1070
     0
1071
        0
  0
LINE
  5
9BE6
330
1F
100
AcDbEntity
  8
freecads.com
100
AcDbLine
 10
16825.94428233452
 20
10388.71729186377
 30
0.0
 11
16999.94428233452
 21
10388.71729186377
 31
0.0
210
0.0
220
1.0
230
0.0
1001
AME_SOL
1070
     0
1071
        0
  0
LINE
  5
9BE7
330
1F
100
AcDbEntity
  8
freecads.com
100
AcDbLine
 10
16702.94428233452
 20
10475.71729186377
 30
0.0
 11
17025.44428233452
 21
10475.71729186377
 31
0.0
210
0.0000000000000002
220
1.0
230
0.0
1001
AME_SOL
1070
     0
1071
        0
  0
LINE
  5
9BE8
330
1F
100
AcDbEntity
  8
freecads.com
100
AcDbLine
 10
16963.94428233452
 20
10475.71729186377
 30
0.0
 11
16861.94428233452
 21
10475.71729186377
 31
0.0
210
-0.0000000000000001
220
1.0
230
0.0
1001
AME_SOL
1070
     0
1071
        0
  0
LINE
  5
9BE9
330
1F
100
AcDbEntity
  8
freecads.com
100
AcDbLine
 10
16972.94428233452
 20
10445.71729186377
 30
0.0
 11
16852.94428233452
 21
10445.71729186377
 31
0.0
210
-0.0000000000000001
220
1.0
230
0.0
1001
AME_SOL
1070
     0
1071
        0
  0
LINE
  5
9BEA
330
1F
100
AcDbEntity
  8
freecads.com
100
AcDbLine
 10
16825.94428233452
 20
10364.88657681559
 30
0.0
 11
16825.94428233452
 21
10388.71729186377
 31
0.0
210
0.0
220
1.0
230
0.0
1001
AME_SOL
1070
     0
1071
        0
  0
LINE
  5
9BEB
330
1F
100
AcDbEntity
  8
freecads.com
100
AcDbLine
 10
16837.94428233452
 20
10400.71729186377
 30
0.0
 11
16837.94428233452
 21
10423.21729186377
 31
0.0
  0
LINE
  5
9BEC
330
1F
100
AcDbEntity
  8
freecads.com
100
AcDbLine
 10
16950.44428233452
 20
10423.21729186377
 30
0.0
 11
16950.44428233452
 21
10445.71729186377
 31
0.0
  0
LINE
  5
9BED
330
1F
100
AcDbEntity
  8
freecads.com
100
AcDbLine
 10
16875.44428233452
 20
10423.21729186377
 30
0.0
 11
16875.44428233452
 21
10445.71729186377
 31
0.0
  0
LINE
  5
9BEE
330
1F
100
AcDbEntity
  8
freecads.com
100
AcDbLine
 10
16875.44428233452
 20
10445.71729186377
 30
0.0
 11
16950.44428233452
 21
10445.71729186377
 31
0.0
210
0.0
220
1.0
230
0.0
1001
AME_SOL
1070
     0
1071
        0
  0
LINE
  5
9BEF
330
1F
100
AcDbEntity
  8
freecads.com
100
AcDbLine
 10
16837.94428233452
 20
10400.71729186377
 30
0.0
 11
16837.94428233452
 21
10364.88657681559
 31
0.0
210
0.0
220
1.0
230
0.0
1001
AME_SOL
1070
     0
1071
        0
  0
LINE
  5
9BF0
330
1F
100
AcDbEntity
  8
freecads.com
100
AcDbLine
 10
16702.94428233452
 20
10460.71729186377
 30
0.0
 11
16702.94428233452
 21
10475.71729186377
 31
0.0
  0
LINE
  5
9BF1
330
1F
100
AcDbEntity
  8
freecads.com
100
AcDbLine
 10
16852.94428233452
 20
10450.21729186377
 30
0.0
 11
16852.94428233452
 21
10460.71729186377
 31
0.0
210
-0.0000000000000001
220
1.0
230
0.0
1001
AME_SOL
1070
     0
1071
        0
  0
LINE
  5
9BF2
330
1F
100
AcDbEntity
  8
freecads.com
100
AcDbLine
 10
16852.94428233452
 20
10450.21729186377
 30
0.0
 11
16852.94428233452
 21
10460.71729186377
 31
0.0
210
-0.0000000000000001
220
1.0
230
0.0
1001
AME_SOL
1070
     0
1071
        0
  0
LINE
  5
9BF3
330
1F
100
AcDbEntity
  8
freecads.com
100
AcDbLine
 10
16852.94428233452
 20
10445.71729186377
 30
0.0
 11
16852.94428233452
 21
10460.71729186377
 31
0.0
210
-0.0000000000000001
220
1.0
230
0.0
1001
AME_SOL
1070
     0
1071
        0
  0
LINE
  5
9BF4
330
1F
100
AcDbEntity
  8
freecads.com
100
AcDbLine
 10
16852.94428233452
 20
10445.71729186377
 30
0.0
 11
16852.94428233452
 21
10460.71729186377
 31
0.0
210
-0.0000000000000001
220
1.0
230
0.0
1001
AME_SOL
1070
     0
1071
        0
  0
LINE
  5
9BF6
330
1F
100
AcDbEntity
  8
freecads.com
100
AcDbLine
 10
16725.44428233452
 20
10460.71729186377
 30
0.0
 11
16725.44428233452
 21
10364.88657681559
 31
0.0
  0
LINE
  5
9BF7
330
1F
100
AcDbEntity
  8
freecads.com
100
AcDbLine
 10
16800.44428233452
 20
10460.71729186377
 30
0.0
 11
16800.44428233452
 21
10364.88657681559
 31
0.0
  0
LINE
  5
9BF8
330
1F
100
AcDbEntity
  8
freecads.com
100
AcDbLine
 10
16987.94428233452
 20
10400.71729186377
 30
0.0
 11
16987.94428233452
 21
10423.21729186377
 31
0.0
  0
LINE
  5
9BF9
330
1F
100
AcDbEntity
  8
freecads.com
100
AcDbLine
 10
17201.69428233452
 20
10453.21729186377
 30
0.0
 11
17201.69428233452
 21
10460.71729186377
 31
0.0
  0
LINE
  5
9BFA
330
1F
100
AcDbEntity
  8
freecads.com
100
AcDbLine
 10
17149.19428233452
 20
10453.21729186377
 30
0.0
 11
17149.19428233452
 21
10460.71729186377
 31
0.0
  0
LINE
  5
9BFB
330
1F
100
AcDbEntity
  8
freecads.com
100
AcDbLine
 10
17149.19428233452
 20
10453.21729186377
 30
0.0
 11
17201.69428233452
 21
10453.21729186377
 31
0.0
  0
LINE
  5
9BFC
330
1F
100
AcDbEntity
  8
freecads.com
100
AcDbLine
 10
16972.94428233452
 20
10450.21729186377
 30
0.0
 11
16972.94428233452
 21
10460.71729186377
 31
0.0
210
-0.0000000000000001
220
1.0
230
0.0
1001
AME_SOL
1070
     0
1071
        0
  0
LINE
  5
9BFD
330
1F
100
AcDbEntity
  8
freecads.com
100
AcDbLine
 10
16972.94428233452
 20
10450.21729186377
 30
0.0
 11
16972.94428233452
 21
10460.71729186377
 31
0.0
210
-0.0000000000000001
220
1.0
230
0.0
1001
AME_SOL
1070
     0
1071
        0
  0
LINE
  5
9BFE
330
1F
100
AcDbEntity
  8
freecads.com
100
AcDbLine
 10
16972.94428233452
 20
10445.71729186377
 30
0.0
 11
16972.94428233452
 21
10460.71729186377
 31
0.0
210
-0.0000000000000001
220
1.0
230
0.0
1001
AME_SOL
1070
     0
1071
        0
  0
LINE
  5
9BFF
330
1F
100
AcDbEntity
  8
freecads.com
100
AcDbLine
 10
16972.94428233452
 20
10445.71729186377
 30
0.0
 11
16972.94428233452
 21
10460.71729186377
 31
0.0
210
-0.0000000000000001
220
1.0
230
0.0
1001
AME_SOL
1070
     0
1071
        0
  0
LINE
  5
9C00
330
1F
100
AcDbEntity
  8
freecads.com
100
AcDbLine
 10
16702.94428233452
 20
10670.71729186377
 30
0.0
 11
17025.44428233452
 21
10670.71729186377
 31
0.0
210
0.0000000000000002
220
1.0
230
0.0
1001
AME_SOL
1070
     0
1071
        0
  0
LINE
  5
9C01
330
1F
100
AcDbEntity
  8
freecads.com
100
AcDbLine
 10
16963.94428233452
 20
10670.71729186377
 30
0.0
 11
16861.94428233452
 21
10670.71729186377
 31
0.0
210
-0.0000000000000001
220
1.0
230
0.0
1001
AME_SOL
1070
     0
1071
        0
  0
LINE
  5
9C02
330
1F
100
AcDbEntity
  8
freecads.com
100
AcDbLine
 10
16972.94428233452
 20
10700.71729186377
 30
0.0
 11
16852.94428233452
 21
10700.71729186377
 31
0.0
210
-0.0000000000000001
220
1.0
230
0.0
1001
AME_SOL
1070
     0
1071
        0
  0
LINE
  5
9C03
330
1F
100
AcDbEntity
  8
freecads.com
100
AcDbLine
 10
16725.44428233452
 20
11114.88657681559
 30
0.0
 11
16800.44428233452
 21
11114.88657681559
 31
0.0
  0
LINE
  5
9C04
330
1F
100
AcDbEntity
  8
freecads.com
100
AcDbLine
 10
16725.44428233452
 20
10685.71729186377
 30
0.0
 11
16725.44428233452
 21
11114.88657681559
 31
0.0
  0
LINE
  5
9C05
330
1F
100
AcDbEntity
  8
freecads.com
100
AcDbLine
 10
16800.44428233452
 20
10685.71729186377
 30
0.0
 11
16800.44428233452
 21
11114.88657681559
 31
0.0
  0
LINE
  5
9C06
330
1F
100
AcDbEntity
  8
freecads.com
100
AcDbLine
 10
16702.94428233452
 20
10670.71729186377
 30
0.0
 11
16702.94428233452
 21
10685.71729186377
 31
0.0
  0
LINE
  5
9C07
330
1F
100
AcDbEntity
  8
freecads.com
100
AcDbLine
 10
16852.94428233452
 20
10685.71729186377
 30
0.0
 11
16852.94428233452
 21
10696.21729186377
 31
0.0
210
-0.0000000000000001
220
1.0
230
0.0
1001
AME_SOL
1070
     0
1071
        0
  0
LINE
  5
9C08
330
1F
100
AcDbEntity
  8
freecads.com
100
AcDbLine
 10
16852.94428233452
 20
10685.71729186377
 30
0.0
 11
16852.94428233452
 21
10696.21729186377
 31
0.0
210
-0.0000000000000001
220
1.0
230
0.0
1001
AME_SOL
1070
     0
1071
        0
  0
LINE
  5
9C09
330
1F
100
AcDbEntity
  8
freecads.com
100
AcDbLine
 10
16852.94428233452
 20
10685.71729186377
 30
0.0
 11
16852.94428233452
 21
10700.71729186377
 31
0.0
210
-0.0000000000000001
220
1.0
230
0.0
1001
AME_SOL
1070
     0
1071
        0
  0
LINE
  5
9C0A
330
1F
100
AcDbEntity
  8
freecads.com
100
AcDbLine
 10
16852.94428233452
 20
10685.71729186377
 30
0.0
 11
16852.94428233452
 21
10700.71729186377
 31
0.0
210
-0.0000000000000001
220
1.0
230
0.0
1001
AME_SOL
1070
     0
1071
        0
  0
LINE
  5
9C0B
330
1F
100
AcDbEntity
  8
freecads.com
100
AcDbLine
 10
17149.19428233452
 20
10693.21729186377
 30
0.0
 11
17201.69428233452
 21
10693.21729186377
 31
0.0
  0
LINE
  5
9C0C
330
1F
100
AcDbEntity
  8
freecads.com
100
AcDbLine
 10
17149.19428233452
 20
10685.71729186377
 30
0.0
 11
17149.19428233452
 21
10693.21729186377
 31
0.0
  0
LINE
  5
9C0D
330
1F
100
AcDbEntity
  8
freecads.com
100
AcDbLine
 10
17201.69428233452
 20
10685.71729186377
 30
0.0
 11
17201.69428233452
 21
10693.21729186377
 31
0.0
  0
LINE
  5
9C0E
330
1F
100
AcDbEntity
  8
freecads.com
100
AcDbLine
 10
16972.94428233452
 20
10685.71729186377
 30
0.0
 11
16972.94428233452
 21
10696.21729186377
 31
0.0
210
-0.0000000000000001
220
1.0
230
0.0
1001
AME_SOL
1070
     0
1071
        0
  0
LINE
  5
9C0F
330
1F
100
AcDbEntity
  8
freecads.com
100
AcDbLine
 10
16972.94428233452
 20
10685.71729186377
 30
0.0
 11
16972.94428233452
 21
10696.21729186377
 31
0.0
210
-0.0000000000000001
220
1.0
230
0.0
1001
AME_SOL
1070
     0
1071
        0
  0
LINE
  5
9C10
330
1F
100
AcDbEntity
  8
freecads.com
100
AcDbLine
 10
16972.94428233452
 20
10685.71729186377
 30
0.0
 11
16972.94428233452
 21
10700.71729186377
 31
0.0
210
-0.0000000000000001
220
1.0
230
0.0
1001
AME_SOL
1070
     0
1071
        0
  0
LINE
  5
9C11
330
1F
100
AcDbEntity
  8
freecads.com
100
AcDbLine
 10
16972.94428233452
 20
10685.71729186377
 30
0.0
 11
16972.94428233452
 21
10700.71729186377
 31
0.0
210
-0.0000000000000001
220
1.0
230
0.0
1001
AME_SOL
1070
     0
1071
        0
  0
LINE
  5
9C12
330
1F
100
AcDbEntity
  8
freecads.com
100
AcDbLine
 10
19692.44428233452
 20
10460.71729186377
 30
0.0
 11
16702.94428233452
 21
10460.71729186377
 31
0.0
1001
ACAD
1000
ASC_BOUNDS
1002
{
1070
    19
1002
}
  0
LINE
  5
9C13
330
1F
100
AcDbEntity
  8
freecads.com
100
AcDbLine
 10
16702.94428233452
 20
10685.71729186377
 30
0.0
 11
19692.44428233452
 21
10685.71729186377
 31
0.0
  0
LINE
  5
9C14
330
1F
100
AcDbEntity
  8
freecads.com
100
AcDbLine
 10
16837.94428233452
 20
10289.88657681559
 30
0.0
 11
16837.94428233452
 21
9998.717291863776
 31
0.0
210
0.0
220
1.0
230
0.0
1001
AME_SOL
1070
     0
1071
        0
  0
LINE
  5
9C15
330
1F
100
AcDbEntity
  8
freecads.com
100
AcDbLine
 10
16825.94428233452
 20
9998.717291863776
 30
0.0
 11
16825.94428233452
 21
10289.88657681559
 31
0.0
210
0.0
220
1.0
230
0.0
1001
AME_SOL
1070
     0
1071
        0
  0
LINE
  5
9C16
330
1F
100
AcDbEntity
  8
freecads.com
100
AcDbLine
 10
16999.94428233452
 20
10388.71729186377
 30
0.0
 11
16999.94428233452
 21
9998.717291863776
 31
0.0
210
0.0
220
1.0
230
0.0
1001
AME_SOL
1070
     0
1071
        0
  0
LINE
  5
9C17
330
1F
100
AcDbEntity
  8
freecads.com
100
AcDbLine
 10
16987.94428233452
 20
10400.71729186377
 30
0.0
 11
16987.94428233452
 21
9998.717291863776
 31
0.0
210
0.0
220
1.0
230
0.0
1001
AME_SOL
1070
     0
1071
        0
  0
LINE
  5
9C18
330
1F
100
AcDbEntity
  8
freecads.com
100
AcDbLine
 10
15534.0839028037
 20
16966.05249277173
 30
0.0
 11
19525.45667279604
 21
10950.78299581069
 31
0.0
  0
LINE
  5
9C19
330
1F
100
AcDbEntity
  8
freecads.com
100
AcDbLine
 10
15744.82305915164
 20
17191.05249277173
 30
0.0
 11
19692.44428233452
 21
11241.7195444946
 31
0.0
  0
ARC
  5
9C1A
330
1F
100
AcDbEntity
  8
freecads.com
100
AcDbCircle
 10
14771.34667655801
 20
17207.55249277172
 30
0.0
 40
15.0
100
AcDbArc
 50
0.0
 51
90.0
  0
LINE
  5
9C1C
330
1F
100
AcDbEntity
  8
freecads.com
100
AcDbLine
 10
14747.34667655801
 20
17183.55249277172
 30
0.0
 11
14552.34667655801
 21
17183.55249277172
 31
0.0
  0
LINE
  5
9C1D
330
1F
100
AcDbEntity
  8
freecads.com
100
AcDbLine
 10
14543.34667655801
 20
17192.55249277173
 30
0.0
 11
14756.34667655801
 21
17192.55249277173
 31
0.0
  0
LINE
  5
9C1E
330
1F
100
AcDbEntity
  8
freecads.com
100
AcDbLine
 10
14754.84667655801
 20
17191.05249277173
 30
0.0
 11
14544.84667655801
 21
17191.05249277173
 31
0.0
  0
ARC
  5
9C1F
330
1F
100
AcDbEntity
  8
freecads.com
100
AcDbCircle
 10
14528.34667655801
 20
17207.55249277172
 30
0.0
 40
15.0
100
AcDbArc
 50
90.0
 51
180.0
  0
LINE
  5
9C20
330
1F
100
AcDbEntity
  8
freecads.com
100
AcDbLine
 10
14771.34667655801
 20
17222.55249277172
 30
0.0
 11
14528.34667655801
 21
17222.55249277172
 31
0.0
  0
LINE
  5
9C21
330
1F
100
AcDbEntity
  8
freecads.com
100
AcDbLine
 10
14786.34667655802
 20
17191.05249277173
 30
0.0
 11
15744.82305915164
 21
17191.05249277173
 31
0.0
  0
CIRCLE
  5
9C22
330
1F
100
AcDbEntity
  8
freecads.com
100
AcDbCircle
 10
16034.50692987767
 20
16483.18014902519
 30
0.0
 40
61.875
1001
AME_SOL
1070
     0
1071
        0
  0
CIRCLE
  5
9C23
330
1F
100
AcDbEntity
  8
freecads.com
100
AcDbCircle
 10
16034.50692987767
 20
16483.18014902519
 30
0.0
 40
66.67500000000001
1001
AME_SOL
1070
     0
1071
        0
  0
LINE
  5
9C24
330
1F
100
AcDbEntity
  8
freecads.com
100
AcDbLine
 10
14785.27341893477
 20
16966.05249277173
 30
0.0
 11
15534.0839028037
 21
16966.05249277173
 31
0.0
  0
ARC
  5
9C25
330
1F
100
AcDbEntity
  8
freecads.com
100
AcDbCircle
 10
14771.34667655801
 20
16971.6243727761
 30
0.0
 40
15.0
100
AcDbArc
 50
319.2440990179425
 51
0.0
  0
LINE
  5
9C26
330
1F
100
AcDbEntity
  8
freecads.com
100
AcDbLine
 10
14706.65900792041
 20
16873.58965987615
 30
0.0
 11
14782.70914283091
 21
16961.83180619691
 31
0.0
  0
ARC
  5
9C27
330
1F
100
AcDbEntity
  8
freecads.com
100
AcDbCircle
 10
14528.34667655801
 20
16971.6243727761
 30
0.0
 40
15.0
100
AcDbArc
 50
180.0
 51
220.7559009820575
  0
ARC
  5
9C28
330
1F
100
AcDbEntity
  8
freecads.com
100
AcDbCircle
 10
14528.34667655801
 20
16971.6243727761
 30
0.0
 40
15.0
100
AcDbArc
 50
180.0
 51
220.7559009820575
  0
ARC
  5
9C29
330
1F
100
AcDbEntity
  8
freecads.com
100
AcDbCircle
 10
14528.34667655801
 20
16971.6243727761
 30
0.0
 40
15.0
100
AcDbArc
 50
180.0
 51
220.7559009820575
  0
LINE
  5
9C2A
330
1F
100
AcDbEntity
  8
freecads.com
100
AcDbLine
 10
14747.34667655801
 20
16988.55249277172
 30
0.0
 11
14552.34667655801
 21
16988.55249277172
 31
0.0
  0
LINE
  5
9C2B
330
1F
100
AcDbEntity
  8
freecads.com
100
AcDbLine
 10
14543.34667655801
 20
16979.55249277173
 30
0.0
 11
14756.34667655801
 21
16979.55249277173
 31
0.0
  0
LINE
  5
9C2C
330
1F
100
AcDbEntity
  8
freecads.com
100
AcDbLine
 10
14537.38887670658
 20
16922.55249277172
 30
0.0
 11
14757.96420566108
 21
16922.55249277172
 31
0.0
  0
LINE
  5
9C2D
330
1F
100
AcDbEntity
  8
freecads.com
100
AcDbLine
 10
14754.84667655801
 20
16981.05249277173
 30
0.0
 11
14544.84667655801
 21
16981.05249277173
 31
0.0
  0
LINE
  5
9C2E
330
1F
100
AcDbEntity
  8
freecads.com
100
AcDbLine
 10
14516.98421028581
 20
16961.83180619691
 30
0.0
 11
14593.03434519632
 21
16873.58965987615
 31
0.0
  0
CIRCLE
  5
9C2F
330
1F
100
AcDbEntity
  8
freecads.com
100
AcDbCircle
 10
14649.84667655801
 20
16922.55249277172
 30
0.0
 40
37.5
  0
ARC
  5
9C30
330
1F
100
AcDbEntity
  8
freecads.com
100
AcDbCircle
 10
14649.84667655801
 20
16922.55249277172
 30
0.0
 40
75.0
100
AcDbArc
 50
220.7559009820575
 51
319.2440990179425
  0
LINE
  5
9C32
330
1F
100
AcDbEntity
  8
freecads.com
100
AcDbLine
 10
14754.84667655801
 20
16981.05249277173
 30
0.0
 11
14754.84667655801
 21
17191.05249277173
 31
0.0
  0
LINE
  5
9C33
330
1F
100
AcDbEntity
  8
freecads.com
100
AcDbLine
 10
14513.34667655801
 20
17207.55249277172
 30
0.0
 11
14513.34667655801
 21
16971.6243727761
 31
0.0
  0
LINE
  5
9C34
330
1F
100
AcDbEntity
  8
freecads.com
100
AcDbLine
 10
14756.34667655801
 20
17192.55249277173
 30
0.0
 11
14756.34667655801
 21
16979.55249277173
 31
0.0
  0
LINE
  5
9C35
330
1F
100
AcDbEntity
  8
freecads.com
100
AcDbLine
 10
14747.34667655801
 20
16988.55249277172
 30
0.0
 11
14747.34667655801
 21
17183.55249277172
 31
0.0
  0
LINE
  5
9C36
330
1F
100
AcDbEntity
  8
freecads.com
100
AcDbLine
 10
14754.84667655801
 20
16981.05249277173
 30
0.0
 11
14754.84667655801
 21
17191.05249277173
 31
0.0
  0
LINE
  5
9C37
330
1F
100
AcDbEntity
  8
freecads.com
100
AcDbLine
 10
14543.34667655801
 20
17192.55249277173
 30
0.0
 11
14543.34667655801
 21
16979.55249277173
 31
0.0
  0
LINE
  5
9C38
330
1F
100
AcDbEntity
  8
freecads.com
100
AcDbLine
 10
14552.34667655801
 20
16988.55249277172
 30
0.0
 11
14552.34667655801
 21
17183.55249277172
 31
0.0
  0
LINE
  5
9C39
330
1F
100
AcDbEntity
  8
freecads.com
100
AcDbLine
 10
14544.84667655801
 20
16981.05249277173
 30
0.0
 11
14544.84667655801
 21
17191.05249277173
 31
0.0
  0
LINE
  5
9C3A
330
1F
100
AcDbEntity
  8
freecads.com
100
AcDbLine
 10
14786.34667655802
 20
16971.6243727761
 30
0.0
 11
14786.34667655802
 21
17207.55249277172
 31
0.0
  0
LINE
  5
9C3C
330
1F
100
AcDbEntity
  8
freecads.com
100
AcDbLine
 10
15744.82305915164
 20
17191.05249277173
 30
0.0
 11
15534.0839028037
 21
16966.05249277173
 31
0.0
  0
LINE
  5
9C3D
330
1F
100
AcDbEntity
  8
freecads.com
100
AcDbLine
 10
14972.34667655801
 20
13642.0173254447
 30
0.0
 11
14972.34667655801
 21
15277.0173254447
 31
0.0
  0
LINE
  5
9C3E
330
1F
100
AcDbEntity
  8
freecads.com
100
AcDbLine
 10
14102.34667655801
 20
13612.0173254447
 30
0.0
 11
14102.34667655802
 21
15359.5173254447
 31
0.0
  0
LINE
  5
9C3F
330
1F
100
AcDbEntity
  8
freecads.com
100
AcDbLine
 10
14327.34667655801
 20
13642.0173254447
 30
0.0
 11
14327.34667655802
 21
15352.0173254447
 31
0.0
  0
LINE
  5
9C40
330
1F
100
AcDbEntity
  8
freecads.com
100
AcDbLine
 10
13844.34667655801
 20
13844.5173254447
 30
0.0
 11
13844.34667655802
 21
15352.0173254447
 31
0.0
  0
LINE
  5
9C41
330
1F
100
AcDbEntity
  8
freecads.com
100
AcDbLine
 10
15197.34667655801
 20
13711.14108802716
 30
0.0
 11
15197.34667655801
 21
15277.0173254447
 31
0.0
  0
LINE
  5
9C42
330
1F
100
AcDbEntity
  8
freecads.com
100
AcDbLine
 10
14102.34667655801
 20
13642.0173254447
 30
0.0
 11
15141.64482908721
 21
13642.0173254447
 31
0.0
  0
LINE
  5
9C43
330
1F
100
AcDbEntity
  8
freecads.com
100
AcDbLine
 10
14335.08333534068
 20
13587.43682653776
 30
0.0
 11
15124.66818787803
 21
13587.43682653776
 31
0.0
  0
LINE
  5
9C44
330
1F
100
AcDbEntity
  8
freecads.com
100
AcDbLine
 10
14304.84667655802
 20
13527.43682653776
 30
0.0
 11
15124.66818787803
 21
13527.43682653776
 31
0.0
  0
ARC
  5
9C45
330
1F
100
AcDbEntity
  8
freecads.com
100
AcDbCircle
 10
14078.33540210584
 20
13302.43682653776
 30
0.0
 40
15.0
100
AcDbArc
 50
270.0
 51
331.9908232919849
  0
ARC
  5
9C46
330
1F
100
AcDbEntity
  8
freecads.com
100
AcDbCircle
 10
14057.34667655802
 20
13317.43682653776
 30
0.0
 40
75.0
100
AcDbArc
 50
101.7060798079608
 51
29.23948302467043
  0
ARC
  5
9C47
330
1F
100
AcDbEntity
  8
freecads.com
100
AcDbCircle
 10
14057.34667655802
 20
13317.43682653776
 30
0.0
 40
90.0
100
AcDbArc
 50
97.5991219642109
 51
35.19397415723679
  0
ARC
  5
9C48
330
1F
100
AcDbEntity
  8
freecads.com
100
AcDbCircle
 10
14057.34667655802
 20
13317.43682653776
 30
0.0
 40
30.0
100
AcDbArc
 50
168.1279013297644
 51
270.0
  0
ARC
  5
9C49
330
1F
100
AcDbEntity
  8
freecads.com
100
AcDbCircle
 10
14057.34667655802
 20
13317.43682653776
 30
0.0
 40
150.0
100
AcDbArc
 50
89.66486036252048
 51
46.29697560211488
  0
LINE
  5
9C4A
330
1F
100
AcDbEntity
  8
freecads.com
100
AcDbLine
 10
14057.34667655802
 20
13287.43682653776
 30
0.0
 11
14078.33540210584
 21
13287.43682653776
 31
0.0
  0
LINE
  5
9C4B
330
1F
100
AcDbEntity
  8
freecads.com
100
AcDbLine
 10
14091.57848794383
 20
13295.39263194309
 30
0.0
 11
14199.84667655801
 21
13500.43682653776
 31
0.0
  0
LINE
  5
9C4C
330
1F
100
AcDbEntity
  8
freecads.com
100
AcDbLine
 10
14031.09667655801
 20
13587.43682653776
 30
0.0
 11
14224.7880741363
 21
13587.43682653776
 31
0.0
  0
LINE
  5
9C4D
330
1F
100
AcDbEntity
  8
freecads.com
100
AcDbLine
 10
14233.59667655801
 20
13515.43682653776
 30
0.0
 11
14031.09667655801
 21
13515.43682653777
 31
0.0
  0
LINE
  5
9C4E
330
1F
100
AcDbEntity
  8
freecads.com
100
AcDbLine
 10
14064.84667655801
 20
13500.43682653776
 30
0.0
 11
14199.84667655801
 21
13500.43682653776
 31
0.0
  0
LINE
  5
9C4F
330
1F
100
AcDbEntity
  8
freecads.com
100
AcDbLine
 10
14031.09667655801
 20
13521.43682653776
 30
0.0
 11
14233.59667655802
 21
13521.43682653776
 31
0.0
  0
LINE
  5
9C50
330
1F
100
AcDbEntity
  8
freecads.com
100
AcDbLine
 10
14031.09667655801
 20
13527.43682653776
 30
0.0
 11
14259.84667655801
 21
13527.43682653777
 31
0.0
  0
LINE
  5
9C51
330
1F
100
AcDbEntity
  8
freecads.com
100
AcDbLine
 10
14162.34667655801
 20
13612.0173254447
 30
0.0
 11
14162.34667655801
 21
13642.0173254447
 31
0.0
  0
LINE
  5
9C52
330
1F
100
AcDbEntity
  8
freecads.com
100
AcDbLine
 10
14102.34667655801
 20
13612.0173254447
 30
0.0
 11
14162.34667655801
 21
13612.0173254447
 31
0.0
  0
LINE
  5
9C53
330
1F
100
AcDbEntity
  8
freecads.com
100
AcDbLine
 10
14162.34667655801
 20
13612.0173254447
 30
0.0
 11
14102.34667655802
 21
13612.0173254447
 31
0.0
  0
LINE
  5
9C54
330
1F
100
AcDbEntity
  8
freecads.com
100
AcDbLine
 10
13844.34667655801
 20
13844.5173254447
 30
0.0
 11
14102.34667655802
 21
13844.5173254447
 31
0.0
  0
LINE
  5
9C55
330
1F
100
AcDbEntity
  8
freecads.com
100
AcDbLine
 10
14064.84667655801
 20
13500.43682653776
 30
0.0
 11
14027.98839802774
 21
13323.6086562291
 31
0.0
  0
LINE
  5
9C56
330
1F
100
AcDbEntity
  8
freecads.com
100
AcDbLine
 10
14064.84667655801
 20
13515.43682653776
 30
0.0
 11
14064.84667655801
 21
13500.43682653776
 31
0.0
  0
LINE
  5
9C57
330
1F
100
AcDbEntity
  8
freecads.com
100
AcDbLine
 10
14031.09667655801
 20
13521.43682653776
 30
0.0
 11
14031.09667655801
 21
13587.43682653776
 31
0.0
  0
LINE
  5
9C58
330
1F
100
AcDbEntity
  8
freecads.com
100
AcDbLine
 10
14199.84667655801
 20
13515.43682653776
 30
0.0
 11
14199.84667655801
 21
13500.43682653776
 31
0.0
  0
LINE
  5
9C59
330
1F
100
AcDbEntity
  8
freecads.com
100
AcDbLine
 10
14233.59667655802
 20
13527.43682653777
 30
0.0
 11
14233.59667655802
 21
13521.43682653776
 31
0.0
  0
CIRCLE
  5
9C5A
330
1F
100
AcDbEntity
  8
freecads.com
100
AcDbCircle
 10
14282.34667655801
 20
13557.43682653776
 30
0.0
 40
12.75
  0
ARC
  5
9C5B
330
1F
100
AcDbEntity
  8
freecads.com
100
AcDbCircle
 10
14282.34667655801
 20
13557.43682653776
 30
0.0
 40
37.5
100
AcDbArc
 50
202.1905075784685
 51
337.8094924215316
  0
CIRCLE
  5
9C5C
330
1F
100
AcDbEntity
  8
freecads.com
100
AcDbCircle
 10
14282.34667655801
 20
13557.43682653776
 30
0.0
 40
18.75
  0
LINE
  5
9C5D
330
1F
100
AcDbEntity
  8
freecads.com
100
AcDbLine
 10
14207.34667655801
 20
13642.0173254447
 30
0.0
 11
14247.62418266423
 21
13543.27354945243
 31
0.0
  0
LINE
  5
9C5E
330
1F
100
AcDbEntity
  8
freecads.com
100
AcDbLine
 10
14357.34667655801
 20
13642.0173254447
 30
0.0
 11
14317.06917045181
 21
13543.27354945243
 31
0.0
  0
ARC
  5
9C5F
330
1F
100
AcDbEntity
  8
freecads.com
100
AcDbCircle
 10
15221.3579510102
 20
13302.43682653776
 30
0.0
 40
15.0
100
AcDbArc
 50
208.0091767080151
 51
270.0
  0
ARC
  5
9C60
330
1F
100
AcDbEntity
  8
freecads.com
100
AcDbCircle
 10
15242.34667655801
 20
13317.43682653776
 30
0.0
 40
30.0
100
AcDbArc
 50
270.0
 51
11.87209867023561
  0
ARC
  5
9C61
330
1F
100
AcDbEntity
  8
freecads.com
100
AcDbCircle
 10
15242.34667655801
 20
13317.43682653776
 30
0.0
 40
75.0
100
AcDbArc
 50
150.7605169753295
 51
37.45875816593628
  0
ARC
  5
9C62
330
1F
100
AcDbEntity
  8
freecads.com
100
AcDbCircle
 10
15242.34667655801
 20
13317.43682653776
 30
0.0
 40
90.0
100
AcDbArc
 50
144.8060258427632
 51
30.01617910143877
  0
ARC
  5
9C63
330
1F
100
AcDbEntity
  8
freecads.com
100
AcDbCircle
 10
15242.34667655801
 20
13317.43682653776
 30
0.0
 40
150.0
100
AcDbArc
 50
133.7030243978851
 51
21.86917143512898
  0
LINE
  5
9C64
330
1F
100
AcDbEntity
  8
freecads.com
100
AcDbLine
 10
15242.34667655801
 20
13287.43682653776
 30
0.0
 11
15221.3579510102
 21
13287.43682653776
 31
0.0
  0
CIRCLE
  5
9C65
330
1F
100
AcDbEntity
  8
freecads.com
100
AcDbCircle
 10
15317.34667655801
 20
13557.43682653776
 30
0.0
 40
97.11368654736213
  0
CIRCLE
  5
9C66
330
1F
100
AcDbEntity
  8
freecads.com
100
AcDbCircle
 10
15317.34667655801
 20
13557.43682653776
 30
0.0
 40
119.8372850500328
  0
CIRCLE
  5
9C67
330
1F
100
AcDbEntity
  8
freecads.com
100
AcDbCircle
 10
15317.34667655801
 20
13557.43682653776
 30
0.0
 40
195.0
  0
LINE
  5
9C68
330
1F
100
AcDbEntity
  8
freecads.com
100
AcDbLine
 10
15092.34667655802
 20
13642.0173254447
 30
0.0
 11
15091.40917655802
 21
13638.5185278126
 31
0.0
  0
LINE
  5
9C69
330
1F
100
AcDbEntity
  8
freecads.com
100
AcDbLine
 10
15041.06606508549
 20
13602.43682653776
 30
0.0
 11
15041.06606508549
 21
13594.93682653776
 31
0.0
  0
LINE
  5
9C6A
330
1F
100
AcDbEntity
  8
freecads.com
100
AcDbLine
 10
15137.34667655802
 20
13632.43682653778
 30
0.0
 11
15137.34667655801
 21
13642.0173254447
 31
0.0
  0
LINE
  5
9C6B
330
1F
100
AcDbEntity
  8
freecads.com
100
AcDbLine
 10
15208.11486517221
 20
13295.39263194309
 30
0.0
 11
15099.84667655802
 21
13500.43682653776
 31
0.0
  0
LINE
  5
9C6C
330
1F
100
AcDbEntity
  8
freecads.com
100
AcDbLine
 10
15066.09667655801
 20
13521.43682653776
 30
0.0
 11
15125.6985615138
 21
13521.43682653776
 31
0.0
  0
LINE
  5
9C6D
330
1F
100
AcDbEntity
  8
freecads.com
100
AcDbLine
 10
15130.86343334297
 20
13500.43682653776
 30
0.0
 11
15099.84667655802
 21
13500.43682653776
 31
0.0
  0
LINE
  5
9C6E
330
1F
100
AcDbEntity
  8
freecads.com
100
AcDbLine
 10
15066.09667655801
 20
13515.43682653776
 30
0.0
 11
15126.92346368731
 21
13515.43682653776
 31
0.0
  0
LINE
  5
9C6F
330
1F
100
AcDbEntity
  8
freecads.com
100
AcDbLine
 10
15125.6985615138
 20
13521.43682653776
 30
0.0
 11
15066.09667655801
 21
13521.43682653776
 31
0.0
  0
LINE
  5
9C70
330
1F
100
AcDbEntity
  8
freecads.com
100
AcDbLine
 10
15099.84667655801
 20
13515.43682653776
 30
0.0
 11
15099.84667655802
 21
13500.43682653776
 31
0.0
  0
LINE
  5
9C71
330
1F
100
AcDbEntity
  8
freecads.com
100
AcDbLine
 10
15066.09667655801
 20
13527.43682653776
 30
0.0
 11
15066.09667655801
 21
13521.43682653776
 31
0.0
  0
LINE
  5
9C72
330
1F
100
AcDbEntity
  8
freecads.com
100
AcDbLine
 10
14951.06606508549
 20
13602.43682653776
 30
0.0
 11
14951.06606508549
 21
13594.93682653776
 31
0.0
  0
LINE
  5
9C73
330
1F
100
AcDbEntity
  8
freecads.com
100
AcDbLine
 10
14944.21457425977
 20
13454.49315675836
 30
0.0
 11
14942.34667655802
 21
13456.53120023662
 31
0.0
  0
LINE
  5
9C74
330
1F
100
AcDbEntity
  8
freecads.com
100
AcDbLine
 10
14971.03326590178
 20
13453.85785877569
 30
0.0
 11
14968.22786820003
 21
13452.39710462185
 31
0.0
  0
LINE
  5
9C75
330
1F
100
AcDbEntity
  8
freecads.com
100
AcDbLine
 10
14944.21457425977
 20
13454.49315675836
 30
0.0
 11
14968.22786820003
 21
13452.39710462185
 31
0.0
  0
LINE
  5
9C76
330
1F
100
AcDbEntity
  8
freecads.com
100
AcDbLine
 10
14942.34667655802
 20
13462.18471744976
 30
0.0
 11
14974.2338190637
 21
13459.40137946446
 31
0.0
  0
LINE
  5
9C77
330
1F
100
AcDbEntity
  8
freecads.com
100
AcDbLine
 10
14942.34667655802
 20
13642.0173254447
 30
0.0
 11
14942.34667655802
 21
13456.53120023662
 31
0.0
  0
LINE
  5
9C78
330
1F
100
AcDbEntity
  8
freecads.com
100
AcDbLine
 10
15093.68995975544
 20
13642.0173254447
 30
0.0
 11
14971.03326590178
 21
13453.85785877569
 31
0.0
  0
LINE
  5
9C79
330
1F
100
AcDbEntity
  8
freecads.com
100
AcDbLine
 10
14951.06606508549
 20
13602.43682653776
 30
0.0
 11
15041.06606508549
 21
13602.43682653776
 31
0.0
  0
LINE
  5
9C7A
330
1F
100
AcDbEntity
  8
freecads.com
100
AcDbLine
 10
14951.06606508549
 20
13594.93682653776
 30
0.0
 11
15041.06606508549
 21
13594.93682653776
 31
0.0
  0
LINE
  5
9C7B
330
1F
100
AcDbEntity
  8
freecads.com
100
AcDbLine
 10
15261.93604238845
 20
13370.47516838046
 30
0.0
 11
15271.70495508829
 21
13323.6086562291
 31
0.0
  0
CIRCLE
  5
9C7C
330
1F
100
AcDbEntity
  8
freecads.com
100
AcDbCircle
 10
15317.34667655801
 20
13557.43682653776
 30
0.0
 40
30.0
  0
CIRCLE
  5
9C7D
330
1F
100
AcDbEntity
  8
freecads.com
100
AcDbCircle
 10
15317.34667655801
 20
13557.43682653776
 30
0.0
 40
33.75
  0
LINE
  5
9C7E
330
1F
100
AcDbEntity
  8
freecads.com
100
AcDbLine
 10
14559.84667655802
 20
15581.62566412784
 30
0.0
 11
14559.84667655802
 21
16922.55249277172
 31
0.0
  0
LINE
  5
9C7F
330
1F
100
AcDbEntity
  8
freecads.com
100
AcDbLine
 10
14649.84667655801
 20
15935.55249277172
 30
0.0
 11
14649.84667655801
 21
16922.55249277172
 31
0.0
  0
LINE
  5
9C81
330
1F
100
AcDbEntity
  8
freecads.com
100
AcDbLine
 10
14733.09667655802
 20
15596.55249277173
 30
0.0
 11
14916.09667655801
 21
15596.55249277173
 31
0.0
  0
LINE
  5
9C85
330
1F
100
AcDbEntity
  8
freecads.com
100
AcDbLine
 10
14751.09663468494
 20
15911.09025933171
 30
0.0
 11
15045.09663468494
 21
15911.09025933171
 31
0.0
  0
LINE
  5
9C89
330
1F
100
AcDbEntity
  8
freecads.com
100
AcDbLine
 10
14162.34667655802
 20
15352.0173254447
 30
0.0
 11
15137.34667655801
 21
15352.0173254447
 31
0.0
  0
LINE
  5
9C8A
330
1F
100
AcDbEntity
  8
freecads.com
100
AcDbLine
 10
14649.84667655801
 20
15277.0173254447
 30
0.0
 11
15197.34667655801
 21
15277.0173254447
 31
0.0
  0
LINE
  5
9C8B
330
1F
100
AcDbEntity
  8
freecads.com
100
AcDbLine
 10
14649.84667655801
 20
15287.5173254447
 30
0.0
 11
15234.84667655801
 21
15287.5173254447
 31
0.0
  0
LINE
  5
9C8C
330
1F
100
AcDbEntity
  8
freecads.com
100
AcDbLine
 10
14649.84667655801
 20
15304.0173254447
 30
0.0
 11
15212.34667655802
 21
15304.0173254447
 31
0.0
  0
LINE
  5
9C8D
330
1F
100
AcDbEntity
  8
freecads.com
100
AcDbLine
 10
14649.84667655801
 20
15295.0173254447
 30
0.0
 11
15234.84667655801
 21
15295.0173254447
 31
0.0
  0
LINE
  5
9C8E
330
1F
100
AcDbEntity
  8
freecads.com
100
AcDbLine
 10
14649.84667655801
 20
15325.0173254447
 30
0.0
 11
15212.34667655801
 21
15325.0173254447
 31
0.0
  0
LINE
  5
9C8F
330
1F
100
AcDbEntity
  8
freecads.com
100
AcDbLine
 10
14649.84667655801
 20
15334.0173254447
 30
0.0
 11
15234.84667655801
 21
15334.0173254447
 31
0.0
  0
LINE
  5
9C90
330
1F
100
AcDbEntity
  8
freecads.com
100
AcDbLine
 10
14649.84667655801
 20
15341.5173254447
 30
0.0
 11
15234.84667655801
 21
15341.5173254447
 31
0.0
  0
LINE
  5
9C97
330
1F
100
AcDbEntity
  8
freecads.com
100
AcDbLine
 10
14629.59667655801
 20
15718.05249277173
 30
0.0
 11
14629.59667655801
 21
15590.55249277173
 31
0.0
  0
LINE
  5
9C9B
330
1F
100
AcDbEntity
  8
freecads.com
100
AcDbLine
 10
14102.34667655802
 20
15359.5173254447
 30
0.0
 11
14162.34667655802
 21
15359.5173254447
 31
0.0
  0
LINE
  5
9C9C
330
1F
100
AcDbEntity
  8
freecads.com
100
AcDbLine
 10
14102.34667655802
 20
15352.0173254447
 30
0.0
 11
14162.34667655802
 21
15352.0173254447
 31
0.0
  0
LINE
  5
9C9D
330
1F
100
AcDbEntity
  8
freecads.com
100
AcDbLine
 10
13844.34667655802
 20
15352.0173254447
 30
0.0
 11
14102.34667655802
 21
15352.0173254447
 31
0.0
  0
LINE
  5
9C9E
330
1F
100
AcDbEntity
  8
freecads.com
100
AcDbLine
 10
14162.34667655802
 20
15359.5173254447
 30
0.0
 11
14162.34667655802
 21
15352.0173254447
 31
0.0
  0
LINE
  5
9CA8
330
1F
100
AcDbEntity
  8
freecads.com
100
AcDbLine
 10
14530.69748484664
 20
15565.12566412784
 30
0.0
 11
14530.69748484664
 21
15352.0173254447
 31
0.0
  0
LINE
  5
9CAD
330
1F
100
AcDbEntity
  8
freecads.com
100
AcDbLine
 10
14669.34667655801
 20
15508.05249277173
 30
0.0
 11
14668.59667655801
 21
15508.05249277173
 31
0.0
  0
ARC
  5
9CAE
330
1F
100
AcDbEntity
  8
freecads.com
100
AcDbCircle
 10
14669.34667655801
 20
15512.55249277173
 30
0.0
 40
4.5
100
AcDbArc
 50
270.0
 51
0.0
  0
LINE
  5
9CAF
330
1F
100
AcDbEntity
  8
freecads.com
100
AcDbLine
 10
14673.84667655801
 20
15541.05249277173
 30
0.0
 11
14673.84667655801
 21
15512.55249277173
 31
0.0
  0
LINE
  5
9CB0
330
1F
100
AcDbEntity
  8
freecads.com
100
AcDbLine
 10
14668.59667655801
 20
15515.55249277173
 30
0.0
 11
14668.59667655801
 21
15545.55249277173
 31
0.0
  0
LINE
  5
9CB1
330
1F
100
AcDbEntity
  8
freecads.com
100
AcDbLine
 10
14698.59667655802
 20
15576.8183208698
 30
0.0
 11
14698.59667655802
 21
15554.89703407738
 31
0.0
  0
LINE
  5
9CB2
330
1F
100
AcDbEntity
  8
freecads.com
100
AcDbLine
 10
14692.59667655801
 20
15574.3745731829
 30
0.0
 11
14692.59667655801
 21
15591.2620685567
 31
0.0
  0
LINE
  5
9CB3
330
1F
100
AcDbEntity
  8
freecads.com
100
AcDbLine
 10
14705.82395193198
 20
15577.5683208698
 30
0.0
 11
14692.59667655801
 21
15577.5683208698
 31
0.0
  0
LINE
  5
9CB4
330
1F
100
AcDbEntity
  8
freecads.com
100
AcDbLine
 10
14705.82395193198
 20
15588.0683208698
 30
0.0
 11
14692.59667655801
 21
15588.0683208698
 31
0.0
  0
LINE
  5
9CB6
330
1F
100
AcDbEntity
  8
freecads.com
100
AcDbLine
 10
14684.47167655802
 20
15577.1891557452
 30
0.0
 11
14690.97167655801
 21
15577.1891557452
 31
0.0
  0
LINE
  5
9CB7
330
1F
100
AcDbEntity
  8
freecads.com
100
AcDbLine
 10
14684.47167655802
 20
15588.4474859944
 30
0.0
 11
14690.97167655801
 21
15588.4474859944
 31
0.0
  0
LINE
  5
9CB8
330
1F
100
AcDbEntity
  8
freecads.com
100
AcDbLine
 10
14705.82395193198
 20
15532.05249277173
 30
0.0
 11
14692.59667655801
 21
15532.05249277173
 31
0.0
  0
LINE
  5
9CB9
330
1F
100
AcDbEntity
  8
freecads.com
100
AcDbLine
 10
14705.82395193198
 20
15521.55249277173
 30
0.0
 11
14692.59667655801
 21
15521.55249277173
 31
0.0
  0
LINE
  5
9CBA
330
1F
100
AcDbEntity
  8
freecads.com
100
AcDbLine
 10
14692.59667655801
 20
15518.35874508483
 30
0.0
 11
14692.59667655801
 21
15535.24624045863
 31
0.0
  0
LINE
  5
9CBC
330
1F
100
AcDbEntity
  8
freecads.com
100
AcDbLine
 10
14684.47167655802
 20
15532.43165789632
 30
0.0
 11
14690.97167655801
 21
15532.43165789632
 31
0.0
  0
LINE
  5
9CBD
330
1F
100
AcDbEntity
  8
freecads.com
100
AcDbLine
 10
14684.47167655802
 20
15521.17332764713
 30
0.0
 11
14690.97167655801
 21
15521.17332764713
 31
0.0
  0
LINE
  5
9CBE
330
1F
100
AcDbEntity
  8
freecads.com
100
AcDbLine
 10
14657.34667655801
 20
15590.55249277173
 30
0.0
 11
14657.34667655801
 21
15560.55249277173
 31
0.0
  0
LINE
  5
9CBF
330
1F
100
AcDbEntity
  8
freecads.com
100
AcDbLine
 10
14658.47167655801
 20
15500.55249277173
 30
0.0
 11
14670.47167655801
 21
15500.55249277173
 31
0.0
  0
LINE
  5
9CC0
330
1F
100
AcDbEntity
  8
freecads.com
100
AcDbLine
 10
14769.84667655801
 20
15581.62566412784
 30
0.0
 11
14769.84667655801
 21
15621.04587077576
 31
0.0
  0
LINE
  5
9CC5
330
1F
100
AcDbEntity
  8
freecads.com
100
AcDbLine
 10
14642.34667655801
 20
15560.55249277173
 30
0.0
 11
14642.34667655801
 21
15590.55249277173
 31
0.0
  0
LINE
  5
9CC6
330
1F
100
AcDbEntity
  8
freecads.com
100
AcDbLine
 10
14629.59667655801
 20
15560.55249277173
 30
0.0
 11
14629.59667655801
 21
15545.55249277173
 31
0.0
  0
LINE
  5
9CC9
330
1F
100
AcDbEntity
  8
freecads.com
100
AcDbLine
 10
14629.59667655801
 20
15514.05249277173
 30
0.0
 11
14627.34667655801
 21
15514.05249277173
 31
0.0
  0
LINE
  5
9CCA
330
1F
100
AcDbEntity
  8
freecads.com
100
AcDbLine
 10
14625.84667655801
 20
15515.55249277173
 30
0.0
 11
14627.34667655801
 21
15514.05249277173
 31
0.0
  0
LINE
  5
9CCB
330
1F
100
AcDbEntity
  8
freecads.com
100
AcDbLine
 10
14629.59667655801
 20
15515.55249277173
 30
0.0
 11
14629.59667655801
 21
15508.05249277173
 31
0.0
  0
LINE
  5
9CCC
330
1F
100
AcDbEntity
  8
freecads.com
100
AcDbLine
 10
14631.09667655801
 20
15508.05249277173
 30
0.0
 11
14629.59667655801
 21
15508.05249277173
 31
0.0
  0
LINE
  5
9CCD
330
1F
100
AcDbEntity
  8
freecads.com
100
AcDbLine
 10
14641.22167655801
 20
15500.55249277173
 30
0.0
 11
14629.22167655801
 21
15500.55249277173
 31
0.0
  0
LINE
  5
9CD2
330
1F
100
AcDbEntity
  8
freecads.com
100
AcDbLine
 10
14631.09667655801
 20
15515.55249277173
 30
0.0
 11
14631.09667655801
 21
15545.55249277173
 31
0.0
  0
LINE
  5
9CD4
330
1F
100
AcDbEntity
  8
freecads.com
100
AcDbLine
 10
14641.22167655801
 20
15457.80249277173
 30
0.0
 11
14658.47167655801
 21
15457.80249277173
 31
0.0
  0
LINE
  5
9CD5
330
1F
100
AcDbEntity
  8
freecads.com
100
AcDbLine
 10
14641.22167655801
 20
15410.55249277173
 30
0.0
 11
14658.47167655801
 21
15410.55249277173
 31
0.0
  0
LINE
  5
9CD6
330
1F
100
AcDbEntity
  8
freecads.com
100
AcDbLine
 10
14658.47167655801
 20
15475.05249277173
 30
0.0
 11
14641.22167655801
 21
15475.05249277173
 31
0.0
  0
LINE
  5
9CD8
330
1F
100
AcDbEntity
  8
freecads.com
100
AcDbLine
 10
14649.84667655801
 20
15352.0173254447
 30
0.0
 11
14649.84667655801
 21
15277.0173254447
 31
0.0
  0
LINE
  5
9CDA
330
1F
100
AcDbEntity
  8
freecads.com
100
AcDbLine
 10
14641.22167655801
 20
15352.0173254447
 30
0.0
 11
14641.22167655801
 21
15500.55249277173
 31
0.0
  0
LINE
  5
9CDB
330
1F
100
AcDbEntity
  8
freecads.com
100
AcDbLine
 10
14629.22167655801
 20
15500.55249277173
 30
0.0
 11
14629.22167655801
 21
15350.55249277173
 31
0.0
  0
LINE
  5
9CDC
330
1F
100
AcDbEntity
  8
freecads.com
100
AcDbLine
 10
14629.22167655801
 20
15459.51985261201
 30
0.0
 11
14589.76800328745
 21
15352.0173254447
 31
0.0
  0
LINE
  5
9CDD
330
1F
100
AcDbEntity
  8
freecads.com
100
AcDbLine
 10
14670.47167655801
 20
15500.55249277173
 30
0.0
 11
14670.47167655801
 21
15350.55249277173
 31
0.0
  0
LINE
  5
9CDE
330
1F
100
AcDbEntity
  8
freecads.com
100
AcDbLine
 10
14658.47167655801
 20
15500.55249277173
 30
0.0
 11
14658.47167655801
 21
15352.0173254447
 31
0.0
  0
LINE
  5
9CDF
330
1F
100
AcDbEntity
  8
freecads.com
100
AcDbLine
 10
14670.47167655801
 20
15459.51985261201
 30
0.0
 11
14709.92534982858
 21
15352.0173254447
 31
0.0
  0
POINT
  5
9CE2
330
1F
100
AcDbEntity
  8
freecads.com
100
AcDbPoint
 10
14473.59667655802
 20
15770.55249277173
 30
0.0
  0
POINT
  5
9CE3
330
1F
100
AcDbEntity
  8
freecads.com
100
AcDbPoint
 10
14473.59667655802
 20
15770.55249277173
 30
0.0
  0
LINE
  5
9CE4
330
1F
100
AcDbEntity
  8
freecads.com
100
AcDbLine
 10
14673.84667655801
 20
15969.07749277172
 30
0.0
 11
14673.84667655801
 21
16001.02749277173
 31
0.0
  0
LINE
  5
9CE5
330
1F
100
AcDbEntity
  8
freecads.com
100
AcDbLine
 10
14625.84667655801
 20
16001.02749277173
 30
0.0
 11
14625.84667655801
 21
15969.07749277172
 31
0.0
  0
LINE
  5
9CE8
330
1F
100
AcDbEntity
  8
freecads.com
100
AcDbLine
 10
14705.82395193198
 20
15712.80249277173
 30
0.0
 11
14692.34558816821
 21
15712.80249277173
 31
0.0
  0
LINE
  5
9CE9
330
1F
100
AcDbEntity
  8
freecads.com
100
AcDbLine
 10
14684.47167655802
 20
15712.42332764713
 30
0.0
 11
14690.97167655801
 21
15712.42332764713
 31
0.0
  0
LINE
  5
9CEB
330
1F
100
AcDbEntity
  8
freecads.com
100
AcDbLine
 10
14705.82395193198
 20
15793.62823532963
 30
0.0
 11
14692.34558816821
 21
15793.62823532963
 31
0.0
  0
LINE
  5
9CEC
330
1F
100
AcDbEntity
  8
freecads.com
100
AcDbLine
 10
14705.82395193198
 20
15804.12823532963
 30
0.0
 11
14692.34558816821
 21
15804.12823532963
 31
0.0
  0
LINE
  5
9CEE
330
1F
100
AcDbEntity
  8
freecads.com
100
AcDbLine
 10
14684.47167655802
 20
15804.50740045423
 30
0.0
 11
14690.97167655801
 21
15804.50740045423
 31
0.0
  0
LINE
  5
9CEF
330
1F
100
AcDbEntity
  8
freecads.com
100
AcDbLine
 10
14684.47167655802
 20
15793.24907020503
 30
0.0
 11
14690.97167655801
 21
15793.24907020503
 31
0.0
  0
LINE
  5
9CF0
330
1F
100
AcDbEntity
  8
freecads.com
100
AcDbLine
 10
14733.09667655802
 20
15839.55249277172
 30
0.0
 11
14757.84577016521
 21
15839.55249277172
 31
0.0
  0
LINE
  5
9CF1
330
1F
100
AcDbEntity
  8
freecads.com
100
AcDbLine
 10
14705.82395193198
 20
15723.30249277173
 30
0.0
 11
14692.34558816821
 21
15723.30249277173
 31
0.0
  0
LINE
  5
9CF2
330
1F
100
AcDbEntity
  8
freecads.com
100
AcDbLine
 10
14684.47167655802
 20
15723.68165789632
 30
0.0
 11
14690.97167655801
 21
15723.68165789632
 31
0.0
  0
LINE
  5
9CF3
330
1F
100
AcDbEntity
  8
freecads.com
100
AcDbLine
 10
14698.59667655802
 20
15792.87823532963
 30
0.0
 11
14698.59667655802
 21
15724.05249277173
 31
0.0
  0
LINE
  5
9CF6
330
1F
100
AcDbEntity
  8
freecads.com
100
AcDbLine
 10
14659.9284957506
 20
15817.18623346029
 30
0.0
 11
14659.9284957506
 21
15718.05249277173
 31
0.0
  0
LINE
  5
9CFA
330
1F
100
AcDbEntity
  8
freecads.com
100
AcDbLine
 10
14673.84667655801
 20
15923.55249277173
 30
0.0
 11
14673.84667655801
 21
15898.05249277173
 31
0.0
  0
LINE
  5
9CFB
330
1F
100
AcDbEntity
  8
freecads.com
100
AcDbLine
 10
14705.82395193198
 20
15904.05249277172
 30
0.0
 11
14692.59667655801
 21
15904.05249277172
 31
0.0
  0
LINE
  5
9CFC
330
1F
100
AcDbEntity
  8
freecads.com
100
AcDbLine
 10
14705.82395193198
 20
15914.55249277172
 30
0.0
 11
14692.59667655801
 21
15914.55249277172
 31
0.0
  0
LINE
  5
9CFE
330
1F
100
AcDbEntity
  8
freecads.com
100
AcDbLine
 10
14684.47167655802
 20
15914.93165789632
 30
0.0
 11
14690.97167655801
 21
15914.93165789632
 31
0.0
  0
LINE
  5
9CFF
330
1F
100
AcDbEntity
  8
freecads.com
100
AcDbLine
 10
14684.47167655802
 20
15903.67332764713
 30
0.0
 11
14690.97167655801
 21
15903.67332764713
 31
0.0
  0
LINE
  5
9D00
330
1F
100
AcDbEntity
  8
freecads.com
100
AcDbLine
 10
14770.77157388592
 20
15911.09025933171
 30
0.0
 11
14770.59532388592
 21
15911.09025933171
 31
0.0
  0
LINE
  5
9D01
330
1F
100
AcDbEntity
  8
freecads.com
100
AcDbLine
 10
14766.54542589963
 20
15911.09025933171
 30
0.0
 11
14766.72167589963
 21
15911.09025933171
 31
0.0
  0
LINE
  5
9D05
330
1F
100
AcDbEntity
  8
freecads.com
100
AcDbLine
 10
14625.84667655802
 20
15718.05249277173
 30
0.0
 11
14673.84667655801
 21
15718.05249277173
 31
0.0
  0
LINE
  5
9D06
330
1F
100
AcDbEntity
  8
freecads.com
100
AcDbLine
 10
14673.84667655801
 20
15935.55249277172
 30
0.0
 11
14625.84667655801
 21
15935.55249277172
 31
0.0
  0
LINE
  5
9D07
330
1F
100
AcDbEntity
  8
freecads.com
100
AcDbLine
 10
14625.84667655801
 20
15964.57749277172
 30
0.0
 11
14625.84667655801
 21
15935.55249277172
 31
0.0
  0
LINE
  5
9D08
330
1F
100
AcDbEntity
  8
freecads.com
100
AcDbLine
 10
15091.5969619652
 20
15606.30249277173
 30
0.0
 11
15091.5969619652
 21
15712.05249277173
 31
0.0
  0
ARC
  5
9D0B
330
1F
100
AcDbEntity
  8
freecads.com
100
AcDbCircle
 10
15096.73455724413
 20
15595.10634034902
 30
0.0
 40
2.284528524314867
100
AcDbArc
 50
310.6972580387477
 51
49.30274196119963
  0
LINE
  5
9D0C
330
1F
100
AcDbEntity
  8
freecads.com
100
AcDbLine
 10
15099.01908576844
 20
15605.49864519443
 30
0.0
 11
15099.01908576844
 21
15595.10634034902
 31
0.0
  0
LINE
  5
9D0D
330
1F
100
AcDbEntity
  8
freecads.com
100
AcDbLine
 10
15093.01908576844
 20
15607.230696002
 30
0.0
 11
15093.01908576844
 21
15593.37428954145
 31
0.0
  0
LINE
  5
9D0E
330
1F
100
AcDbEntity
  8
freecads.com
100
AcDbLine
 10
15091.60998961507
 20
15593.37428954145
 30
0.0
 11
15091.60998961507
 21
15607.230696002
 31
0.0
  0
LINE
  5
9D0F
330
1F
100
AcDbEntity
  8
freecads.com
100
AcDbLine
 10
15098.22421176059
 20
15593.37428954145
 30
0.0
 11
15091.60998961507
 21
15593.37428954145
 31
0.0
  0
LINE
  5
9D11
330
1F
100
AcDbEntity
  8
freecads.com
100
AcDbLine
 10
15098.22421176059
 20
15596.83839115659
 30
0.0
 11
15093.01908576844
 21
15596.83839115659
 31
0.0
  0
ARC
  5
9D12
330
1F
100
AcDbEntity
  8
freecads.com
100
AcDbCircle
 10
15096.73455724413
 20
15605.49864519443
 30
0.0
 40
2.284528524314867
100
AcDbArc
 50
310.6972580388004
 51
49.30274196125228
  0
LINE
  5
9D13
330
1F
100
AcDbEntity
  8
freecads.com
100
AcDbLine
 10
15098.22421176059
 20
15603.76659438686
 30
0.0
 11
15093.01908576844
 21
15603.76659438686
 31
0.0
  0
ARC
  5
9D14
330
1F
100
AcDbEntity
  8
freecads.com
100
AcDbCircle
 10
15091.07328268296
 20
15600.30249277173
 30
0.0
 40
7.945803085476004
100
AcDbArc
 50
334.1532090642477
 51
25.8467909357523
  0
LINE
  5
9D15
330
1F
100
AcDbEntity
  8
freecads.com
100
AcDbLine
 10
15197.34667655801
 20
15359.5173254447
 30
0.0
 11
15137.34667655801
 21
15359.5173254447
 31
0.0
  0
LINE
  5
9D16
330
1F
100
AcDbEntity
  8
freecads.com
100
AcDbLine
 10
15234.84667655801
 20
15334.0173254447
 30
0.0
 11
15212.34667655801
 21
15325.0173254447
 31
0.0
  0
LINE
  5
9D17
330
1F
100
AcDbEntity
  8
freecads.com
100
AcDbLine
 10
15197.34667655801
 20
15352.0173254447
 30
0.0
 11
15234.84667655801
 21
15341.5173254447
 31
0.0
  0
LINE
  5
9D18
330
1F
100
AcDbEntity
  8
freecads.com
100
AcDbLine
 10
15234.84667655801
 20
15341.5173254447
 30
0.0
 11
15234.84667655801
 21
15334.0173254447
 31
0.0
  0
LINE
  5
9D19
330
1F
100
AcDbEntity
  8
freecads.com
100
AcDbLine
 10
15234.84667655801
 20
15287.5173254447
 30
0.0
 11
15234.84667655801
 21
15295.0173254447
 31
0.0
  0
LINE
  5
9D1A
330
1F
100
AcDbEntity
  8
freecads.com
100
AcDbLine
 10
15197.34667655801
 20
15277.0173254447
 30
0.0
 11
15234.84667655801
 21
15287.5173254447
 31
0.0
  0
LINE
  5
9D1B
330
1F
100
AcDbEntity
  8
freecads.com
100
AcDbLine
 10
15234.84667655801
 20
15295.0173254447
 30
0.0
 11
15212.34667655801
 21
15304.0173254447
 31
0.0
  0
LINE
  5
9D1C
330
1F
100
AcDbEntity
  8
freecads.com
100
AcDbLine
 10
15212.34667655801
 20
15304.0173254447
 30
0.0
 11
15212.34667655801
 21
15325.0173254447
 31
0.0
  0
LINE
  5
9D1D
330
1F
100
AcDbEntity
  8
freecads.com
100
AcDbLine
 10
15197.34667655801
 20
15352.0173254447
 30
0.0
 11
15137.34667655801
 21
15352.0173254447
 31
0.0
  0
LINE
  5
9D1E
330
1F
100
AcDbEntity
  8
freecads.com
100
AcDbLine
 10
15197.34667655801
 20
15352.0173254447
 30
0.0
 11
15197.34667655801
 21
15359.5173254447
 31
0.0
  0
LINE
  5
9D1F
330
1F
100
AcDbEntity
  8
freecads.com
100
AcDbLine
 10
15137.34667655801
 20
15359.5173254447
 30
0.0
 11
15137.34667655801
 21
15352.0173254447
 31
0.0
  0
LINE
  5
9D21
330
1F
100
AcDbEntity
  8
freecads.com
100
AcDbLine
 10
15093.01908576844
 20
15828.87428954145
 30
0.0
 11
15093.01908576844
 21
15842.730696002
 31
0.0
  0
ARC
  5
9D22
330
1F
100
AcDbEntity
  8
freecads.com
100
AcDbCircle
 10
15096.73455724413
 20
15840.99864519443
 30
0.0
 40
2.284528524314867
100
AcDbArc
 50
310.6972580388004
 51
49.30274196125228
  0
LINE
  5
9D23
330
1F
100
AcDbEntity
  8
freecads.com
100
AcDbLine
 10
15091.60998961507
 20
15842.730696002
 30
0.0
 11
15091.60998961507
 21
15828.87428954145
 31
0.0
  0
ARC
  5
9D25
330
1F
100
AcDbEntity
  8
freecads.com
100
AcDbCircle
 10
15096.73455724413
 20
15712.85634034902
 30
0.0
 40
2.284528524314867
100
AcDbArc
 50
310.6972580387477
 51
49.30274196119963
  0
ARC
  5
9D26
330
1F
100
AcDbEntity
  8
freecads.com
100
AcDbCircle
 10
15102.39408576844
 20
15718.05249277173
 30
0.0
 40
5.625
100
AcDbArc
 50
270.0
 51
90.0
  0
LINE
  5
9D27
330
1F
100
AcDbEntity
  8
freecads.com
100
AcDbLine
 10
15099.01908576844
 20
15712.85634034902
 30
0.0
 11
15099.01908576844
 21
15723.24864519443
 31
0.0
  0
LINE
  5
9D29
330
1F
100
AcDbEntity
  8
freecads.com
100
AcDbLine
 10
15093.01908576844
 20
15711.12428954145
 30
0.0
 11
15093.01908576844
 21
15724.980696002
 31
0.0
  0
LINE
  5
9D2A
330
1F
100
AcDbEntity
  8
freecads.com
100
AcDbLine
 10
15091.60998961507
 20
15724.980696002
 30
0.0
 11
15091.60998961507
 21
15711.12428954145
 31
0.0
  0
LINE
  5
9D2B
330
1F
100
AcDbEntity
  8
freecads.com
100
AcDbLine
 10
15098.22421176059
 20
15711.12428954145
 30
0.0
 11
15091.60998961507
 21
15711.12428954145
 31
0.0
  0
LINE
  5
9D2C
330
1F
100
AcDbEntity
  8
freecads.com
100
AcDbLine
 10
15102.39408576844
 20
15712.42749277173
 30
0.0
 11
15098.97847353799
 21
15712.42749277173
 31
0.0
  0
LINE
  5
9D2D
330
1F
100
AcDbEntity
  8
freecads.com
100
AcDbLine
 10
15086.14299818362
 20
15711.39085194518
 30
0.0
 11
15091.60998961507
 21
15711.39085194518
 31
0.0
  0
POINT
  5
9D2E
330
1F
100
AcDbEntity
  8
freecads.com
100
AcDbPoint
 10
15111.0969619652
 20
15806.99696427021
 30
0.0
  0
ARC
  5
9D2F
330
1F
100
AcDbEntity
  8
freecads.com
100
AcDbCircle
 10
15091.07328268296
 20
15835.80249277172
 30
0.0
 40
7.945803085476004
100
AcDbArc
 50
334.1532090642174
 51
25.8467909357523
  0
LINE
  5
9D30
330
1F
100
AcDbEntity
  8
freecads.com
100
AcDbLine
 10
15099.01908576844
 20
15830.60634034902
 30
0.0
 11
15099.01908576844
 21
15840.99864519443
 31
0.0
  0
LINE
  5
9D31
330
1F
100
AcDbEntity
  8
freecads.com
100
AcDbLine
 10
15098.22421176059
 20
15832.33839115659
 30
0.0
 11
15093.01908576844
 21
15832.33839115659
 31
0.0
  0
LINE
  5
9D32
330
1F
100
AcDbEntity
  8
freecads.com
100
AcDbLine
 10
15098.22421176059
 20
15839.26659438686
 30
0.0
 11
15093.01908576844
 21
15839.26659438686
 31
0.0
  0
ARC
  5
9D34
330
1F
100
AcDbEntity
  8
freecads.com
100
AcDbCircle
 10
15096.73455724413
 20
15830.60634034902
 30
0.0
 40
2.284528524314867
100
AcDbArc
 50
310.6972580387477
 51
49.30274196119963
  0
LINE
  5
9D35
330
1F
100
AcDbEntity
  8
freecads.com
100
AcDbLine
 10
15102.39408576844
 20
15723.67749277173
 30
0.0
 11
15098.97847353799
 21
15723.67749277173
 31
0.0
  0
ARC
  5
9D36
330
1F
100
AcDbEntity
  8
freecads.com
100
AcDbCircle
 10
15096.73455724413
 20
15723.24864519443
 30
0.0
 40
2.284528524314867
100
AcDbArc
 50
310.6972580388004
 51
49.30274196125228
  0
LINE
  5
9D37
330
1F
100
AcDbEntity
  8
freecads.com
100
AcDbLine
 10
15098.22421176059
 20
15721.51659438686
 30
0.0
 11
15093.01908576844
 21
15721.51659438686
 31
0.0
  0
LINE
  5
9D38
330
1F
100
AcDbEntity
  8
freecads.com
100
AcDbLine
 10
15098.22421176059
 20
15724.980696002
 30
0.0
 11
15091.60998961507
 21
15724.980696002
 31
0.0
  0
LINE
  5
9D39
330
1F
100
AcDbEntity
  8
freecads.com
100
AcDbLine
 10
15098.22421176059
 20
15714.58839115659
 30
0.0
 11
15093.01908576844
 21
15714.58839115659
 31
0.0
  0
ARC
  5
9D3A
330
1F
100
AcDbEntity
  8
freecads.com
100
AcDbCircle
 10
15091.07328268296
 20
15718.05249277173
 30
0.0
 40
7.945803085476004
100
AcDbArc
 50
334.1532090642174
 51
25.8467909357523
  0
LINE
  5
9D3C
330
1F
100
AcDbEntity
  8
freecads.com
100
AcDbLine
 10
15086.14299818362
 20
15724.71413359827
 30
0.0
 11
15091.60998961507
 21
15724.71413359828
 31
0.0
  0
LINE
  5
9D3D
330
1F
100
AcDbEntity
  8
freecads.com
100
AcDbLine
 10
15091.5969619652
 20
15829.80249277173
 30
0.0
 11
15091.5969619652
 21
15724.05249277173
 31
0.0
  0
LINE
  5
9D3E
330
1F
100
AcDbEntity
  8
freecads.com
100
AcDbLine
 10
16912.94428233452
 20
10289.88657681559
 30
0.0
 11
16912.94428233452
 21
10364.88657681559
 31
0.0
  0
LINE
  5
9D3F
330
1F
100
AcDbEntity
  8
freecads.com
100
AcDbLine
 10
16912.94428233452
 20
10364.88657681559
 30
0.0
 11
16612.94428233452
 21
10364.88657681559
 31
0.0
  0
LINE
  5
9D40
330
1F
100
AcDbEntity
  8
freecads.com
100
AcDbLine
 10
16612.94428233452
 20
10364.88657681559
 30
0.0
 11
16612.94428233452
 21
10289.88657681559
 31
0.0
  0
LINE
  5
9D41
330
1F
100
AcDbEntity
  8
freecads.com
100
AcDbLine
 10
16612.94428233452
 20
10289.88657681559
 30
0.0
 11
16912.94428233452
 21
10289.88657681559
 31
0.0
  0
LINE
  5
9D42
330
1F
100
AcDbEntity
  8
freecads.com
100
AcDbLine
 10
18813.28135221567
 20
12534.04510611327
 30
0.0
 11
18593.30315942735
 21
12388.08074506008
 31
0.0
  0
ARC
  5
9D43
330
1F
100
AcDbEntity
  8
freecads.com
100
AcDbCircle
 10
18596.62053126954
 20
12383.08124067855
 30
0.0
 40
6.000000000023114
100
AcDbArc
 50
123.5658707694915
 51
213.5658707694915
  0
LINE
  5
9D44
330
1F
100
AcDbEntity
  8
freecads.com
100
AcDbLine
 10
18591.62102688801
 20
12379.76386883636
 30
0.0
 11
18737.58538794121
 21
12159.78567604822
 31
0.0
  0
ARC
  5
9D45
330
1F
100
AcDbEntity
  8
freecads.com
100
AcDbCircle
 10
18742.584892323
 20
12163.10304789067
 30
0.0
 40
6.000000000386195
100
AcDbArc
 50
213.5658707701928
 51
303.5658707701927
  0
LINE
  5
9D46
330
1F
100
AcDbEntity
  8
freecads.com
100
AcDbLine
 10
18745.90226416545
 20
12158.10354350888
 30
0.0
 11
18965.88045695307
 21
12304.06790456207
 31
0.0
  0
ARC
  5
9D47
330
1F
100
AcDbEntity
  8
freecads.com
100
AcDbCircle
 10
18962.56308511097
 20
12309.06740894351
 30
0.0
 40
5.999999999902088
100
AcDbArc
 50
303.5658707692578
 51
33.56587076925778
  0
LINE
  5
9D48
330
1F
100
AcDbEntity
  8
freecads.com
100
AcDbLine
 10
18967.56258949241
 20
12312.38478078561
 30
0.0
 11
18821.59822843921
 21
12532.36297357376
 31
0.0
  0
ARC
  5
9D49
330
1F
100
AcDbEntity
  8
freecads.com
100
AcDbCircle
 10
18816.59872405768
 20
12529.04560173174
 30
0.0
 40
5.999999999926566
100
AcDbArc
 50
33.56587076810206
 51
123.565870768102
  0
ARC
  5
9D4A
330
1F
100
AcDbEntity
  8
freecads.com
100
AcDbCircle
 10
18667.94428233452
 20
10996.21729186377
 30
0.0
 40
91.5
100
AcDbArc
 50
181.6964023529344
 51
6.338904558192687
  0
LINE
  5
9D4B
330
1F
100
AcDbEntity
  8
freecads.com
100
AcDbLine
 10
18758.8848710382
 20
11006.31973346146
 30
0.0
 11
18649.74537902382
 21
11988.77625732541
 31
0.0
  0
CIRCLE
  5
9D4C
330
1F
100
AcDbEntity
  8
freecads.com
100
AcDbCircle
 10
18667.94428233452
 20
10996.21729186377
 30
0.0
 40
37.5
  0
LINE
  5
9D4D
330
1F
100
AcDbEntity
  8
freecads.com
100
AcDbLine
 10
18568.72239349102
 20
11033.49016100906
 30
0.0
 11
18562.09784162368
 21
11093.12333392948
 31
0.0
  0
LINE
  5
9D4E
330
1F
100
AcDbEntity
  8
freecads.com
100
AcDbLine
 10
18568.72239349102
 20
11033.49016100906
 30
0.0
 11
18572.04510304203
 21
11033.85927539092
 31
0.0
  0
LINE
  5
9D4F
330
1F
100
AcDbEntity
  8
freecads.com
100
AcDbLine
 10
18576.48438487075
 20
10993.50857336355
 30
0.0
 11
18575.37501579813
 21
11030.96642718753
 31
0.0
  0
ARC
  5
9D50
330
1F
100
AcDbEntity
  8
freecads.com
100
AcDbCircle
 10
18572.37633063537
 20
11030.87761674489
 30
0.0
 40
3.0
100
AcDbArc
 50
1.696402352934476
 51
96.33890455812364
  0
LINE
  5
9D51
330
1F
100
AcDbEntity
  8
freecads.com
100
AcDbLine
 10
18564.74827267633
 20
11096.43622016887
 30
0.0
 11
18467.86420161654
 21
11968.57137413003
 31
0.0
  0
ARC
  5
9D52
330
1F
100
AcDbEntity
  8
freecads.com
100
AcDbCircle
 10
18561.76661403029
 20
11096.1049925755
 30
0.0
 40
3.0
100
AcDbArc
 50
276.3389045581237
 51
6.338904558192687
  0
CIRCLE
  5
9D53
330
1F
100
AcDbEntity
  8
freecads.com
100
AcDbCircle
 10
18535.95008637787
 20
12184.40826230321
 30
0.0
 40
37.5
  0
CIRCLE
  5
9D54
330
1F
100
AcDbEntity
  8
freecads.com
100
AcDbCircle
 10
18535.95008637785
 20
12184.40826230317
 30
0.0
 40
80.99999999999882
  0
LINE
  5
9D55
330
1F
100
AcDbEntity
  8
freecads.com
100
AcDbLine
 10
18480.78543443931
 20
12001.70054167678
 30
0.0
 11
18464.78649215139
 21
12145.72050123114
 31
0.0
  0
LINE
  5
9D56
330
1F
100
AcDbEntity
  8
freecads.com
100
AcDbLine
 10
18629.86836674036
 20
12018.26192134511
 30
0.0
 11
18613.86942445243
 21
12162.2818808995
 31
0.0
  0
LINE
  5
9D57
330
1F
100
AcDbEntity
  8
freecads.com
100
AcDbLine
 10
18512.58969161258
 20
12000.70594343809
 30
0.0
 11
18500.26010348293
 21
12111.69495457372
 31
0.0
  0
LINE
  5
9D58
330
1F
100
AcDbEntity
  8
freecads.com
100
AcDbLine
 10
18599.0577923472
 20
12010.31154364572
 30
0.0
 11
18586.72820421754
 21
12121.30055478135
 31
0.0
  0
LINE
  5
9D59
330
1F
100
AcDbEntity
  8
freecads.com
100
AcDbLine
 10
18514.08052093558
 20
12000.87155723477
 30
0.0
 11
18597.56696302417
 21
12010.14592984904
 31
0.0
  0
LINE
  5
9D5A
330
1F
100
AcDbEntity
  8
freecads.com
100
AcDbLine
 10
18517.06156927589
 20
11974.03662942059
 30
0.0
 11
18514.08052093558
 21
12000.87155723477
 31
0.0
  0
LINE
  5
9D5B
330
1F
100
AcDbEntity
  8
freecads.com
100
AcDbLine
 10
18485.75476379839
 20
11997.72489509778
 30
0.0
 11
18625.89272016138
 21
12013.29259198603
 31
0.0
  0
ARC
  5
9D5C
330
1F
100
AcDbEntity
  8
freecads.com
100
AcDbCircle
 10
18485.25792240831
 20
12002.19738306681
 30
0.0
 40
4.5
100
AcDbArc
 50
186.3389045581926
 51
276.3389045581237
  0
LINE
  5
9D5D
330
1F
100
AcDbEntity
  8
freecads.com
100
AcDbLine
 10
18448.15036190687
 20
11887.90158719649
 30
0.0
 11
18461.56782581398
 21
11889.39211136665
 31
0.0
  0
ARC
  5
9D5E
330
1F
100
AcDbEntity
  8
freecads.com
100
AcDbCircle
 10
18459.91168784712
 20
11904.30040459675
 30
0.0
 40
15.0
100
AcDbArc
 50
276.3389045581237
 51
6.338904558192687
  0
LINE
  5
9D5F
330
1F
100
AcDbEntity
  8
freecads.com
100
AcDbLine
 10
18454.77491377421
 20
11828.26841427607
 30
0.0
 11
18468.19237768132
 21
11829.75893844623
 31
0.0
  0
ARC
  5
9D60
330
1F
100
AcDbEntity
  8
freecads.com
100
AcDbCircle
 10
18469.84851564813
 20
11814.85064521613
 30
0.0
 40
15.0
100
AcDbArc
 50
6.338904558192687
 51
96.33890455812364
  0
LINE
  5
9D61
330
1F
100
AcDbEntity
  8
freecads.com
100
AcDbLine
 10
18600.54801136449
 20
11983.31100203485
 30
0.0
 11
18597.56696302417
 21
12010.14592984904
 31
0.0
  0
LINE
  5
9D62
330
1F
100
AcDbEntity
  8
freecads.com
100
AcDbLine
 10
18467.86420161654
 20
11968.57137413003
 30
0.0
 11
18649.74537902382
 21
11988.77625732541
 31
0.0
  0
LINE
  5
9D63
330
1F
100
AcDbEntity
  8
freecads.com
100
AcDbLine
 10
18454.77491377421
 20
11828.26841427607
 30
0.0
 11
18448.15036190687
 21
11887.90158719649
 31
0.0
  0
LINE
  5
9D64
330
1F
100
AcDbEntity
  8
freecads.com
100
AcDbLine
 10
18484.75680887825
 20
11816.50678318295
 30
0.0
 11
18474.81998107724
 21
11905.95654256359
 31
0.0
  0
LINE
  5
9D65
330
1F
100
AcDbEntity
  8
freecads.com
100
AcDbLine
 10
18469.52033958338
 20
11953.66308089993
 30
0.0
 11
18651.40151699066
 21
11973.8679640953
 31
0.0
  0
ARC
  5
9D66
330
1F
100
AcDbEntity
  8
freecads.com
100
AcDbCircle
 10
18625.39587877131
 20
12017.76507995507
 30
0.0
 40
4.5
100
AcDbArc
 50
276.3389045581237
 51
6.338904558192687
  0
CIRCLE
  5
9D67
330
1F
100
AcDbEntity
  8
freecads.com
100
AcDbCircle
 10
18535.95008637785
 20
12184.40826230317
 30
0.0
 40
37.5
  0
LINE
  5
9D69
330
1F
100
AcDbEntity
  8
freecads.com
100
AcDbLine
 10
19178.20632023433
 20
11317.40602380971
 30
0.0
 11
19174.39587447768
 21
11303.18524664631
 31
0.0
  0
LINE
  5
9D6A
330
1F
100
AcDbEntity
  8
freecads.com
100
AcDbLine
 10
19174.39587447768
 20
11303.18524664631
 30
0.0
 11
19160.17509731393
 21
11299.37480088948
 31
0.0
  0
LINE
  5
9D6B
330
1F
100
AcDbEntity
  8
freecads.com
100
AcDbLine
 10
19160.17509731393
 20
11299.37480088948
 30
0.0
 11
19149.76476590753
 21
11309.78513229641
 31
0.0
  0
LINE
  5
9D6C
330
1F
100
AcDbEntity
  8
freecads.com
100
AcDbLine
 10
19149.76476590753
 20
11309.78513229641
 30
0.0
 11
19153.57521166419
 21
11324.00590945998
 31
0.0
  0
LINE
  5
9D6D
330
1F
100
AcDbEntity
  8
freecads.com
100
AcDbLine
 10
19153.57521166419
 20
11324.00590945998
 30
0.0
 11
19167.79598882794
 21
11327.81635521663
 31
0.0
  0
LINE
  5
9D6E
330
1F
100
AcDbEntity
  8
freecads.com
100
AcDbLine
 10
19167.79598882794
 20
11327.81635521663
 30
0.0
 11
19178.20632023433
 21
11317.40602380971
 31
0.0
  0
LINE
  5
9D6F
330
1F
100
AcDbEntity
  8
freecads.com
100
AcDbLine
 10
19493.83306640246
 20
11589.13683878929
 30
0.0
 11
19486.4718504704
 21
11576.38683878929
 31
0.0
  0
LINE
  5
9D70
330
1F
100
AcDbEntity
  8
freecads.com
100
AcDbLine
 10
19486.4718504704
 20
11576.38683878929
 30
0.0
 11
19493.83306640246
 21
11563.63683878929
 31
0.0
  0
LINE
  5
9D71
330
1F
100
AcDbEntity
  8
freecads.com
100
AcDbLine
 10
19493.83306640246
 20
11563.63683878929
 30
0.0
 11
19508.55549826658
 21
11563.63683878929
 31
0.0
  0
LINE
  5
9D72
330
1F
100
AcDbEntity
  8
freecads.com
100
AcDbLine
 10
19508.55549826658
 20
11563.63683878929
 30
0.0
 11
19515.91671419934
 21
11576.38683878929
 31
0.0
  0
LINE
  5
9D73
330
1F
100
AcDbEntity
  8
freecads.com
100
AcDbLine
 10
19515.91671419934
 20
11576.38683878929
 30
0.0
 11
19508.55549826658
 21
11589.13683878929
 31
0.0
  0
LINE
  5
9D74
330
1F
100
AcDbEntity
  8
freecads.com
100
AcDbLine
 10
19508.55549826658
 20
11589.13683878929
 30
0.0
 11
19493.83306640246
 21
11589.13683878929
 31
0.0
  0
LINE
  5
9D75
330
1F
100
AcDbEntity
  8
freecads.com
100
AcDbLine
 10
19493.83306640246
 20
11676.13683878929
 30
0.0
 11
19486.4718504704
 21
11663.38683878929
 31
0.0
  0
LINE
  5
9D76
330
1F
100
AcDbEntity
  8
freecads.com
100
AcDbLine
 10
19486.4718504704
 20
11663.38683878929
 30
0.0
 11
19493.83306640246
 21
11650.63683878929
 31
0.0
  0
LINE
  5
9D77
330
1F
100
AcDbEntity
  8
freecads.com
100
AcDbLine
 10
19493.83306640246
 20
11650.63683878929
 30
0.0
 11
19508.55549826658
 21
11650.63683878929
 31
0.0
  0
LINE
  5
9D78
330
1F
100
AcDbEntity
  8
freecads.com
100
AcDbLine
 10
19508.55549826658
 20
11650.63683878929
 30
0.0
 11
19515.91671419934
 21
11663.38683878929
 31
0.0
  0
LINE
  5
9D79
330
1F
100
AcDbEntity
  8
freecads.com
100
AcDbLine
 10
19515.91671419934
 20
11663.38683878929
 30
0.0
 11
19508.55549826658
 21
11676.13683878929
 31
0.0
  0
LINE
  5
9D7A
330
1F
100
AcDbEntity
  8
freecads.com
100
AcDbLine
 10
19508.55549826658
 20
11676.13683878929
 30
0.0
 11
19493.83306640246
 21
11676.13683878929
 31
0.0
  0
LINE
  5
9D7B
330
1F
100
AcDbEntity
  8
freecads.com
100
AcDbLine
 10
19149.76476590753
 20
11449.98854528218
 30
0.0
 11
19153.57521166419
 21
11435.76776811878
 31
0.0
  0
LINE
  5
9D7C
330
1F
100
AcDbEntity
  8
freecads.com
100
AcDbLine
 10
19153.57521166419
 20
11435.76776811878
 30
0.0
 11
19167.79598882794
 21
11431.95732236196
 31
0.0
  0
LINE
  5
9D7D
330
1F
100
AcDbEntity
  8
freecads.com
100
AcDbLine
 10
19167.79598882794
 20
11431.95732236196
 30
0.0
 11
19178.20632023433
 21
11442.36765376888
 31
0.0
  0
LINE
  5
9D7E
330
1F
100
AcDbEntity
  8
freecads.com
100
AcDbLine
 10
19178.20632023433
 20
11442.36765376888
 30
0.0
 11
19174.39587447768
 21
11456.58843093245
 31
0.0
  0
LINE
  5
9D7F
330
1F
100
AcDbEntity
  8
freecads.com
100
AcDbLine
 10
19174.39587447768
 20
11456.58843093245
 30
0.0
 11
19160.17509731393
 21
11460.39887668911
 31
0.0
  0
LINE
  5
9D80
330
1F
100
AcDbEntity
  8
freecads.com
100
AcDbLine
 10
19160.17509731393
 20
11460.39887668911
 30
0.0
 11
19149.76476590753
 21
11449.98854528218
 31
0.0
  0
LINE
  5
9D81
330
1F
100
AcDbEntity
  8
freecads.com
100
AcDbLine
 10
19017.18224443471
 20
11317.40602380971
 30
0.0
 11
19020.99269019136
 21
11303.18524664631
 31
0.0
  0
LINE
  5
9D82
330
1F
100
AcDbEntity
  8
freecads.com
100
AcDbLine
 10
19020.99269019136
 20
11303.18524664631
 30
0.0
 11
19035.21346735511
 21
11299.37480088948
 31
0.0
  0
LINE
  5
9D83
330
1F
100
AcDbEntity
  8
freecads.com
100
AcDbLine
 10
19035.21346735511
 20
11299.37480088948
 30
0.0
 11
19045.62379876221
 21
11309.78513229641
 31
0.0
  0
LINE
  5
9D84
330
1F
100
AcDbEntity
  8
freecads.com
100
AcDbLine
 10
19045.62379876221
 20
11309.78513229641
 30
0.0
 11
19041.81335300555
 21
11324.00590945998
 31
0.0
  0
LINE
  5
9D85
330
1F
100
AcDbEntity
  8
freecads.com
100
AcDbLine
 10
19041.81335300555
 20
11324.00590945998
 30
0.0
 11
19027.59257584181
 21
11327.81635521663
 31
0.0
  0
LINE
  5
9D86
330
1F
100
AcDbEntity
  8
freecads.com
100
AcDbLine
 10
19027.59257584181
 20
11327.81635521663
 30
0.0
 11
19017.18224443471
 21
11317.40602380971
 31
0.0
  0
LINE
  5
9D87
330
1F
100
AcDbEntity
  8
freecads.com
100
AcDbLine
 10
19045.62379876221
 20
11449.98854528218
 30
0.0
 11
19041.81335300555
 21
11435.76776811878
 31
0.0
  0
LINE
  5
9D88
330
1F
100
AcDbEntity
  8
freecads.com
100
AcDbLine
 10
19041.81335300555
 20
11435.76776811878
 30
0.0
 11
19027.59257584181
 21
11431.95732236196
 31
0.0
  0
LINE
  5
9D89
330
1F
100
AcDbEntity
  8
freecads.com
100
AcDbLine
 10
19027.59257584181
 20
11431.95732236196
 30
0.0
 11
19017.18224443471
 21
11442.36765376888
 31
0.0
  0
LINE
  5
9D8A
330
1F
100
AcDbEntity
  8
freecads.com
100
AcDbLine
 10
19017.18224443471
 20
11442.36765376888
 30
0.0
 11
19020.99269019136
 21
11456.58843093245
 31
0.0
  0
LINE
  5
9D8B
330
1F
100
AcDbEntity
  8
freecads.com
100
AcDbLine
 10
19020.99269019136
 20
11456.58843093245
 30
0.0
 11
19035.21346735511
 21
11460.39887668911
 31
0.0
  0
LINE
  5
9D8C
330
1F
100
AcDbEntity
  8
freecads.com
100
AcDbLine
 10
19035.21346735511
 20
11460.39887668911
 30
0.0
 11
19045.62379876221
 21
11449.98854528218
 31
0.0
  0
ARC
  5
9D8E
330
1F
100
AcDbEntity
  8
freecads.com
100
AcDbCircle
 10
15086.14299818363
 20
15694.26044399556
 30
0.0
 40
30.45368960271299
100
AcDbArc
 50
90.00000000002055
 51
100.4050839178821
  0
ARC
  5
9D8F
330
1F
100
AcDbEntity
  8
freecads.com
100
AcDbCircle
 10
15083.91481424515
 20
15706.39479935166
 30
0.0
 40
18.11645394914158
100
AcDbArc
 50
100.4050839178836
 51
113.9083103015996
  0
ARC
  5
9D90
330
1F
100
AcDbEntity
  8
freecads.com
100
AcDbCircle
 10
15081.40917631916
 20
15713.57280912197
 30
0.0
 40
10.55701041966492
100
AcDbArc
 50
117.2665668706915
 51
139.4403281324656
  0
ARC
  5
9D91
330
1F
100
AcDbEntity
  8
freecads.com
100
AcDbCircle
 10
15076.60405382981
 20
15718.06548984337
 30
0.0
 40
3.995546195168017
100
AcDbArc
 50
143.58443944092
 51
180.1863771879858
  0
ARC
  5
9D92
330
1F
100
AcDbEntity
  8
freecads.com
100
AcDbCircle
 10
15090.44575429906
 20
15890.98988855755
 30
0.0
 40
62.12650871408043
100
AcDbArc
 50
260.9214072151539
 51
271.0737715064772
  0
ARC
  5
9D93
330
1F
100
AcDbEntity
  8
freecads.com
100
AcDbCircle
 10
15083.91481424515
 20
15847.46018619179
 30
0.0
 40
18.11645394914158
100
AcDbArc
 50
246.0916896984004
 51
259.5949160821163
  0
ARC
  5
9D94
330
1F
100
AcDbEntity
  8
freecads.com
100
AcDbCircle
 10
15081.40917631918
 20
15840.28217642148
 30
0.0
 40
10.55701041967237
100
AcDbArc
 50
220.5596718674744
 51
242.7334331292516
  0
ARC
  5
9D95
330
1F
100
AcDbEntity
  8
freecads.com
100
AcDbCircle
 10
15076.60405382981
 20
15835.78949570008
 30
0.0
 40
3.995546195170561
100
AcDbArc
 50
179.8136228120142
 51
216.4155605590855
  0
ARC
  5
9D96
330
1F
100
AcDbEntity
  8
freecads.com
100
AcDbCircle
 10
15086.14299818361
 20
15741.84454154789
 30
0.0
 40
30.45368960271117
100
AcDbArc
 50
259.5949160821555
 51
270.0000000000171
  0
ARC
  5
9D97
330
1F
100
AcDbEntity
  8
freecads.com
100
AcDbCircle
 10
15083.91481424515
 20
15729.71018619179
 30
0.0
 40
18.11645394914158
100
AcDbArc
 50
246.0916896984004
 51
259.5949160821163
  0
ARC
  5
9D98
330
1F
100
AcDbEntity
  8
freecads.com
100
AcDbCircle
 10
15081.40917631917
 20
15722.53217642148
 30
0.0
 40
10.55701041967071
100
AcDbArc
 50
220.5596718674947
 51
242.7334331292691
  0
ARC
  5
9D99
330
1F
100
AcDbEntity
  8
freecads.com
100
AcDbCircle
 10
15076.60405382981
 20
15718.03949570009
 30
0.0
 40
3.995546195173488
100
AcDbArc
 50
179.8136228119883
 51
216.4155605590545
  0
ARC
  5
9D9A
330
1F
100
AcDbEntity
  8
freecads.com
100
AcDbCircle
 10
15088.18647571736
 20
15797.10007386136
 30
0.0
 40
45.49305840698791
100
AcDbArc
 50
85.68420949257694
 51
99.54480986833374
  0
ARC
  5
9D9B
330
1F
100
AcDbEntity
  8
freecads.com
100
AcDbCircle
 10
15083.91481424515
 20
15824.14479935166
 30
0.0
 40
18.11645394914158
100
AcDbArc
 50
100.4050839178836
 51
113.9083103015996
  0
ARC
  5
9D9C
330
1F
100
AcDbEntity
  8
freecads.com
100
AcDbCircle
 10
15081.40917631916
 20
15831.32280912197
 30
0.0
 40
10.55701041966492
100
AcDbArc
 50
117.2665668706915
 51
139.4403281324656
  0
ARC
  5
9D9D
330
1F
100
AcDbEntity
  8
freecads.com
100
AcDbCircle
 10
15076.60405382981
 20
15835.81548984336
 30
0.0
 40
3.995546195170561
100
AcDbArc
 50
143.5844394409145
 51
180.1863771879857
  0
LINE
  5
9D9E
330
1F
100
AcDbEntity
  8
freecads.com
100
AcDbLine
 10
15046.3960090577
 20
15590.55249277173
 30
0.0
 11
15046.3960090577
 21
15514.05249277173
 31
0.0
  0
LINE
  5
9D9F
330
1F
100
AcDbEntity
  8
freecads.com
100
AcDbLine
 10
15046.3960090577
 20
15514.05249277173
 30
0.0
 11
14986.46423604519
 21
15514.05249277173
 31
0.0
  0
LINE
  5
9DA0
330
1F
100
AcDbEntity
  8
freecads.com
100
AcDbLine
 10
14986.46423604519
 20
15514.05249277173
 30
0.0
 11
14986.46423604519
 21
15590.55249277173
 31
0.0
  0
LINE
  5
9DA1
330
1F
100
AcDbEntity
  8
freecads.com
100
AcDbLine
 10
14986.46423604519
 20
15590.55249277173
 30
0.0
 11
15046.3960090577
 21
15590.55249277173
 31
0.0
  0
ARC
  5
9DA2
330
1F
100
AcDbEntity
  8
freecads.com
100
AcDbCircle
 10
15090.50885303611
 20
15544.65469284185
 30
0.0
 40
62.5911024458847
100
AcDbArc
 50
88.74145640864524
 51
99.06912895749405
  0
ARC
  5
9DA3
330
1F
100
AcDbEntity
  8
freecads.com
100
AcDbCircle
 10
15083.91481424515
 20
15588.64479935166
 30
0.0
 40
18.11645394914158
100
AcDbArc
 50
100.4050839178836
 51
113.9083103015996
  0
ARC
  5
9DA4
330
1F
100
AcDbEntity
  8
freecads.com
100
AcDbCircle
 10
15081.40917631916
 20
15595.82280912197
 30
0.0
 40
10.55701041966492
100
AcDbArc
 50
117.2665668706915
 51
139.4403281324656
  0
ARC
  5
9DA5
330
1F
100
AcDbEntity
  8
freecads.com
100
AcDbCircle
 10
15076.60405382981
 20
15600.31548984337
 30
0.0
 40
3.995546195168017
100
AcDbArc
 50
143.58443944092
 51
180.1863771879858
  0
ARC
  5
9DA6
330
1F
100
AcDbEntity
  8
freecads.com
100
AcDbCircle
 10
15088.18647571733
 20
15639.00491168192
 30
0.0
 40
45.49305840682518
100
AcDbArc
 50
260.4551901316713
 51
274.3157905074776
  0
ARC
  5
9DA7
330
1F
100
AcDbEntity
  8
freecads.com
100
AcDbCircle
 10
15083.91481424515
 20
15611.96018619179
 30
0.0
 40
18.11645394914158
100
AcDbArc
 50
246.0916896984004
 51
259.5949160821163
  0
ARC
  5
9DA8
330
1F
100
AcDbEntity
  8
freecads.com
100
AcDbCircle
 10
15081.40917631917
 20
15604.78217642148
 30
0.0
 40
10.55701041967071
100
AcDbArc
 50
220.5596718674947
 51
242.7334331292691
  0
ARC
  5
9DA9
330
1F
100
AcDbEntity
  8
freecads.com
100
AcDbCircle
 10
15076.60405382981
 20
15600.28949570009
 30
0.0
 40
3.995546195173488
100
AcDbArc
 50
179.8136228119883
 51
216.4155605590545
  0
ARC
  5
9DAA
330
1F
100
AcDbEntity
  8
freecads.com
100
AcDbCircle
 10
15031.53736062076
 20
15795.59025933171
 30
0.0
 40
4.500000000001607
100
AcDbArc
 50
269.9999999999769
 51
356.9999999999723
  0
LINE
  5
9DAB
330
1F
100
AcDbEntity
  8
freecads.com
100
AcDbLine
 10
15031.53736062075
 20
15791.09025933171
 30
0.0
 11
14916.09667655801
 21
15791.09025933171
 31
0.0
  0
LINE
  5
9DAC
330
1F
100
AcDbEntity
  8
freecads.com
100
AcDbLine
 10
14916.09667655801
 20
15791.09025933171
 30
0.0
 11
14916.09667655801
 21
15590.55249277173
 31
0.0
  0
LINE
  5
9DAD
330
1F
100
AcDbEntity
  8
freecads.com
100
AcDbLine
 10
14916.09667655801
 20
15590.55249277173
 30
0.0
 11
15084.0969619652
 21
15590.55249277173
 31
0.0
  0
ARC
  5
9DAE
330
1F
100
AcDbEntity
  8
freecads.com
100
AcDbCircle
 10
15082.26266915459
 20
15605.6973847364
 30
0.0
 40
15.25556890898343
100
AcDbArc
 50
276.9058146563384
 51
307.7860967567715
  0
LINE
  5
9DAF
330
1F
100
AcDbEntity
  8
freecads.com
100
AcDbLine
 10
15091.60998961507
 20
15593.64085194518
 30
0.0
 11
15091.60998961507
 21
15593.37428954145
 31
0.0
  0
LINE
  5
9DB0
330
1F
100
AcDbEntity
  8
freecads.com
100
AcDbLine
 10
15091.60998961507
 20
15593.37428954145
 30
0.0
 11
15098.22421176059
 21
15593.37428954145
 31
0.0
  0
ARC
  5
9DB1
330
1F
100
AcDbEntity
  8
freecads.com
100
AcDbCircle
 10
15096.73455724412
 20
15595.10634034902
 30
0.0
 40
2.28452852431909
100
AcDbArc
 50
310.697258038913
 51
349.1803493171541
  0
LINE
  5
9DB2
330
1F
100
AcDbEntity
  8
freecads.com
100
AcDbLine
 10
15098.97847353799
 20
15594.67749277173
 30
0.0
 11
15102.39408576844
 21
15594.67749277173
 31
0.0
  0
ARC
  5
9DB3
330
1F
100
AcDbEntity
  8
freecads.com
100
AcDbCircle
 10
15102.39408576844
 20
15600.30249277173
 30
0.0
 40
5.625
100
AcDbArc
 50
270.0
 51
90.0
  0
LINE
  5
9DB4
330
1F
100
AcDbEntity
  8
freecads.com
100
AcDbLine
 10
15102.39408576844
 20
15605.92749277173
 30
0.0
 11
15098.97847353799
 21
15605.92749277173
 31
0.0
  0
ARC
  5
9DB5
330
1F
100
AcDbEntity
  8
freecads.com
100
AcDbCircle
 10
15096.73455724413
 20
15605.49864519443
 30
0.0
 40
2.284528524310527
100
AcDbArc
 50
10.81965068297832
 51
49.30274196120042
  0
LINE
  5
9DB6
330
1F
100
AcDbEntity
  8
freecads.com
100
AcDbLine
 10
15098.22421176059
 20
15607.230696002
 30
0.0
 11
15091.6084944603
 21
15607.230696002
 31
0.0
  0
ARC
  5
9DB7
330
1F
100
AcDbEntity
  8
freecads.com
100
AcDbCircle
 10
15062.69158594931
 20
15643.98953635604
 30
0.0
 40
46.76964765749819
100
AcDbArc
 50
308.1909056250128
 51
338.9870002201537
  0
ARC
  5
9DB8
330
1F
100
AcDbEntity
  8
freecads.com
100
AcDbCircle
 10
15107.74457897942
 20
15626.66394194921
 30
0.0
 40
1.499999999998576
100
AcDbArc
 50
98.05303915582442
 51
158.2866274970096
  0
ARC
  5
9DB9
330
1F
100
AcDbEntity
  8
freecads.com
100
AcDbCircle
 10
15105.4174411123
 20
15643.11189536494
 30
0.0
 40
15.11176517468462
100
AcDbArc
 50
278.0530391556871
 51
292.0758918286588
  0
LINE
  5
9DBA
330
1F
100
AcDbEntity
  8
freecads.com
100
AcDbLine
 10
15111.0969619652
 20
15629.10802127324
 30
0.0
 11
15111.0969619652
 21
15718.05249277173
 31
0.0
  0
LINE
  5
9DBB
330
1F
100
AcDbEntity
  8
freecads.com
100
AcDbLine
 10
15111.0969619652
 20
15718.05249277173
 30
0.0
 11
15111.0969619652
 21
15806.99696427021
 31
0.0
  0
ARC
  5
9DBC
330
1F
100
AcDbEntity
  8
freecads.com
100
AcDbCircle
 10
15105.4174411123
 20
15792.99309017853
 30
0.0
 40
15.11176517466591
100
AcDbArc
 50
67.92410817129726
 51
81.94696084426814
  0
ARC
  5
9DBD
330
1F
100
AcDbEntity
  8
freecads.com
100
AcDbCircle
 10
15107.74457897942
 20
15809.44104359425
 30
0.0
 40
1.499999999998963
100
AcDbArc
 50
201.7133725031195
 51
261.9469608443819
  0
ARC
  5
9DBE
330
1F
100
AcDbEntity
  8
freecads.com
100
AcDbCircle
 10
15061.6306343604
 20
15791.3351748776
 30
0.0
 40
48.04109564977941
100
AcDbArc
 50
21.42798235462384
 51
51.38855999186607
  0
LINE
  5
9DBF
330
1F
100
AcDbEntity
  8
freecads.com
100
AcDbLine
 10
15091.60998961507
 20
15828.87428954145
 30
0.0
 11
15098.22421176059
 21
15828.87428954145
 31
0.0
  0
ARC
  5
9DC0
330
1F
100
AcDbEntity
  8
freecads.com
100
AcDbCircle
 10
15096.73455724412
 20
15830.60634034902
 30
0.0
 40
2.284528524316718
100
AcDbArc
 50
310.6972580388439
 51
349.1803493170026
  0
LINE
  5
9DC1
330
1F
100
AcDbEntity
  8
freecads.com
100
AcDbLine
 10
15098.97847353799
 20
15830.17749277173
 30
0.0
 11
15102.39408576844
 21
15830.17749277173
 31
0.0
  0
ARC
  5
9DC2
330
1F
100
AcDbEntity
  8
freecads.com
100
AcDbCircle
 10
15102.39408576844
 20
15835.80249277172
 30
0.0
 40
5.625
100
AcDbArc
 50
270.0
 51
90.0
  0
LINE
  5
9DC3
330
1F
100
AcDbEntity
  8
freecads.com
100
AcDbLine
 10
15102.39408576844
 20
15841.42749277172
 30
0.0
 11
15098.97847353799
 21
15841.42749277172
 31
0.0
  0
ARC
  5
9DC4
330
1F
100
AcDbEntity
  8
freecads.com
100
AcDbCircle
 10
15096.73455724413
 20
15840.99864519443
 30
0.0
 40
2.2845285243141
100
AcDbArc
 50
10.8196506829612
 51
49.30274196116101
  0
LINE
  5
9DC5
330
1F
100
AcDbEntity
  8
freecads.com
100
AcDbLine
 10
15098.22421176059
 20
15842.730696002
 30
0.0
 11
15091.60998961507
 21
15842.730696002
 31
0.0
  0
LINE
  5
9DC6
330
1F
100
AcDbEntity
  8
freecads.com
100
AcDbLine
 10
15091.60998961507
 20
15842.730696002
 30
0.0
 11
15091.60998961507
 21
15842.46413359827
 31
0.0
  0
ARC
  5
9DC7
330
1F
100
AcDbEntity
  8
freecads.com
100
AcDbCircle
 10
15082.26266915459
 20
15830.40760080705
 30
0.0
 40
15.25556890898166
100
AcDbArc
 50
52.2139032432243
 51
83.09418534366075
  0
LINE
  5
9DC8
330
1F
100
AcDbEntity
  8
freecads.com
100
AcDbLine
 10
15084.0969619652
 20
15845.55249277173
 30
0.0
 11
15038.66194588036
 21
15845.55249277173
 31
0.0
  0
LINE
  5
9DC9
330
1F
100
AcDbEntity
  8
freecads.com
100
AcDbLine
 10
15038.66194588036
 20
15845.55249277173
 30
0.0
 11
15036.03119352715
 21
15795.35474752862
 31
0.0
  0
LINE
  5
9DCA
330
1F
100
AcDbEntity
  8
freecads.com
100
AcDbLine
 10
14616.84667655801
 20
15899.55249277172
 30
0.0
 11
14604.84667655801
 21
15899.55249277172
 31
0.0
  0
LINE
  5
9DCB
330
1F
100
AcDbEntity
  8
freecads.com
100
AcDbLine
 10
14604.84667655801
 20
15899.55249277172
 30
0.0
 11
14604.84667655801
 21
15919.05249277172
 31
0.0
  0
LINE
  5
9DCC
330
1F
100
AcDbEntity
  8
freecads.com
100
AcDbLine
 10
14604.84667655801
 20
15919.05249277172
 30
0.0
 11
14616.84667655801
 21
15919.05249277172
 31
0.0
  0
LINE
  5
9DCD
330
1F
100
AcDbEntity
  8
freecads.com
100
AcDbLine
 10
14616.84667655801
 20
15919.05249277172
 30
0.0
 11
14616.84667655801
 21
15899.55249277172
 31
0.0
  0
LINE
  5
9DCE
330
1F
100
AcDbEntity
  8
freecads.com
100
AcDbLine
 10
14616.84667655801
 20
15789.12823532963
 30
0.0
 11
14604.84667655801
 21
15789.12823532963
 31
0.0
  0
LINE
  5
9DCF
330
1F
100
AcDbEntity
  8
freecads.com
100
AcDbLine
 10
14604.84667655801
 20
15789.12823532963
 30
0.0
 11
14604.84667655801
 21
15808.62823532963
 31
0.0
  0
LINE
  5
9DD0
330
1F
100
AcDbEntity
  8
freecads.com
100
AcDbLine
 10
14604.84667655801
 20
15808.62823532963
 30
0.0
 11
14616.84667655801
 21
15808.62823532963
 31
0.0
  0
LINE
  5
9DD1
330
1F
100
AcDbEntity
  8
freecads.com
100
AcDbLine
 10
14616.84667655801
 20
15808.62823532963
 30
0.0
 11
14616.84667655801
 21
15789.12823532963
 31
0.0
  0
LINE
  5
9DD2
330
1F
100
AcDbEntity
  8
freecads.com
100
AcDbLine
 10
14616.84667655801
 20
15727.80249277173
 30
0.0
 11
14604.84667655801
 21
15727.80249277173
 31
0.0
  0
LINE
  5
9DD3
330
1F
100
AcDbEntity
  8
freecads.com
100
AcDbLine
 10
14604.84667655801
 20
15727.80249277173
 30
0.0
 11
14604.84667655801
 21
15708.30249277173
 31
0.0
  0
LINE
  5
9DD4
330
1F
100
AcDbEntity
  8
freecads.com
100
AcDbLine
 10
14604.84667655801
 20
15708.30249277173
 30
0.0
 11
14616.84667655801
 21
15708.30249277173
 31
0.0
  0
LINE
  5
9DD5
330
1F
100
AcDbEntity
  8
freecads.com
100
AcDbLine
 10
14616.84667655801
 20
15708.30249277173
 30
0.0
 11
14616.84667655801
 21
15727.80249277173
 31
0.0
  0
LINE
  5
9DD6
330
1F
100
AcDbEntity
  8
freecads.com
100
AcDbLine
 10
14692.59667655801
 20
15903.30249277172
 30
0.0
 11
14705.07395193198
 21
15903.30249277172
 31
0.0
  0
LINE
  5
9DD7
330
1F
100
AcDbEntity
  8
freecads.com
100
AcDbLine
 10
14705.07395193198
 20
15903.30249277172
 30
0.0
 11
14705.82395193198
 21
15904.05249277172
 31
0.0
  0
LINE
  5
9DD8
330
1F
100
AcDbEntity
  8
freecads.com
100
AcDbLine
 10
14705.82395193198
 20
15904.05249277172
 30
0.0
 11
14705.82395193198
 21
15914.55249277172
 31
0.0
  0
LINE
  5
9DD9
330
1F
100
AcDbEntity
  8
freecads.com
100
AcDbLine
 10
14705.82395193198
 20
15914.55249277172
 30
0.0
 11
14705.07395193198
 21
15915.30249277172
 31
0.0
  0
LINE
  5
9DDA
330
1F
100
AcDbEntity
  8
freecads.com
100
AcDbLine
 10
14705.07395193198
 20
15915.30249277172
 30
0.0
 11
14692.59667655801
 21
15915.30249277172
 31
0.0
  0
LINE
  5
9DDB
330
1F
100
AcDbEntity
  8
freecads.com
100
AcDbLine
 10
14692.59667655801
 20
15915.30249277172
 30
0.0
 11
14692.59667655801
 21
15903.30249277172
 31
0.0
  0
ARC
  5
9DDC
330
1F
100
AcDbEntity
  8
freecads.com
100
AcDbCircle
 10
14682.03417655802
 20
15909.30249277172
 30
0.0
 40
10.5624999999977
100
AcDbArc
 50
327.7957724960292
 51
32.20422750397908
  0
ARC
  5
9DDD
330
1F
100
AcDbEntity
  8
freecads.com
100
AcDbCircle
 10
14689.34667655802
 20
15917.74624045862
 30
0.0
 40
3.250000000000168
100
AcDbArc
 50
299.9999999999983
 51
60.00000000001774
  0
LINE
  5
9DDE
330
1F
100
AcDbEntity
  8
freecads.com
100
AcDbLine
 10
14690.97167655801
 20
15920.56082302092
 30
0.0
 11
14684.47167655802
 21
15920.56082302092
 31
0.0
  0
ARC
  5
9DDF
330
1F
100
AcDbEntity
  8
freecads.com
100
AcDbCircle
 10
14686.09667655802
 20
15917.74624045862
 30
0.0
 40
3.250000000001743
100
AcDbArc
 50
119.9999999999822
 51
240.0000000000017
  0
ARC
  5
9DE0
330
1F
100
AcDbEntity
  8
freecads.com
100
AcDbCircle
 10
14693.40917655802
 20
15909.30249277172
 30
0.0
 40
10.56250000000021
100
AcDbArc
 50
147.7957724960262
 51
212.2042275039655
  0
ARC
  5
9DE1
330
1F
100
AcDbEntity
  8
freecads.com
100
AcDbCircle
 10
14686.09667655802
 20
15900.85874508483
 30
0.0
 40
3.249999999998593
100
AcDbArc
 50
120.0000000000143
 51
239.9999999999857
  0
LINE
  5
9DE2
330
1F
100
AcDbEntity
  8
freecads.com
100
AcDbLine
 10
14684.47167655802
 20
15898.04416252253
 30
0.0
 11
14690.97167655801
 21
15898.04416252253
 31
0.0
  0
ARC
  5
9DE3
330
1F
100
AcDbEntity
  8
freecads.com
100
AcDbCircle
 10
14689.34667655802
 20
15900.85874508483
 30
0.0
 40
3.249999999998593
100
AcDbArc
 50
300.0000000000143
 51
59.99999999998568
  0
LINE
  5
9DE4
330
1F
100
AcDbEntity
  8
freecads.com
100
AcDbLine
 10
14668.602639223
 20
15769.43140780071
 30
0.0
 11
14668.602639223
 21
15817.18623346029
 31
0.0
  0
ARC
  5
9DE5
330
1F
100
AcDbEntity
  8
freecads.com
100
AcDbCircle
 10
14659.9284957506
 20
15817.18623346029
 30
0.0
 40
8.67414347239719
100
AcDbArc
 50
0.0
 51
180.0
  0
LINE
  5
9DE6
330
1F
100
AcDbEntity
  8
freecads.com
100
AcDbLine
 10
14651.2543522782
 20
15817.18623346029
 30
0.0
 11
14651.2543522782
 21
15769.43140780071
 31
0.0
  0
ARC
  5
9DE7
330
1F
100
AcDbEntity
  8
freecads.com
100
AcDbCircle
 10
14659.9284957506
 20
15749.45140236904
 30
0.0
 40
3.574910795103278
100
AcDbArc
 50
269.9999999999708
 51
319.3932805262557
  0
ARC
  5
9DE8
330
1F
100
AcDbEntity
  8
freecads.com
100
AcDbCircle
 10
14648.45143242665
 20
15759.29077039573
 30
0.0
 40
18.69232279936007
100
AcDbArc
 50
319.3932805262986
 51
340.4496305961442
  0
ARC
  5
9DE9
330
1F
100
AcDbEntity
  8
freecads.com
100
AcDbCircle
 10
14629.76369886994
 20
15765.9269384457
 30
0.0
 40
38.52336190158819
100
AcDbArc
 50
340.4496305961475
 51
351.6323291652066
  0
ARC
  5
9DEA
330
1F
100
AcDbEntity
  8
freecads.com
100
AcDbCircle
 10
14599.90134225438
 20
15770.31941178313
 30
0.0
 40
68.70703571136643
100
AcDbArc
 50
351.6323291651874
 51
359.9999999999879
  0
ARC
  5
9DEB
330
1F
100
AcDbEntity
  8
freecads.com
100
AcDbCircle
 10
14599.90134225439
 20
15770.31941178319
 30
0.0
 40
68.70703571135527
100
AcDbArc
 50
359.9999999999408
 51
0.7405398362654747
  0
ARC
  5
9DEC
330
1F
100
AcDbEntity
  8
freecads.com
100
AcDbCircle
 10
14719.9556492468
 20
15770.31941178319
 30
0.0
 40
68.70703571134618
100
AcDbArc
 50
179.2594601637344
 51
180.0000000000591
  0
ARC
  5
9DED
330
1F
100
AcDbEntity
  8
freecads.com
100
AcDbCircle
 10
14719.95564924682
 20
15770.3194117831
 30
0.0
 40
68.70703571136619
100
AcDbArc
 50
179.9999999999803
 51
188.3676708347803
  0
ARC
  5
9DEE
330
1F
100
AcDbEntity
  8
freecads.com
100
AcDbCircle
 10
14690.09329263126
 20
15765.9269384457
 30
0.0
 40
38.52336190159022
100
AcDbArc
 50
188.3676708347957
 51
199.550369403854
  0
ARC
  5
9DEF
330
1F
100
AcDbEntity
  8
freecads.com
100
AcDbCircle
 10
14671.40555907454
 20
15759.29077039572
 30
0.0
 40
18.6923227993592
100
AcDbArc
 50
199.5503694038505
 51
220.6067194736971
  0
ARC
  5
9DF0
330
1F
100
AcDbEntity
  8
freecads.com
100
AcDbCircle
 10
14659.9284957506
 20
15749.45140236905
 30
0.0
 40
3.574910795108802
100
AcDbArc
 50
220.6067194737727
 51
270.0000000000583
  0
LINE
  5
9DF1
330
1F
100
AcDbEntity
  8
freecads.com
100
AcDbLine
 10
14698.59667655802
 20
15792.87823532963
 30
0.0
 11
14698.59667655802
 21
15724.05249277173
 31
0.0
  0
LINE
  5
9DF2
330
1F
100
AcDbEntity
  8
freecads.com
100
AcDbLine
 10
14692.34558816821
 20
15792.87823532963
 30
0.0
 11
14705.07395193198
 21
15792.87823532963
 31
0.0
  0
LINE
  5
9DF3
330
1F
100
AcDbEntity
  8
freecads.com
100
AcDbLine
 10
14705.07395193198
 20
15792.87823532963
 30
0.0
 11
14705.82395193198
 21
15793.62823532963
 31
0.0
  0
LINE
  5
9DF4
330
1F
100
AcDbEntity
  8
freecads.com
100
AcDbLine
 10
14705.82395193198
 20
15793.62823532963
 30
0.0
 11
14705.82395193198
 21
15804.12823532963
 31
0.0
  0
LINE
  5
9DF5
330
1F
100
AcDbEntity
  8
freecads.com
100
AcDbLine
 10
14705.82395193198
 20
15804.12823532963
 30
0.0
 11
14705.07395193198
 21
15804.87823532963
 31
0.0
  0
LINE
  5
9DF6
330
1F
100
AcDbEntity
  8
freecads.com
100
AcDbLine
 10
14705.07395193198
 20
15804.87823532963
 30
0.0
 11
14692.34558816821
 21
15804.87823532963
 31
0.0
  0
LINE
  5
9DF7
330
1F
100
AcDbEntity
  8
freecads.com
100
AcDbLine
 10
14692.34558816821
 20
15804.87823532963
 30
0.0
 11
14692.34558816821
 21
15792.87823532963
 31
0.0
  0
ARC
  5
9DF8
330
1F
100
AcDbEntity
  8
freecads.com
100
AcDbCircle
 10
14682.03417655801
 20
15798.87823532963
 30
0.0
 40
10.56250000000425
100
AcDbArc
 50
327.7957724960284
 51
32.20422750397164
  0
ARC
  5
9DF9
330
1F
100
AcDbEntity
  8
freecads.com
100
AcDbCircle
 10
14689.34667655802
 20
15807.32198301653
 30
0.0
 40
3.249999999997683
100
AcDbArc
 50
299.9999999999865
 51
60.00000000001346
  0
LINE
  5
9DFA
330
1F
100
AcDbEntity
  8
freecads.com
100
AcDbLine
 10
14690.97167655801
 20
15810.13656557883
 30
0.0
 11
14684.47167655802
 21
15810.13656557883
 31
0.0
  0
ARC
  5
9DFB
330
1F
100
AcDbEntity
  8
freecads.com
100
AcDbCircle
 10
14686.09667655802
 20
15807.32198301653
 30
0.0
 40
3.249999999998593
100
AcDbArc
 50
120.0000000000143
 51
239.9999999999857
  0
ARC
  5
9DFC
330
1F
100
AcDbEntity
  8
freecads.com
100
AcDbCircle
 10
14693.40917655802
 20
15798.87823532963
 30
0.0
 40
10.56250000000579
100
AcDbArc
 50
147.7957724960336
 51
212.2042275039663
  0
ARC
  5
9DFD
330
1F
100
AcDbEntity
  8
freecads.com
100
AcDbCircle
 10
14686.09667655802
 20
15790.43448764273
 30
0.0
 40
3.249999999998593
100
AcDbArc
 50
120.0000000000143
 51
239.9999999999857
  0
LINE
  5
9DFE
330
1F
100
AcDbEntity
  8
freecads.com
100
AcDbLine
 10
14684.47167655802
 20
15787.61990508044
 30
0.0
 11
14690.97167655801
 21
15787.61990508044
 31
0.0
  0
ARC
  5
9DFF
330
1F
100
AcDbEntity
  8
freecads.com
100
AcDbCircle
 10
14689.34667655802
 20
15790.43448764273
 30
0.0
 40
3.249999999998593
100
AcDbArc
 50
300.0000000000143
 51
59.99999999998568
  0
LINE
  5
9E00
330
1F
100
AcDbEntity
  8
freecads.com
100
AcDbLine
 10
14692.34558816821
 20
15712.05249277173
 30
0.0
 11
14705.07395193198
 21
15712.05249277173
 31
0.0
  0
LINE
  5
9E01
330
1F
100
AcDbEntity
  8
freecads.com
100
AcDbLine
 10
14705.07395193198
 20
15712.05249277173
 30
0.0
 11
14705.82395193198
 21
15712.80249277173
 31
0.0
  0
LINE
  5
9E02
330
1F
100
AcDbEntity
  8
freecads.com
100
AcDbLine
 10
14705.82395193198
 20
15712.80249277173
 30
0.0
 11
14705.82395193198
 21
15723.30249277173
 31
0.0
  0
LINE
  5
9E03
330
1F
100
AcDbEntity
  8
freecads.com
100
AcDbLine
 10
14705.82395193198
 20
15723.30249277173
 30
0.0
 11
14705.07395193198
 21
15724.05249277173
 31
0.0
  0
LINE
  5
9E04
330
1F
100
AcDbEntity
  8
freecads.com
100
AcDbLine
 10
14705.07395193198
 20
15724.05249277173
 30
0.0
 11
14692.34558816821
 21
15724.05249277173
 31
0.0
  0
LINE
  5
9E05
330
1F
100
AcDbEntity
  8
freecads.com
100
AcDbLine
 10
14692.34558816821
 20
15724.05249277173
 30
0.0
 11
14692.34558816821
 21
15712.05249277173
 31
0.0
  0
ARC
  5
9E06
330
1F
100
AcDbEntity
  8
freecads.com
100
AcDbCircle
 10
14682.03417655802
 20
15718.05249277173
 30
0.0
 40
10.56250000000021
100
AcDbArc
 50
327.7957724960262
 51
32.20422750397382
  0
ARC
  5
9E07
330
1F
100
AcDbEntity
  8
freecads.com
100
AcDbCircle
 10
14689.34667655802
 20
15726.49624045862
 30
0.0
 40
3.250000000000168
100
AcDbArc
 50
299.9999999999983
 51
60.00000000000171
  0
LINE
  5
9E08
330
1F
100
AcDbEntity
  8
freecads.com
100
AcDbLine
 10
14690.97167655801
 20
15729.31082302092
 30
0.0
 11
14684.47167655802
 21
15729.31082302092
 31
0.0
  0
ARC
  5
9E09
330
1F
100
AcDbEntity
  8
freecads.com
100
AcDbCircle
 10
14686.09667655802
 20
15726.49624045862
 30
0.0
 40
3.250000000000168
100
AcDbArc
 50
119.9999999999983
 51
240.0000000000017
  0
ARC
  5
9E0A
330
1F
100
AcDbEntity
  8
freecads.com
100
AcDbCircle
 10
14693.40917655802
 20
15718.05249277173
 30
0.0
 40
10.56250000000174
100
AcDbArc
 50
147.7957724960314
 51
212.2042275039686
  0
ARC
  5
9E0B
330
1F
100
AcDbEntity
  8
freecads.com
100
AcDbCircle
 10
14686.09667655802
 20
15709.60874508483
 30
0.0
 40
3.250000000000168
100
AcDbArc
 50
119.9999999999983
 51
239.9999999999857
  0
LINE
  5
9E0C
330
1F
100
AcDbEntity
  8
freecads.com
100
AcDbLine
 10
14684.47167655802
 20
15706.79416252253
 30
0.0
 11
14690.97167655801
 21
15706.79416252253
 31
0.0
  0
ARC
  5
9E0D
330
1F
100
AcDbEntity
  8
freecads.com
100
AcDbCircle
 10
14689.34667655802
 20
15709.60874508483
 30
0.0
 40
3.249999999998593
100
AcDbArc
 50
300.0000000000143
 51
60.00000000000171
  0
LINE
  5
9E0E
330
1F
100
AcDbEntity
  8
freecads.com
100
AcDbLine
 10
14494.14667655801
 20
15838.06082302092
 30
0.0
 11
14499.09667655802
 21
15838.06082302092
 31
0.0
  0
LINE
  5
9E0F
330
1F
100
AcDbEntity
  8
freecads.com
100
AcDbLine
 10
14499.09667655802
 20
15838.06082302092
 30
0.0
 11
14499.09667655802
 21
15815.54416252253
 31
0.0
  0
LINE
  5
9E10
330
1F
100
AcDbEntity
  8
freecads.com
100
AcDbLine
 10
14499.09667655802
 20
15815.54416252253
 30
0.0
 11
14494.14667655801
 21
15815.54416252253
 31
0.0
  0
ARC
  5
9E11
330
1F
100
AcDbEntity
  8
freecads.com
100
AcDbCircle
 10
14494.14667655801
 20
15818.54416252253
 30
0.0
 40
3.0
100
AcDbArc
 50
180.0
 51
270.0
  0
LINE
  5
9E12
330
1F
100
AcDbEntity
  8
freecads.com
100
AcDbLine
 10
14491.14667655801
 20
15818.54416252253
 30
0.0
 11
14491.14667655801
 21
15824.55249277173
 31
0.0
  0
LINE
  5
9E13
330
1F
100
AcDbEntity
  8
freecads.com
100
AcDbLine
 10
14491.14667655801
 20
15824.55249277173
 30
0.0
 11
14494.14667655801
 21
15824.55249277173
 31
0.0
  0
LINE
  5
9E14
330
1F
100
AcDbEntity
  8
freecads.com
100
AcDbLine
 10
14494.14667655801
 20
15824.55249277173
 30
0.0
 11
14494.14667655801
 21
15829.05249277172
 31
0.0
  0
LINE
  5
9E15
330
1F
100
AcDbEntity
  8
freecads.com
100
AcDbLine
 10
14494.14667655801
 20
15829.05249277172
 30
0.0
 11
14491.14667655802
 21
15829.05249277172
 31
0.0
  0
LINE
  5
9E16
330
1F
100
AcDbEntity
  8
freecads.com
100
AcDbLine
 10
14491.14667655802
 20
15829.05249277172
 30
0.0
 11
14491.14667655801
 21
15835.06082302092
 31
0.0
  0
ARC
  5
9E17
330
1F
100
AcDbEntity
  8
freecads.com
100
AcDbCircle
 10
14494.14667655801
 20
15835.06082302092
 30
0.0
 40
3.0
100
AcDbArc
 50
90.0
 51
180.0
  0
LINE
  5
9E18
330
1F
100
AcDbEntity
  8
freecads.com
100
AcDbLine
 10
14491.14667655801
 20
15655.41916252253
 30
0.0
 11
14491.14667655801
 21
15661.42749277173
 31
0.0
  0
LINE
  5
9E19
330
1F
100
AcDbEntity
  8
freecads.com
100
AcDbLine
 10
14491.14667655801
 20
15661.42749277173
 30
0.0
 11
14494.14667655802
 21
15661.42749277173
 31
0.0
  0
LINE
  5
9E1A
330
1F
100
AcDbEntity
  8
freecads.com
100
AcDbLine
 10
14494.14667655802
 20
15661.42749277173
 30
0.0
 11
14494.14667655801
 21
15665.92749277173
 31
0.0
  0
LINE
  5
9E1B
330
1F
100
AcDbEntity
  8
freecads.com
100
AcDbLine
 10
14494.14667655801
 20
15665.92749277173
 30
0.0
 11
14491.14667655801
 21
15665.92749277173
 31
0.0
  0
LINE
  5
9E1C
330
1F
100
AcDbEntity
  8
freecads.com
100
AcDbLine
 10
14491.14667655801
 20
15665.92749277173
 30
0.0
 11
14491.14667655802
 21
15671.93582302092
 31
0.0
  0
ARC
  5
9E1D
330
1F
100
AcDbEntity
  8
freecads.com
100
AcDbCircle
 10
14494.14667655802
 20
15671.93582302092
 30
0.0
 40
3.0
100
AcDbArc
 50
90.0
 51
180.0
  0
LINE
  5
9E1E
330
1F
100
AcDbEntity
  8
freecads.com
100
AcDbLine
 10
14494.14667655802
 20
15674.93582302092
 30
0.0
 11
14499.09667655802
 21
15674.93582302092
 31
0.0
  0
LINE
  5
9E1F
330
1F
100
AcDbEntity
  8
freecads.com
100
AcDbLine
 10
14499.09667655802
 20
15674.93582302092
 30
0.0
 11
14499.09667655802
 21
15652.41916252253
 31
0.0
  0
LINE
  5
9E20
330
1F
100
AcDbEntity
  8
freecads.com
100
AcDbLine
 10
14499.09667655802
 20
15652.41916252253
 30
0.0
 11
14494.14667655801
 21
15652.41916252253
 31
0.0
  0
ARC
  5
9E21
330
1F
100
AcDbEntity
  8
freecads.com
100
AcDbCircle
 10
14494.14667655801
 20
15655.41916252253
 30
0.0
 40
3.0
100
AcDbArc
 50
180.0
 51
270.0
  0
LINE
  5
9E22
330
1F
100
AcDbEntity
  8
freecads.com
100
AcDbLine
 10
14585.44748484663
 20
15565.12566412784
 30
0.0
 11
14587.69748484663
 21
15565.12566412784
 31
0.0
  0
LINE
  5
9E23
330
1F
100
AcDbEntity
  8
freecads.com
100
AcDbLine
 10
14587.69748484663
 20
15565.12566412784
 30
0.0
 11
14587.69748484663
 21
15352.0173254447
 31
0.0
  0
LINE
  5
9E24
330
1F
100
AcDbEntity
  8
freecads.com
100
AcDbLine
 10
14642.34667655801
 20
15545.55249277173
 30
0.0
 11
14642.34667655801
 21
15560.55249277173
 31
0.0
  0
LINE
  5
9E25
330
1F
100
AcDbEntity
  8
freecads.com
100
AcDbLine
 10
14642.34667655801
 20
15560.55249277173
 30
0.0
 11
14628.92167655802
 21
15560.55249277173
 31
0.0
  0
LINE
  5
9E26
330
1F
100
AcDbEntity
  8
freecads.com
100
AcDbLine
 10
14628.92167655802
 20
15560.55249277173
 30
0.0
 11
14627.42167655802
 21
15562.05249277173
 31
0.0
  0
LINE
  5
9E27
330
1F
100
AcDbEntity
  8
freecads.com
100
AcDbLine
 10
14627.42167655802
 20
15562.05249277173
 30
0.0
 11
14627.42167655802
 21
15589.05249277173
 31
0.0
  0
LINE
  5
9E28
330
1F
100
AcDbEntity
  8
freecads.com
100
AcDbLine
 10
14627.42167655802
 20
15589.05249277173
 30
0.0
 11
14628.92167655802
 21
15590.55249277173
 31
0.0
  0
LINE
  5
9E29
330
1F
100
AcDbEntity
  8
freecads.com
100
AcDbLine
 10
14628.92167655802
 20
15590.55249277173
 30
0.0
 11
14642.34667655801
 21
15590.55249277173
 31
0.0
  0
LINE
  5
9E2A
330
1F
100
AcDbEntity
  8
freecads.com
100
AcDbLine
 10
14642.34667655801
 20
15590.55249277173
 30
0.0
 11
14642.34667655801
 21
15598.05249277173
 31
0.0
  0
LINE
  5
9E2B
330
1F
100
AcDbEntity
  8
freecads.com
100
AcDbLine
 10
14642.34667655801
 20
15598.05249277173
 30
0.0
 11
14657.34667655801
 21
15598.05249277173
 31
0.0
  0
LINE
  5
9E2C
330
1F
100
AcDbEntity
  8
freecads.com
100
AcDbLine
 10
14657.34667655801
 20
15598.05249277173
 30
0.0
 11
14657.34667655801
 21
15590.55249277173
 31
0.0
  0
LINE
  5
9E2D
330
1F
100
AcDbEntity
  8
freecads.com
100
AcDbLine
 10
14657.34667655801
 20
15590.55249277173
 30
0.0
 11
14670.92167655802
 21
15590.55249277173
 31
0.0
  0
LINE
  5
9E2E
330
1F
100
AcDbEntity
  8
freecads.com
100
AcDbLine
 10
14670.92167655802
 20
15590.55249277173
 30
0.0
 11
14672.42167655802
 21
15589.05249277173
 31
0.0
  0
LINE
  5
9E2F
330
1F
100
AcDbEntity
  8
freecads.com
100
AcDbLine
 10
14672.42167655802
 20
15589.05249277173
 30
0.0
 11
14672.42167655802
 21
15562.05249277173
 31
0.0
  0
LINE
  5
9E30
330
1F
100
AcDbEntity
  8
freecads.com
100
AcDbLine
 10
14672.42167655802
 20
15562.05249277173
 30
0.0
 11
14670.92167655802
 21
15560.55249277173
 31
0.0
  0
LINE
  5
9E31
330
1F
100
AcDbEntity
  8
freecads.com
100
AcDbLine
 10
14670.92167655802
 20
15560.55249277173
 30
0.0
 11
14657.34667655801
 21
15560.55249277173
 31
0.0
  0
LINE
  5
9E32
330
1F
100
AcDbEntity
  8
freecads.com
100
AcDbLine
 10
14657.34667655801
 20
15560.55249277173
 30
0.0
 11
14657.34667655801
 21
15545.55249277173
 31
0.0
  0
LINE
  5
9E33
330
1F
100
AcDbEntity
  8
freecads.com
100
AcDbLine
 10
14657.34667655801
 20
15545.55249277173
 30
0.0
 11
14642.34667655801
 21
15545.55249277173
 31
0.0
  0
LINE
  5
9E34
330
1F
100
AcDbEntity
  8
freecads.com
100
AcDbLine
 10
14631.09667655801
 20
15515.55249277173
 30
0.0
 11
14628.92167655802
 21
15515.55249277173
 31
0.0
  0
LINE
  5
9E35
330
1F
100
AcDbEntity
  8
freecads.com
100
AcDbLine
 10
14628.92167655802
 20
15515.55249277173
 30
0.0
 11
14627.42167655802
 21
15517.05249277173
 31
0.0
  0
LINE
  5
9E36
330
1F
100
AcDbEntity
  8
freecads.com
100
AcDbLine
 10
14627.42167655802
 20
15517.05249277173
 30
0.0
 11
14627.42167655802
 21
15544.05249277173
 31
0.0
  0
LINE
  5
9E37
330
1F
100
AcDbEntity
  8
freecads.com
100
AcDbLine
 10
14627.42167655802
 20
15544.05249277173
 30
0.0
 11
14628.92167655802
 21
15545.55249277173
 31
0.0
  0
LINE
  5
9E38
330
1F
100
AcDbEntity
  8
freecads.com
100
AcDbLine
 10
14628.92167655802
 20
15545.55249277173
 30
0.0
 11
14649.84667655801
 21
15545.55249277173
 31
0.0
  0
LINE
  5
9E39
330
1F
100
AcDbEntity
  8
freecads.com
100
AcDbLine
 10
14649.84667655801
 20
15545.55249277173
 30
0.0
 11
14670.92167655802
 21
15545.55249277173
 31
0.0
  0
LINE
  5
9E3A
330
1F
100
AcDbEntity
  8
freecads.com
100
AcDbLine
 10
14670.92167655802
 20
15545.55249277173
 30
0.0
 11
14672.42167655802
 21
15544.05249277173
 31
0.0
  0
LINE
  5
9E3B
330
1F
100
AcDbEntity
  8
freecads.com
100
AcDbLine
 10
14672.42167655802
 20
15544.05249277173
 30
0.0
 11
14672.42167655802
 21
15517.05249277173
 31
0.0
  0
LINE
  5
9E3C
330
1F
100
AcDbEntity
  8
freecads.com
100
AcDbLine
 10
14672.42167655802
 20
15517.05249277173
 30
0.0
 11
14670.92167655802
 21
15515.55249277173
 31
0.0
  0
LINE
  5
9E3D
330
1F
100
AcDbEntity
  8
freecads.com
100
AcDbLine
 10
14670.92167655802
 20
15515.55249277173
 30
0.0
 11
14668.59667655801
 21
15515.55249277173
 31
0.0
  0
LINE
  5
9E3E
330
1F
100
AcDbEntity
  8
freecads.com
100
AcDbLine
 10
14668.59667655801
 20
15515.55249277173
 30
0.0
 11
14668.59667655801
 21
15380.55249277173
 31
0.0
  0
LINE
  5
9E3F
330
1F
100
AcDbEntity
  8
freecads.com
100
AcDbLine
 10
14668.59667655801
 20
15380.55249277173
 30
0.0
 11
14631.09667655801
 21
15380.55249277173
 31
0.0
  0
LINE
  5
9E40
330
1F
100
AcDbEntity
  8
freecads.com
100
AcDbLine
 10
14631.09667655801
 20
15380.55249277173
 30
0.0
 11
14631.09667655801
 21
15515.55249277173
 31
0.0
  0
LINE
  5
9E42
330
1F
100
AcDbEntity
  8
freecads.com
100
AcDbLine
 10
14606.67248484663
 20
15548.62566412784
 30
0.0
 11
14606.67248484663
 21
15536.62566412784
 31
0.0
  0
LINE
  5
9E43
330
1F
100
AcDbEntity
  8
freecads.com
100
AcDbLine
 10
14602.09748484664
 20
15536.62566412784
 30
0.0
 11
14606.67248484663
 21
15536.62566412784
 31
0.0
  0
LINE
  5
9E44
330
1F
100
AcDbEntity
  8
freecads.com
100
AcDbLine
 10
14606.67248484663
 20
15536.62566412784
 30
0.0
 11
14608.54748484663
 21
15538.50066412784
 31
0.0
  0
LINE
  5
9E45
330
1F
100
AcDbEntity
  8
freecads.com
100
AcDbLine
 10
14608.54748484663
 20
15538.50066412784
 30
0.0
 11
14608.54748484663
 21
15546.75066412784
 31
0.0
  0
LINE
  5
9E46
330
1F
100
AcDbEntity
  8
freecads.com
100
AcDbLine
 10
14608.54748484663
 20
15546.75066412784
 30
0.0
 11
14606.67248484663
 21
15548.62566412784
 31
0.0
  0
LINE
  5
9E47
330
1F
100
AcDbEntity
  8
freecads.com
100
AcDbLine
 10
14606.67248484663
 20
15548.62566412784
 30
0.0
 11
14602.09748484664
 21
15548.62566412784
 31
0.0
  0
LINE
  5
9E48
330
1F
100
AcDbEntity
  8
freecads.com
100
AcDbLine
 10
14598.88748484663
 20
15552.37566412784
 30
0.0
 11
14600.59748484663
 21
15552.37566412784
 31
0.0
  0
ARC
  5
9E49
330
1F
100
AcDbEntity
  8
freecads.com
100
AcDbCircle
 10
14600.59748484663
 20
15550.87566412784
 30
0.0
 40
1.5
100
AcDbArc
 50
0.0
 51
90.0
  0
LINE
  5
9E4A
330
1F
100
AcDbEntity
  8
freecads.com
100
AcDbLine
 10
14602.09748484664
 20
15550.87566412784
 30
0.0
 11
14602.09748484664
 21
15534.37566412784
 31
0.0
  0
ARC
  5
9E4B
330
1F
100
AcDbEntity
  8
freecads.com
100
AcDbCircle
 10
14600.59748484663
 20
15534.37566412784
 30
0.0
 40
1.5
100
AcDbArc
 50
270.0
 51
0.0
  0
LINE
  5
9E4C
330
1F
100
AcDbEntity
  8
freecads.com
100
AcDbLine
 10
14600.59748484663
 20
15532.87566412784
 30
0.0
 11
14598.88748484663
 21
15532.87566412784
 31
0.0
  0
LINE
  5
9E4D
330
1F
100
AcDbEntity
  8
freecads.com
100
AcDbLine
 10
14599.09748484664
 20
15551.06941181474
 30
0.0
 11
14599.09748484664
 21
15534.18191644094
 31
0.0
  0
LINE
  5
9E4E
330
1F
100
AcDbEntity
  8
freecads.com
100
AcDbLine
 10
14616.84667655801
 20
15536.55249277173
 30
0.0
 11
14604.84667655801
 21
15536.55249277173
 31
0.0
  0
LINE
  5
9E4F
330
1F
100
AcDbEntity
  8
freecads.com
100
AcDbLine
 10
14604.84667655801
 20
15536.55249277173
 30
0.0
 11
14604.84667655801
 21
15517.05249277173
 31
0.0
  0
LINE
  5
9E50
330
1F
100
AcDbEntity
  8
freecads.com
100
AcDbLine
 10
14604.84667655801
 20
15517.05249277173
 30
0.0
 11
14616.84667655801
 21
15517.05249277173
 31
0.0
  0
LINE
  5
9E51
330
1F
100
AcDbEntity
  8
freecads.com
100
AcDbLine
 10
14616.84667655801
 20
15517.05249277173
 30
0.0
 11
14616.84667655801
 21
15536.55249277173
 31
0.0
  0
LINE
  5
9E52
330
1F
100
AcDbEntity
  8
freecads.com
100
AcDbLine
 10
14616.84667655801
 20
15592.5683208698
 30
0.0
 11
14604.84667655801
 21
15592.5683208698
 31
0.0
  0
LINE
  5
9E53
330
1F
100
AcDbEntity
  8
freecads.com
100
AcDbLine
 10
14604.84667655801
 20
15592.5683208698
 30
0.0
 11
14604.84667655801
 21
15573.0683208698
 31
0.0
  0
LINE
  5
9E54
330
1F
100
AcDbEntity
  8
freecads.com
100
AcDbLine
 10
14604.84667655801
 20
15573.0683208698
 30
0.0
 11
14616.84667655801
 21
15573.0683208698
 31
0.0
  0
LINE
  5
9E55
330
1F
100
AcDbEntity
  8
freecads.com
100
AcDbLine
 10
14616.84667655801
 20
15573.0683208698
 30
0.0
 11
14616.84667655801
 21
15592.5683208698
 31
0.0
  0
LINE
  5
9E56
330
1F
100
AcDbEntity
  8
freecads.com
100
AcDbLine
 10
14587.69748484663
 20
15554.62566412784
 30
0.0
 11
14590.09748484664
 21
15554.62566412784
 31
0.0
  0
LINE
  5
9E57
330
1F
100
AcDbEntity
  8
freecads.com
100
AcDbLine
 10
14590.09748484664
 20
15554.62566412784
 30
0.0
 11
14590.09748484664
 21
15530.62566412784
 31
0.0
  0
LINE
  5
9E58
330
1F
100
AcDbEntity
  8
freecads.com
100
AcDbLine
 10
14590.09748484664
 20
15530.62566412784
 30
0.0
 11
14587.69748484663
 21
15530.62566412784
 31
0.0
  0
ARC
  5
9E59
330
1F
100
AcDbEntity
  8
freecads.com
100
AcDbCircle
 10
14587.78498484664
 20
15542.62566412784
 30
0.0
 40
11.31249999999771
100
AcDbArc
 50
330.1582758353173
 51
29.84172416468269
  0
LINE
  5
9E5A
330
1F
100
AcDbEntity
  8
freecads.com
100
AcDbLine
 10
14597.59748484664
 20
15536.99649900324
 30
0.0
 11
14591.59748484664
 21
15536.99649900324
 31
0.0
  0
ARC
  5
9E5B
330
1F
100
AcDbEntity
  8
freecads.com
100
AcDbCircle
 10
14601.40998484663
 20
15542.62566412784
 30
0.0
 40
11.31249999999771
100
AcDbArc
 50
150.1582758353173
 51
209.8417241646827
  0
LINE
  5
9E5C
330
1F
100
AcDbEntity
  8
freecads.com
100
AcDbLine
 10
14591.59748484664
 20
15548.25482925243
 30
0.0
 11
14597.59748484664
 21
15548.25482925243
 31
0.0
  0
ARC
  5
9E5D
330
1F
100
AcDbEntity
  8
freecads.com
100
AcDbCircle
 10
14593.48810984664
 20
15534.18191644094
 30
0.0
 40
3.390625000002685
100
AcDbArc
 50
123.8902381690142
 51
236.1097618309858
  0
LINE
  5
9E5E
330
1F
100
AcDbEntity
  8
freecads.com
100
AcDbLine
 10
14591.59748484664
 20
15531.36733387864
 30
0.0
 11
14597.59748484664
 21
15531.36733387864
 31
0.0
  0
ARC
  5
9E5F
330
1F
100
AcDbEntity
  8
freecads.com
100
AcDbCircle
 10
14595.70685984663
 20
15534.18191644094
 30
0.0
 40
3.390625000002685
100
AcDbArc
 50
303.8902381690142
 51
56.10976183098581
  0
ARC
  5
9E60
330
1F
100
AcDbEntity
  8
freecads.com
100
AcDbCircle
 10
14595.70685984663
 20
15551.06941181474
 30
0.0
 40
3.390625000002685
100
AcDbArc
 50
303.8902381690142
 51
56.10976183098581
  0
LINE
  5
9E61
330
1F
100
AcDbEntity
  8
freecads.com
100
AcDbLine
 10
14597.59748484664
 20
15553.88399437704
 30
0.0
 11
14591.59748484664
 21
15553.88399437704
 31
0.0
  0
ARC
  5
9E62
330
1F
100
AcDbEntity
  8
freecads.com
100
AcDbCircle
 10
14593.48810984664
 20
15551.06941181474
 30
0.0
 40
3.390625000002685
100
AcDbArc
 50
123.8902381690142
 51
236.1097618309858
  0
LINE
  5
9E63
330
1F
100
AcDbEntity
  8
freecads.com
100
AcDbLine
 10
14692.59667655801
 20
15520.80249277173
 30
0.0
 11
14705.07395193198
 21
15520.80249277173
 31
0.0
  0
LINE
  5
9E64
330
1F
100
AcDbEntity
  8
freecads.com
100
AcDbLine
 10
14705.07395193198
 20
15520.80249277173
 30
0.0
 11
14705.82395193198
 21
15521.55249277173
 31
0.0
  0
LINE
  5
9E65
330
1F
100
AcDbEntity
  8
freecads.com
100
AcDbLine
 10
14705.82395193198
 20
15521.55249277173
 30
0.0
 11
14705.82395193198
 21
15532.05249277173
 31
0.0
  0
LINE
  5
9E66
330
1F
100
AcDbEntity
  8
freecads.com
100
AcDbLine
 10
14705.82395193198
 20
15532.05249277173
 30
0.0
 11
14705.07395193198
 21
15532.80249277173
 31
0.0
  0
LINE
  5
9E67
330
1F
100
AcDbEntity
  8
freecads.com
100
AcDbLine
 10
14705.07395193198
 20
15532.80249277173
 30
0.0
 11
14692.59667655801
 21
15532.80249277173
 31
0.0
  0
LINE
  5
9E68
330
1F
100
AcDbEntity
  8
freecads.com
100
AcDbLine
 10
14692.59667655801
 20
15532.80249277173
 30
0.0
 11
14692.59667655801
 21
15520.80249277173
 31
0.0
  0
LINE
  5
9E69
330
1F
100
AcDbEntity
  8
freecads.com
100
AcDbLine
 10
14692.59667655801
 20
15576.8183208698
 30
0.0
 11
14705.07395193198
 21
15576.8183208698
 31
0.0
  0
LINE
  5
9E6A
330
1F
100
AcDbEntity
  8
freecads.com
100
AcDbLine
 10
14705.07395193198
 20
15576.8183208698
 30
0.0
 11
14705.82395193198
 21
15577.5683208698
 31
0.0
  0
LINE
  5
9E6B
330
1F
100
AcDbEntity
  8
freecads.com
100
AcDbLine
 10
14705.82395193198
 20
15577.5683208698
 30
0.0
 11
14705.82395193198
 21
15588.0683208698
 31
0.0
  0
LINE
  5
9E6C
330
1F
100
AcDbEntity
  8
freecads.com
100
AcDbLine
 10
14705.82395193198
 20
15588.0683208698
 30
0.0
 11
14705.07395193198
 21
15588.8183208698
 31
0.0
  0
LINE
  5
9E6D
330
1F
100
AcDbEntity
  8
freecads.com
100
AcDbLine
 10
14705.07395193198
 20
15588.8183208698
 30
0.0
 11
14692.59667655801
 21
15588.8183208698
 31
0.0
  0
LINE
  5
9E6E
330
1F
100
AcDbEntity
  8
freecads.com
100
AcDbLine
 10
14692.59667655801
 20
15588.8183208698
 30
0.0
 11
14692.59667655801
 21
15576.8183208698
 31
0.0
  0
ARC
  5
9E6F
330
1F
100
AcDbEntity
  8
freecads.com
100
AcDbCircle
 10
14689.34667655802
 20
15518.35874508483
 30
0.0
 40
3.249999999998593
100
AcDbArc
 50
300.0000000000143
 51
60.00000000000171
  0
ARC
  5
9E70
330
1F
100
AcDbEntity
  8
freecads.com
100
AcDbCircle
 10
14682.03417655802
 20
15526.80249277172
 30
0.0
 40
10.56250000000021
100
AcDbArc
 50
327.7957724960262
 51
32.20422750397382
  0
ARC
  5
9E71
330
1F
100
AcDbEntity
  8
freecads.com
100
AcDbCircle
 10
14689.34667655802
 20
15535.24624045862
 30
0.0
 40
3.250000000000168
100
AcDbArc
 50
299.9999999999983
 51
60.00000000000171
  0
LINE
  5
9E72
330
1F
100
AcDbEntity
  8
freecads.com
100
AcDbLine
 10
14690.97167655801
 20
15538.06082302092
 30
0.0
 11
14684.47167655802
 21
15538.06082302092
 31
0.0
  0
ARC
  5
9E73
330
1F
100
AcDbEntity
  8
freecads.com
100
AcDbCircle
 10
14686.09667655802
 20
15535.24624045862
 30
0.0
 40
3.250000000000168
100
AcDbArc
 50
119.9999999999983
 51
240.0000000000017
  0
ARC
  5
9E74
330
1F
100
AcDbEntity
  8
freecads.com
100
AcDbCircle
 10
14693.40917655802
 20
15526.80249277172
 30
0.0
 40
10.56250000000174
100
AcDbArc
 50
147.7957724960314
 51
212.2042275039686
  0
ARC
  5
9E75
330
1F
100
AcDbEntity
  8
freecads.com
100
AcDbCircle
 10
14686.09667655802
 20
15518.35874508483
 30
0.0
 40
3.250000000000168
100
AcDbArc
 50
119.9999999999983
 51
239.9999999999857
  0
LINE
  5
9E76
330
1F
100
AcDbEntity
  8
freecads.com
100
AcDbLine
 10
14684.47167655802
 20
15515.54416252253
 30
0.0
 11
14690.97167655801
 21
15515.54416252253
 31
0.0
  0
ARC
  5
9E77
330
1F
100
AcDbEntity
  8
freecads.com
100
AcDbCircle
 10
14682.03417655801
 20
15582.8183208698
 30
0.0
 40
10.56250000000271
100
AcDbArc
 50
327.7957724960231
 51
32.20422750396855
  0
ARC
  5
9E78
330
1F
100
AcDbEntity
  8
freecads.com
100
AcDbCircle
 10
14689.34667655802
 20
15591.2620685567
 30
0.0
 40
3.249999999997683
100
AcDbArc
 50
299.9999999999865
 51
60.00000000001346
  0
LINE
  5
9E79
330
1F
100
AcDbEntity
  8
freecads.com
100
AcDbLine
 10
14690.97167655801
 20
15594.07665111899
 30
0.0
 11
14684.47167655802
 21
15594.07665111899
 31
0.0
  0
ARC
  5
9E7A
330
1F
100
AcDbEntity
  8
freecads.com
100
AcDbCircle
 10
14686.09667655802
 20
15591.2620685567
 30
0.0
 40
3.249999999998593
100
AcDbArc
 50
120.0000000000143
 51
239.9999999999857
  0
ARC
  5
9E7B
330
1F
100
AcDbEntity
  8
freecads.com
100
AcDbCircle
 10
14693.40917655802
 20
15582.8183208698
 30
0.0
 40
10.56250000000579
100
AcDbArc
 50
147.7957724960336
 51
212.2042275039663
  0
ARC
  5
9E7C
330
1F
100
AcDbEntity
  8
freecads.com
100
AcDbCircle
 10
14686.09667655802
 20
15574.3745731829
 30
0.0
 40
3.249999999998593
100
AcDbArc
 50
120.0000000000143
 51
239.9999999999857
  0
LINE
  5
9E7D
330
1F
100
AcDbEntity
  8
freecads.com
100
AcDbLine
 10
14684.47167655802
 20
15571.5599906206
 30
0.0
 11
14690.97167655801
 21
15571.5599906206
 31
0.0
  0
ARC
  5
9E7E
330
1F
100
AcDbEntity
  8
freecads.com
100
AcDbCircle
 10
14689.34667655802
 20
15574.3745731829
 30
0.0
 40
3.250000000000168
100
AcDbArc
 50
299.9999999999983
 51
59.99999999998568
  0
LINE
  5
9E7F
330
1F
100
AcDbEntity
  8
freecads.com
100
AcDbLine
 10
14470.69748484664
 20
15352.0173254447
 30
0.0
 11
14470.69748484664
 21
15401.86396312049
 31
0.0
  0
ARC
  5
9E80
330
1F
100
AcDbEntity
  8
freecads.com
100
AcDbCircle
 10
14478.19748484663
 20
15401.8639631205
 30
0.0
 40
7.5
100
AcDbArc
 50
93.00000000000629
 51
180.0000000000139
  0
LINE
  5
9E81
330
1F
100
AcDbEntity
  8
freecads.com
100
AcDbLine
 10
14477.80496517481
 20
15409.35368463116
 30
0.0
 11
14484.35449271537
 21
15409.69693082491
 31
0.0
  0
ARC
  5
9E82
330
1F
100
AcDbEntity
  8
freecads.com
100
AcDbCircle
 10
14484.19748484664
 20
15412.69281942917
 30
0.0
 40
2.999999999998586
100
AcDbArc
 50
273.0000000000071
 51
0.0
  0
LINE
  5
9E83
330
1F
100
AcDbEntity
  8
freecads.com
100
AcDbLine
 10
14520.94748484664
 20
15352.0173254447
 30
0.0
 11
14520.94748484664
 21
15565.12566412784
 31
0.0
  0
LINE
  5
9E84
330
1F
100
AcDbEntity
  8
freecads.com
100
AcDbLine
 10
14520.94748484664
 20
15565.12566412784
 30
0.0
 11
14532.94748484664
 21
15565.12566412784
 31
0.0
  0
ARC
  5
9E85
330
1F
100
AcDbEntity
  8
freecads.com
100
AcDbCircle
 10
14513.44748484664
 20
15534.7428983782
 30
0.0
 40
7.499999999999699
100
AcDbArc
 50
273.0000000000056
 51
326.7039931166321
  0
LINE
  5
9E86
330
1F
100
AcDbEntity
  8
freecads.com
100
AcDbLine
 10
14513.84000451846
 20
15527.25317686754
 30
0.0
 11
14494.30496517481
 21
15526.22938883733
 31
0.0
  0
ARC
  5
9E87
330
1F
100
AcDbEntity
  8
freecads.com
100
AcDbCircle
 10
14494.69748484664
 20
15518.73966732667
 30
0.0
 40
7.500000000000098
100
AcDbArc
 50
93.00000000000556
 51
180.0000000000139
  0
LINE
  5
9E88
330
1F
100
AcDbEntity
  8
freecads.com
100
AcDbLine
 10
14487.19748484664
 20
15518.73966732667
 30
0.0
 11
14487.19748484664
 21
15352.0173254447
 31
0.0
  0
ARC
  5
9E89
330
1F
100
AcDbEntity
  8
freecads.com
100
AcDbCircle
 10
14476.40888885031
 20
15473.39369672993
 30
0.0
 40
9.800208449985401
100
AcDbArc
 50
70.39316901483099
 51
79.22369127221706
  0
ARC
  5
9E8A
330
1F
100
AcDbEntity
  8
freecads.com
100
AcDbCircle
 10
14475.19748484663
 20
15467.02899756184
 30
0.0
 40
16.27916632609421
100
AcDbArc
 50
79.22369127217668
 51
89.99999999998079
  0
ARC
  5
9E8B
330
1F
100
AcDbEntity
  8
freecads.com
100
AcDbCircle
 10
14475.19748484664
 20
15467.02899756182
 30
0.0
 40
16.27916632611414
100
AcDbArc
 50
90.0000000000128
 51
100.7763087278164
  0
ARC
  5
9E8C
330
1F
100
AcDbEntity
  8
freecads.com
100
AcDbCircle
 10
14473.98608084296
 20
15473.39369672995
 30
0.0
 40
9.800208449960287
100
AcDbArc
 50
100.7763087278108
 51
109.6068309851989
  0
LINE
  5
9E8D
330
1F
100
AcDbEntity
  8
freecads.com
100
AcDbLine
 10
14470.69748484664
 20
15482.62566412784
 30
0.0
 11
14467.69748484664
 21
15482.62566412784
 31
0.0
  0
LINE
  5
9E8E
330
1F
100
AcDbEntity
  8
freecads.com
100
AcDbLine
 10
14467.69748484664
 20
15482.62566412784
 30
0.0
 11
14467.69748484664
 21
15512.62566412784
 31
0.0
  0
LINE
  5
9E8F
330
1F
100
AcDbEntity
  8
freecads.com
100
AcDbLine
 10
14467.69748484664
 20
15512.62566412784
 30
0.0
 11
14482.69748484664
 21
15512.62566412784
 31
0.0
  0
LINE
  5
9E90
330
1F
100
AcDbEntity
  8
freecads.com
100
AcDbLine
 10
14482.69748484664
 20
15512.62566412784
 30
0.0
 11
14482.69748484664
 21
15482.62566412784
 31
0.0
  0
LINE
  5
9E91
330
1F
100
AcDbEntity
  8
freecads.com
100
AcDbLine
 10
14482.69748484664
 20
15482.62566412784
 30
0.0
 11
14479.69748484664
 21
15482.62566412784
 31
0.0
  0
LINE
  5
9E92
330
1F
100
AcDbEntity
  8
freecads.com
100
AcDbLine
 10
14470.69748484664
 20
15482.62566412784
 30
0.0
 11
14470.69748484664
 21
15431.62566412784
 31
0.0
  0
LINE
  5
9E93
330
1F
100
AcDbEntity
  8
freecads.com
100
AcDbLine
 10
14470.69748484664
 20
15431.62566412784
 30
0.0
 11
14475.19748484664
 21
15431.62566412784
 31
0.0
  0
LINE
  5
9E94
330
1F
100
AcDbEntity
  8
freecads.com
100
AcDbLine
 10
14475.19748484664
 20
15431.62566412784
 30
0.0
 11
14479.69748484664
 21
15431.62566412784
 31
0.0
  0
LINE
  5
9E95
330
1F
100
AcDbEntity
  8
freecads.com
100
AcDbLine
 10
14479.69748484664
 20
15431.62566412784
 30
0.0
 11
14478.19748484663
 21
15430.12566412784
 31
0.0
  0
LINE
  5
9E96
330
1F
100
AcDbEntity
  8
freecads.com
100
AcDbLine
 10
14478.19748484663
 20
15430.12566412784
 30
0.0
 11
14475.19748484664
 21
15430.12566412784
 31
0.0
  0
LINE
  5
9E97
330
1F
100
AcDbEntity
  8
freecads.com
100
AcDbLine
 10
14475.19748484664
 20
15430.12566412784
 30
0.0
 11
14472.19748484664
 21
15430.12566412784
 31
0.0
  0
LINE
  5
9E98
330
1F
100
AcDbEntity
  8
freecads.com
100
AcDbLine
 10
14472.19748484664
 20
15430.12566412784
 30
0.0
 11
14470.69748484664
 21
15431.62566412784
 31
0.0
  0
LINE
  5
9E99
330
1F
100
AcDbEntity
  8
freecads.com
100
AcDbLine
 10
14482.69748484664
 20
15486.37566412784
 30
0.0
 11
14487.19748484664
 21
15486.37566412784
 31
0.0
  0
LINE
  5
9E9A
330
1F
100
AcDbEntity
  8
freecads.com
100
AcDbLine
 10
14520.94748484664
 20
15554.62566412784
 30
0.0
 11
14518.54748484664
 21
15554.62566412784
 31
0.0
  0
LINE
  5
9E9B
330
1F
100
AcDbEntity
  8
freecads.com
100
AcDbLine
 10
14518.54748484664
 20
15554.62566412784
 30
0.0
 11
14518.54748484664
 21
15530.62566412784
 31
0.0
  0
LINE
  5
9E9C
330
1F
100
AcDbEntity
  8
freecads.com
100
AcDbLine
 10
14518.54748484664
 20
15530.62566412784
 30
0.0
 11
14520.94748484664
 21
15530.62566412784
 31
0.0
  0
LINE
  5
9E9D
330
1F
100
AcDbEntity
  8
freecads.com
100
AcDbLine
 10
14518.54748484664
 20
15552.37566412784
 30
0.0
 11
14506.54748484663
 21
15552.37566412784
 31
0.0
  0
LINE
  5
9E9E
330
1F
100
AcDbEntity
  8
freecads.com
100
AcDbLine
 10
14506.54748484663
 20
15552.37566412784
 30
0.0
 11
14506.54748484663
 21
15532.87566412784
 31
0.0
  0
LINE
  5
9E9F
330
1F
100
AcDbEntity
  8
freecads.com
100
AcDbLine
 10
14506.54748484663
 20
15532.87566412784
 30
0.0
 11
14518.54748484664
 21
15532.87566412784
 31
0.0
  0
LINE
  5
9EA0
330
1F
100
AcDbEntity
  8
freecads.com
100
AcDbLine
 10
14479.69748484664
 20
15482.62566412784
 30
0.0
 11
14479.69748484664
 21
15431.62566412784
 31
0.0
  0
LINE
  5
9EA1
330
1F
100
AcDbEntity
  8
freecads.com
100
AcDbLine
 10
14585.44748484663
 20
15352.0173254447
 30
0.0
 11
14585.44748484663
 21
15569.62566412784
 31
0.0
  0
LINE
  5
9EA2
330
1F
100
AcDbEntity
  8
freecads.com
100
AcDbLine
 10
14585.44748484663
 20
15569.62566412784
 30
0.0
 11
14532.94748484664
 21
15569.62566412784
 31
0.0
  0
LINE
  5
9EA3
330
1F
100
AcDbEntity
  8
freecads.com
100
AcDbLine
 10
14532.94748484664
 20
15569.62566412784
 30
0.0
 11
14532.94748484664
 21
15352.0173254447
 31
0.0
  0
LINE
  5
9EA4
330
1F
100
AcDbEntity
  8
freecads.com
100
AcDbLine
 10
14580.84667655801
 20
15569.62566412784
 30
0.0
 11
14581.59667655801
 21
15570.37566412784
 31
0.0
  0
LINE
  5
9EA5
330
1F
100
AcDbEntity
  8
freecads.com
100
AcDbLine
 10
14581.59667655801
 20
15570.37566412784
 30
0.0
 11
14581.59667655801
 21
15572.62566412784
 31
0.0
  0
LINE
  5
9EA6
330
1F
100
AcDbEntity
  8
freecads.com
100
AcDbLine
 10
14581.59667655801
 20
15572.62566412784
 30
0.0
 11
14572.59667655802
 21
15581.62566412784
 31
0.0
  0
LINE
  5
9EA7
330
1F
100
AcDbEntity
  8
freecads.com
100
AcDbLine
 10
14572.59667655802
 20
15581.62566412784
 30
0.0
 11
14547.09667655802
 21
15581.62566412784
 31
0.0
  0
LINE
  5
9EA8
330
1F
100
AcDbEntity
  8
freecads.com
100
AcDbLine
 10
14547.09667655802
 20
15581.62566412784
 30
0.0
 11
14538.09667655802
 21
15572.62566412784
 31
0.0
  0
LINE
  5
9EA9
330
1F
100
AcDbEntity
  8
freecads.com
100
AcDbLine
 10
14538.09667655802
 20
15572.62566412784
 30
0.0
 11
14538.09667655802
 21
15570.37566412784
 31
0.0
  0
LINE
  5
9EAA
330
1F
100
AcDbEntity
  8
freecads.com
100
AcDbLine
 10
14538.09667655802
 20
15570.37566412784
 30
0.0
 11
14538.84667655802
 21
15569.62566412784
 31
0.0
  0
LINE
  5
9EAB
330
1F
100
AcDbEntity
  8
freecads.com
100
AcDbLine
 10
14538.84667655802
 20
15569.62566412784
 30
0.0
 11
14580.84667655801
 21
15569.62566412784
 31
0.0
  0
LINE
  5
9EAC
330
1F
100
AcDbEntity
  8
freecads.com
100
AcDbLine
 10
14682.84667655801
 20
15512.55249277173
 30
0.0
 11
14682.84667655801
 21
15722.55249277173
 31
0.0
  0
LINE
  5
9EAD
330
1F
100
AcDbEntity
  8
freecads.com
100
AcDbLine
 10
14682.84667655801
 20
15722.55249277173
 30
0.0
 11
14682.84667655801
 21
16022.55249277172
 31
0.0
  0
LINE
  5
9EAE
330
1F
100
AcDbEntity
  8
freecads.com
100
AcDbLine
 10
14682.84667655801
 20
16022.55249277172
 30
0.0
 11
14673.84667655802
 21
16022.55249277172
 31
0.0
  0
LINE
  5
9EAF
330
1F
100
AcDbEntity
  8
freecads.com
100
AcDbLine
 10
14673.84667655802
 20
16022.55249277172
 30
0.0
 11
14673.84667655801
 21
16001.02749277173
 31
0.0
  0
LINE
  5
9EB0
330
1F
100
AcDbEntity
  8
freecads.com
100
AcDbLine
 10
14673.84667655801
 20
16001.02749277173
 30
0.0
 11
14649.84667655801
 21
16001.02749277173
 31
0.0
  0
LINE
  5
9EB1
330
1F
100
AcDbEntity
  8
freecads.com
100
AcDbLine
 10
14649.84667655801
 20
16001.02749277173
 30
0.0
 11
14649.84667655801
 21
15969.07749277172
 31
0.0
  0
LINE
  5
9EB2
330
1F
100
AcDbEntity
  8
freecads.com
100
AcDbLine
 10
14649.84667655801
 20
15969.07749277172
 30
0.0
 11
14673.84667655801
 21
15969.07749277172
 31
0.0
  0
LINE
  5
9EB3
330
1F
100
AcDbEntity
  8
freecads.com
100
AcDbLine
 10
14673.84667655801
 20
15969.07749277172
 30
0.0
 11
14673.84667655801
 21
15722.55249277173
 31
0.0
  0
LINE
  5
9EB4
330
1F
100
AcDbEntity
  8
freecads.com
100
AcDbLine
 10
14673.84667655801
 20
15722.55249277173
 30
0.0
 11
14673.84667655801
 21
15512.55249277173
 31
0.0
  0
LINE
  5
9EB5
330
1F
100
AcDbEntity
  8
freecads.com
100
AcDbLine
 10
14673.84667655801
 20
15512.55249277173
 30
0.0
 11
14682.84667655801
 21
15512.55249277173
 31
0.0
  0
LINE
  5
9EB6
330
1F
100
AcDbEntity
  8
freecads.com
100
AcDbLine
 10
14625.84667655802
 20
15722.55249277173
 30
0.0
 11
14625.84667655801
 21
15969.07749277172
 31
0.0
  0
LINE
  5
9EB7
330
1F
100
AcDbEntity
  8
freecads.com
100
AcDbLine
 10
14625.84667655801
 20
15969.07749277172
 30
0.0
 11
14630.34667655801
 21
15969.07749277172
 31
0.0
  0
LINE
  5
9EB8
330
1F
100
AcDbEntity
  8
freecads.com
100
AcDbLine
 10
14630.34667655801
 20
15969.07749277172
 30
0.0
 11
14630.34667655801
 21
16001.02749277173
 31
0.0
  0
LINE
  5
9EB9
330
1F
100
AcDbEntity
  8
freecads.com
100
AcDbLine
 10
14630.34667655801
 20
16001.02749277173
 30
0.0
 11
14625.84667655801
 21
16001.02749277173
 31
0.0
  0
LINE
  5
9EBA
330
1F
100
AcDbEntity
  8
freecads.com
100
AcDbLine
 10
14625.84667655801
 20
16001.02749277173
 30
0.0
 11
14625.84667655801
 21
16022.55249277172
 31
0.0
  0
LINE
  5
9EBB
330
1F
100
AcDbEntity
  8
freecads.com
100
AcDbLine
 10
14625.84667655801
 20
16022.55249277172
 30
0.0
 11
14616.84667655801
 21
16022.55249277172
 31
0.0
  0
LINE
  5
9EBC
330
1F
100
AcDbEntity
  8
freecads.com
100
AcDbLine
 10
14616.84667655801
 20
16022.55249277172
 30
0.0
 11
14616.84667655802
 21
15722.55249277173
 31
0.0
  0
LINE
  5
9EBD
330
1F
100
AcDbEntity
  8
freecads.com
100
AcDbLine
 10
14616.84667655802
 20
15722.55249277173
 30
0.0
 11
14616.84667655801
 21
15512.55249277173
 31
0.0
  0
LINE
  5
9EBE
330
1F
100
AcDbEntity
  8
freecads.com
100
AcDbLine
 10
14616.84667655801
 20
15512.55249277173
 30
0.0
 11
14625.84667655801
 21
15512.55249277173
 31
0.0
  0
LINE
  5
9EBF
330
1F
100
AcDbEntity
  8
freecads.com
100
AcDbLine
 10
14625.84667655801
 20
15512.55249277173
 30
0.0
 11
14625.84667655802
 21
15722.55249277173
 31
0.0
  0
LINE
  5
9EC0
330
1F
100
AcDbEntity
  8
freecads.com
100
AcDbLine
 10
14499.09667655802
 20
15640.05249277173
 30
0.0
 11
14473.59667655802
 21
15665.55249277173
 31
0.0
  0
LINE
  5
9EC1
330
1F
100
AcDbEntity
  8
freecads.com
100
AcDbLine
 10
14473.59667655802
 20
15665.55249277173
 30
0.0
 11
14473.59667655802
 21
15770.55249277173
 31
0.0
  0
LINE
  5
9EC2
330
1F
100
AcDbEntity
  8
freecads.com
100
AcDbLine
 10
14473.59667655802
 20
15770.55249277173
 30
0.0
 11
14499.09667655802
 21
15796.05249277173
 31
0.0
  0
LINE
  5
9EC3
330
1F
100
AcDbEntity
  8
freecads.com
100
AcDbLine
 10
14499.09667655802
 20
15796.05249277173
 30
0.0
 11
14499.09667655802
 21
15640.05249277173
 31
0.0
  0
LINE
  5
9EC4
330
1F
100
AcDbEntity
  8
freecads.com
100
AcDbLine
 10
14503.59667655802
 20
15853.05249277173
 30
0.0
 11
14499.09667655802
 21
15853.05249277173
 31
0.0
  0
LINE
  5
9EC5
330
1F
100
AcDbEntity
  8
freecads.com
100
AcDbLine
 10
14499.09667655802
 20
15853.05249277173
 30
0.0
 11
14499.09667655802
 21
15583.05249277173
 31
0.0
  0
LINE
  5
9EC6
330
1F
100
AcDbEntity
  8
freecads.com
100
AcDbLine
 10
14499.09667655802
 20
15583.05249277173
 30
0.0
 11
14503.59667655802
 21
15583.05249277173
 31
0.0
  0
LINE
  5
9EC7
330
1F
100
AcDbEntity
  8
freecads.com
100
AcDbLine
 10
14503.59667655802
 20
15583.05249277173
 30
0.0
 11
14503.59667655802
 21
15853.05249277173
 31
0.0
  0
LINE
  5
9EC8
330
1F
100
AcDbEntity
  8
freecads.com
100
AcDbLine
 10
14616.84667655801
 20
15890.55249277173
 30
0.0
 11
14511.09667655802
 21
15890.55249277173
 31
0.0
  0
ARC
  5
9EC9
330
1F
100
AcDbEntity
  8
freecads.com
100
AcDbCircle
 10
14511.09667655802
 20
15883.05249277173
 30
0.0
 40
7.5
100
AcDbArc
 50
90.0
 51
180.0
  0
LINE
  5
9ECA
330
1F
100
AcDbEntity
  8
freecads.com
100
AcDbLine
 10
14503.59667655802
 20
15883.05249277173
 30
0.0
 11
14503.59667655802
 21
15553.05249277173
 31
0.0
  0
ARC
  5
9ECB
330
1F
100
AcDbEntity
  8
freecads.com
100
AcDbCircle
 10
14511.09667655802
 20
15553.05249277173
 30
0.0
 40
7.5
100
AcDbArc
 50
180.0
 51
270.0
  0
LINE
  5
9ECC
330
1F
100
AcDbEntity
  8
freecads.com
100
AcDbLine
 10
14511.09667655802
 20
15545.55249277173
 30
0.0
 11
14616.84667655801
 21
15545.55249277173
 31
0.0
  0
LINE
  5
9ECD
330
1F
100
AcDbEntity
  8
freecads.com
100
AcDbLine
 10
14616.84667655801
 20
15545.55249277173
 30
0.0
 11
14616.84667655801
 21
15890.55249277173
 31
0.0
  0
LINE
  5
9ECE
330
1F
100
AcDbEntity
  8
freecads.com
100
AcDbLine
 10
14698.59667655802
 20
15712.05249277173
 30
0.0
 11
14698.59667655802
 21
15588.8183208698
 31
0.0
  0
LINE
  5
9ECF
330
1F
100
AcDbEntity
  8
freecads.com
100
AcDbLine
 10
14706.09667655801
 20
15594.30249277173
 30
0.0
 11
14733.09667655802
 21
15594.30249277173
 31
0.0
  0
LINE
  5
9ED0
330
1F
100
AcDbEntity
  8
freecads.com
100
AcDbLine
 10
14733.09667655802
 20
15594.30249277173
 30
0.0
 11
14733.09667655802
 21
15841.80249277173
 31
0.0
  0
LINE
  5
9ED1
330
1F
100
AcDbEntity
  8
freecads.com
100
AcDbLine
 10
14733.09667655802
 20
15841.80249277173
 30
0.0
 11
14706.09667655801
 21
15841.80249277173
 31
0.0
  0
LINE
  5
9ED2
330
1F
100
AcDbEntity
  8
freecads.com
100
AcDbLine
 10
14706.09667655801
 20
15841.80249277173
 30
0.0
 11
14706.09667655801
 21
15594.30249277173
 31
0.0
  0
LINE
  5
9ED3
330
1F
100
AcDbEntity
  8
freecads.com
100
AcDbLine
 10
14698.59667655802
 20
15879.97749277173
 30
0.0
 11
14706.09667655801
 21
15879.97749277173
 31
0.0
  0
LINE
  5
9ED4
330
1F
100
AcDbEntity
  8
freecads.com
100
AcDbLine
 10
14706.09667655801
 20
15879.97749277173
 30
0.0
 11
14706.09667655801
 21
15556.12749277172
 31
0.0
  0
LINE
  5
9ED5
330
1F
100
AcDbEntity
  8
freecads.com
100
AcDbLine
 10
14706.09667655801
 20
15556.12749277172
 30
0.0
 11
14698.59667655802
 21
15556.12749277172
 31
0.0
  0
LINE
  5
9ED6
330
1F
100
AcDbEntity
  8
freecads.com
100
AcDbLine
 10
14698.59667655802
 20
15556.12749277172
 30
0.0
 11
14698.59667655802
 21
15879.97749277173
 31
0.0
  0
LINE
  5
9ED7
330
1F
100
AcDbEntity
  8
freecads.com
100
AcDbLine
 10
14698.59667655802
 20
15879.97749277173
 30
0.0
 11
14698.59667655802
 21
15804.87823532963
 31
0.0
  0
LINE
  5
9ED8
330
1F
100
AcDbEntity
  8
freecads.com
100
AcDbLine
 10
14698.59667655802
 20
15804.87823532963
 30
0.0
 11
14698.59667655802
 21
15886.05249277172
 31
0.0
  0
ARC
  5
9ED9
330
1F
100
AcDbEntity
  8
freecads.com
100
AcDbCircle
 10
14694.09667655801
 20
15886.05249277172
 30
0.0
 40
4.5
100
AcDbArc
 50
0.0
 51
90.0
  0
LINE
  5
9EDA
330
1F
100
AcDbEntity
  8
freecads.com
100
AcDbLine
 10
14694.09667655801
 20
15890.55249277173
 30
0.0
 11
14682.84667655801
 21
15890.55249277173
 31
0.0
  0
LINE
  5
9EDB
330
1F
100
AcDbEntity
  8
freecads.com
100
AcDbLine
 10
14682.84667655801
 20
15890.55249277173
 30
0.0
 11
14682.84667655801
 21
15545.55249277173
 31
0.0
  0
LINE
  5
9EDC
330
1F
100
AcDbEntity
  8
freecads.com
100
AcDbLine
 10
14682.84667655801
 20
15545.55249277173
 30
0.0
 11
14694.09667655801
 21
15545.55249277173
 31
0.0
  0
ARC
  5
9EDD
330
1F
100
AcDbEntity
  8
freecads.com
100
AcDbCircle
 10
14694.09667655801
 20
15550.05249277173
 30
0.0
 40
4.5
100
AcDbArc
 50
270.0
 51
0.0
  0
LINE
  5
9EDE
330
1F
100
AcDbEntity
  8
freecads.com
100
AcDbLine
 10
14698.59667655802
 20
15550.05249277173
 30
0.0
 11
14698.59667655802
 21
15576.8183208698
 31
0.0
  0
LINE
  5
9EDF
330
1F
100
AcDbEntity
  8
freecads.com
100
AcDbLine
 10
14698.59667655802
 20
15576.8183208698
 30
0.0
 11
14698.59667655802
 21
15804.87823532963
 31
0.0
  0
LINE
  5
9EE0
330
1F
100
AcDbEntity
  8
freecads.com
100
AcDbLine
 10
14698.59667655802
 20
15804.87823532963
 30
0.0
 11
14698.59667655802
 21
15879.97749277173
 31
0.0
  0
ARC
  5
9EE1
330
1F
100
AcDbEntity
  8
freecads.com
100
AcDbCircle
 10
14772.44850442163
 20
15994.20054375802
 30
0.0
 40
8.112734020904548
100
AcDbArc
 50
268.5919695494531
 51
313.7506359026486
  0
LINE
  5
9EE2
330
1F
100
AcDbEntity
  8
freecads.com
100
AcDbLine
 10
14778.05863095644
 20
15988.3402593317
 30
0.0
 11
15018.13463841343
 21
15988.34025933171
 31
0.0
  0
ARC
  5
9EE3
330
1F
100
AcDbEntity
  8
freecads.com
100
AcDbCircle
 10
15023.88994467965
 20
15994.57539621263
 30
0.0
 40
8.485309784668189
100
AcDbArc
 50
227.2916256962708
 51
270.3657688515025
  0
LINE
  5
9EE4
330
1F
100
AcDbEntity
  8
freecads.com
100
AcDbLine
 10
15023.94411343274
 20
15986.09025933171
 30
0.0
 11
14772.24915593713
 21
15986.09025933171
 31
0.0
  0
LINE
  5
9EE5
330
1F
100
AcDbEntity
  8
freecads.com
100
AcDbLine
 10
14751.09663468494
 20
15911.09025933171
 30
0.0
 11
14751.09663468494
 21
15923.09025933171
 31
0.0
  0
ARC
  5
9EE6
330
1F
100
AcDbEntity
  8
freecads.com
100
AcDbCircle
 10
14754.09663468494
 20
15923.09025933171
 30
0.0
 40
2.999999999998181
100
AcDbArc
 50
89.99999999996527
 51
179.9999999999305
  0
LINE
  5
9EE7
330
1F
100
AcDbEntity
  8
freecads.com
100
AcDbLine
 10
14754.09663468494
 20
15926.0902593317
 30
0.0
 11
15042.09663468494
 21
15926.09025933171
 31
0.0
  0
ARC
  5
9EE8
330
1F
100
AcDbEntity
  8
freecads.com
100
AcDbCircle
 10
15042.09663468494
 20
15923.09025933171
 30
0.0
 40
3.0
100
AcDbArc
 50
0.0
 51
90.0
  0
LINE
  5
9EE9
330
1F
100
AcDbEntity
  8
freecads.com
100
AcDbLine
 10
15045.09663468494
 20
15923.09025933171
 30
0.0
 11
15045.09663468494
 21
15911.09025933171
 31
0.0
  0
LINE
  5
9EEA
330
1F
100
AcDbEntity
  8
freecads.com
100
AcDbLine
 10
15045.09663468494
 20
15911.09025933171
 30
0.0
 11
14751.09663468494
 21
15911.09025933171
 31
0.0
  0
LINE
  5
9EEB
330
1F
100
AcDbEntity
  8
freecads.com
100
AcDbLine
 10
14751.09663468494
 20
15911.09025933171
 30
0.0
 11
14751.09663468494
 21
15891.59025933171
 31
0.0
  0
ARC
  5
9EEC
330
1F
100
AcDbEntity
  8
freecads.com
100
AcDbCircle
 10
14754.09663468494
 20
15891.59025933171
 30
0.0
 40
3.0
100
AcDbArc
 50
180.0
 51
270.0
  0
LINE
  5
9EED
330
1F
100
AcDbEntity
  8
freecads.com
100
AcDbLine
 10
14754.09663468494
 20
15888.59025933171
 30
0.0
 11
15042.09663468494
 21
15888.59025933171
 31
0.0
  0
ARC
  5
9EEE
330
1F
100
AcDbEntity
  8
freecads.com
100
AcDbCircle
 10
15042.09663468494
 20
15891.59025933171
 30
0.0
 40
3.0
100
AcDbArc
 50
270.0
 51
0.0
  0
LINE
  5
9EEF
330
1F
100
AcDbEntity
  8
freecads.com
100
AcDbLine
 10
15045.09663468494
 20
15891.59025933171
 30
0.0
 11
15045.09663468494
 21
15911.09025933171
 31
0.0
  0
LINE
  5
9EF0
330
1F
100
AcDbEntity
  8
freecads.com
100
AcDbLine
 10
15045.09663468494
 20
15911.09025933171
 30
0.0
 11
14898.09663468494
 21
15911.09025933171
 31
0.0
  0
LINE
  5
9EF1
330
1F
100
AcDbEntity
  8
freecads.com
100
AcDbLine
 10
14898.09663468494
 20
15911.09025933171
 30
0.0
 11
14751.09663468494
 21
15911.09025933171
 31
0.0
  0
LINE
  5
9EF2
330
1F
100
AcDbEntity
  8
freecads.com
100
AcDbLine
 10
15040.9272026996
 20
15888.77616777262
 30
0.0
 11
15036.03119352715
 21
15795.35474752862
 31
0.0
  0
ARC
  5
9EF3
330
1F
100
AcDbEntity
  8
freecads.com
100
AcDbCircle
 10
15031.53736062076
 20
15795.59025933171
 30
0.0
 40
4.500000000001607
100
AcDbArc
 50
269.9999999999769
 51
356.9999999999723
  0
LINE
  5
9EF4
330
1F
100
AcDbEntity
  8
freecads.com
100
AcDbLine
 10
15031.53736062075
 20
15791.09025933171
 30
0.0
 11
14898.09663468494
 21
15791.09025933171
 31
0.0
  0
LINE
  5
9EF5
330
1F
100
AcDbEntity
  8
freecads.com
100
AcDbLine
 10
14898.09663468494
 20
15791.09025933171
 30
0.0
 11
14764.65590874912
 21
15791.09025933171
 31
0.0
  0
ARC
  5
9EF6
330
1F
100
AcDbEntity
  8
freecads.com
100
AcDbCircle
 10
14764.65590874912
 20
15795.59025933171
 30
0.0
 40
4.500000000001818
100
AcDbArc
 50
183.0000000000277
 51
270.0000000000231
  0
LINE
  5
9EF7
330
1F
100
AcDbEntity
  8
freecads.com
100
AcDbLine
 10
14760.16207584272
 20
15795.35474752862
 30
0.0
 11
14755.26606667027
 21
15888.77616777262
 31
0.0
  0
LINE
  5
9EF8
330
1F
100
AcDbEntity
  8
freecads.com
100
AcDbLine
 10
14755.26606667027
 20
15888.77616777262
 30
0.0
 11
15040.9272026996
 21
15888.77616777262
 31
0.0
  0
LINE
  5
9EF9
330
1F
100
AcDbEntity
  8
freecads.com
100
AcDbLine
 10
14755.59663468494
 20
15926.09025933171
 30
0.0
 11
14755.59663468494
 21
15980.09025933171
 31
0.0
  0
ARC
  5
9EFA
330
1F
100
AcDbEntity
  8
freecads.com
100
AcDbCircle
 10
14761.59663468494
 20
15980.09025933171
 30
0.0
 40
6.0
100
AcDbArc
 50
90.0
 51
180.0
  0
LINE
  5
9EFB
330
1F
100
AcDbEntity
  8
freecads.com
100
AcDbLine
 10
14761.59663468494
 20
15986.09025933171
 30
0.0
 11
14772.24915593713
 21
15986.09025933171
 31
0.0
  0
LINE
  5
9EFC
330
1F
100
AcDbEntity
  8
freecads.com
100
AcDbLine
 10
14772.24915593713
 20
15986.09025933171
 30
0.0
 11
15023.94411343274
 21
15986.09025933171
 31
0.0
  0
LINE
  5
9EFD
330
1F
100
AcDbEntity
  8
freecads.com
100
AcDbLine
 10
15023.94411343274
 20
15986.09025933171
 30
0.0
 11
15034.59663468493
 21
15986.09025933171
 31
0.0
  0
ARC
  5
9EFE
330
1F
100
AcDbEntity
  8
freecads.com
100
AcDbCircle
 10
15034.59663468493
 20
15980.09025933171
 30
0.0
 40
6.0
100
AcDbArc
 50
0.0
 51
90.0
  0
LINE
  5
9EFF
330
1F
100
AcDbEntity
  8
freecads.com
100
AcDbLine
 10
15040.59663468494
 20
15980.09025933171
 30
0.0
 11
15040.59663468494
 21
15926.09025933171
 31
0.0
  0
LINE
  5
9F00
330
1F
100
AcDbEntity
  8
freecads.com
100
AcDbLine
 10
15040.59663468494
 20
15926.09025933171
 30
0.0
 11
14755.59663468494
 21
15926.09025933171
 31
0.0
  0
LINE
  5
9F01
330
1F
100
AcDbEntity
  8
freecads.com
100
AcDbLine
 10
14733.09667655802
 20
15714.30249277173
 30
0.0
 11
14733.09667655802
 21
15604.05249277173
 31
0.0
  0
LINE
  5
9F02
330
1F
100
AcDbEntity
  8
freecads.com
100
AcDbLine
 10
14733.09667655802
 20
15604.05249277173
 30
0.0
 11
14916.09667655801
 21
15604.05249277173
 31
0.0
  0
LINE
  5
9F03
330
1F
100
AcDbEntity
  8
freecads.com
100
AcDbLine
 10
14916.09667655801
 20
15604.05249277173
 30
0.0
 11
14916.09667655801
 21
15714.30249277173
 31
0.0
  0
LINE
  5
9F04
330
1F
100
AcDbEntity
  8
freecads.com
100
AcDbLine
 10
14916.09667655801
 20
15714.30249277173
 30
0.0
 11
14733.09667655802
 21
15714.30249277173
 31
0.0
  0
LINE
  5
9F05
330
1F
100
AcDbEntity
  8
freecads.com
100
AcDbLine
 10
14758.23882850984
 20
15832.05249277173
 30
0.0
 11
14733.09667655802
 21
15832.05249277173
 31
0.0
  0
LINE
  5
9F06
330
1F
100
AcDbEntity
  8
freecads.com
100
AcDbLine
 10
14733.09667655802
 20
15832.05249277173
 30
0.0
 11
14733.09667655802
 21
15721.80249277173
 31
0.0
  0
LINE
  5
9F07
330
1F
100
AcDbEntity
  8
freecads.com
100
AcDbLine
 10
14733.09667655802
 20
15721.80249277173
 30
0.0
 11
14916.09667655801
 21
15721.80249277173
 31
0.0
  0
LINE
  5
9F08
330
1F
100
AcDbEntity
  8
freecads.com
100
AcDbLine
 10
14916.09667655801
 20
15721.80249277173
 30
0.0
 11
14916.09667655801
 21
15791.09025933171
 31
0.0
  0
LINE
  5
9F09
330
1F
100
AcDbEntity
  8
freecads.com
100
AcDbLine
 10
14916.09667655801
 20
15791.09025933171
 30
0.0
 11
14764.65590874912
 21
15791.09025933171
 31
0.0
  0
ARC
  5
9F0A
330
1F
100
AcDbEntity
  8
freecads.com
100
AcDbCircle
 10
14764.65590874912
 20
15795.59025933171
 30
0.0
 40
4.500000000001818
100
AcDbArc
 50
183.0000000000277
 51
270.0000000000231
  0
LINE
  5
9F0B
330
1F
100
AcDbEntity
  8
freecads.com
100
AcDbLine
 10
14760.16207584272
 20
15795.35474752862
 30
0.0
 11
14758.23882850984
 21
15832.05249277173
 31
0.0
  0
ENDSEC
  0
SECTION
  2
OBJECTS
  0
DICTIONARY
  5
C
330
0
100
AcDbDictionary
281
     1
  3
ACAD_CIP_PREVIOUS_PRODUCT_INFO
350
1A5
  3
ACAD_COLOR
350
73
  3
ACAD_DETAILVIEWSTYLE
350
1AB
  3
ACAD_GROUP
350
D
  3
ACAD_LAYOUT
350
1A
  3
ACAD_MATERIAL
350
72
  3
ACAD_MLEADERSTYLE
350
D7
  3
ACAD_MLINESTYLE
350
17
  3
ACAD_PLOTSETTINGS
350
19
  3
ACAD_PLOTSTYLENAME
350
E
  3
ACAD_SCALELIST
350
B6
  3
ACAD_SECTIONVIEWSTYLE
350
1A8
  3
ACAD_TABLESTYLE
350
86
  3
ACAD_VISUALSTYLE
350
99
  3
ACDB_RECOMPOSE_DATA
350
9FB3
  3
AcDbVariableDictionary
350
66
  3
AEC_PROPERTY_SET_DEFS
350
2304
  0
DICTIONARY
  5
18E
330
2
100
AcDbDictionary
280
     1
281
     1
  3
ACAD_LAYERSTATES
360
18F
  0
DICTIONARY
  5
E6
330
10
100
AcDbDictionary
280
     1
281
     1
  0
DICTIONARY
  5
15D
330
1F
100
AcDbDictionary
280
     1
281
     1
  3
ACAD_SORTENTS
360
28E
  0
XRECORD
  5
1A5
102
{ACAD_REACTORS
330
C
102
}
330
C
100
AcDbXrecord
280
     1
300
ACD
300
2022
300

  0
DICTIONARY
  5
73
102
{ACAD_REACTORS
330
C
102
}
330
C
100
AcDbDictionary
281
     1
  0
DICTIONARY
  5
1AB
102
{ACAD_REACTORS
330
C
102
}
330
C
100
AcDbDictionary
281
     1
  3
Imperial24
350
1AC
  3
Metric50
350
224
  0
DICTIONARY
  5
D
102
{ACAD_REACTORS
330
C
102
}
330
C
100
AcDbDictionary
281
     1
  0
DICTIONARY
  5
1A
102
{ACAD_REACTORS
330
C
102
}
330
C
100
AcDbDictionary
281
     1
  3
Layout1
350
59
  3
Layout2
350
5E
  3
Model
350
22
  0
DICTIONARY
  5
72
102
{ACAD_REACTORS
330
C
102
}
330
C
100
AcDbDictionary
281
     1
  3
ByBlock
350
97
  3
ByLayer
350
96
  3
Global
350
98
  0
DICTIONARY
  5
D7
102
{ACAD_REACTORS
330
C
102
}
330
C
100
AcDbDictionary
281
     1
  3
Standard
350
D8
  0
DICTIONARY
  5
17
102
{ACAD_REACTORS
330
C
102
}
330
C
100
AcDbDictionary
281
     1
  3
Standard
350
18
  0
DICTIONARY
  5
19
102
{ACAD_REACTORS
330
C
102
}
330
C
100
AcDbDictionary
281
     1
  0
ACDBDICTIONARYWDFLT
  5
E
102
{ACAD_REACTORS
330
C
102
}
330
C
100
AcDbDictionary
281
     1
  3
Normal
350
F
100
AcDbDictionaryWithDefault
340
F
  0
DICTIONARY
  5
B6
102
{ACAD_REACTORS
330
C
102
}
330
C
100
AcDbDictionary
281
     1
  3
*A1
350
67C1
  3
*A2
350
67C2
  3
A0
350
B7
  3
A1
350
124
  3
A2
350
125
  3
A3
350
126
  3
A4
350
127
  3
A5
350
128
  3
A6
350
129
  3
A7
350
12A
  3
A8
350
12B
  3
A9
350
12C
  3
B0
350
12D
  3
B1
350
12E
  3
B2
350
12F
  3
B3
350
130
  3
B4
350
131
  3
B5
350
132
  3
B6
350
133
  3
B7
350
134
  3
B8
350
135
  3
B9
350
136
  3
C0
350
137
  3
C1
350
138
  3
C2
350
139
  3
C3
350
13A
  3
C4
350
13B
  3
C5
350
13C
  3
C6
350
13D
  3
C7
350
13E
  3
C8
350
13F
  3
C9
350
140
  3
D0
350
141
  3
D1
350
142
  3
D2
350
143
  0
DICTIONARY
  5
1A8
102
{ACAD_REACTORS
330
C
102
}
330
C
100
AcDbDictionary
281
     1
  3
Imperial24
350
1AA
  3
Metric50
350
223
  0
DICTIONARY
  5
86
102
{ACAD_REACTORS
330
C
102
}
330
C
100
AcDbDictionary
281
     1
  3
Standard
350
87
  0
DICTIONARY
  5
99
102
{ACAD_REACTORS
330
C
102
}
330
C
100
AcDbDictionary
281
     1
  3
2dWireframe
350
9F
  3
Basic
350
9E
  3
Brighten
350
A5
  3
ColorChange
350
A9
  3
Conceptual
350
A2
  3
Dim
350
A4
  3
EdgeColorOff
350
175
  3
Facepattern
350
A8
  3
Flat
350
9A
  3
FlatWithEdges
350
9B
  3
Gouraud
350
9C
  3
GouraudWithEdges
350
9D
  3
Hidden
350
A1
  3
JitterOff
350
173
  3
Linepattern
350
A7
  3
OverhangOff
350
174
  3
Realistic
350
A3
  3
Shaded
350
182
  3
Shaded with edges
350
181
  3
Shades of Gray
350
17E
  3
Sketchy
350
17F
  3
Thicken
350
A6
  3
Wireframe
350
A0
  3
X-Ray
350
180
  0
XRECORD
  5
9FB3
102
{ACAD_REACTORS
330
C
102
}
330
C
100
AcDbXrecord
280
     1
 90
        1
330
87
  0
DICTIONARY
  5
66
102
{ACAD_REACTORS
330
C
102
}
330
C
100
AcDbDictionary
281
     1
  3
CANNOSCALE
350
F0
  3
CMLEADERSTYLE
350
EF
  3
CTABLESTYLE
350
89
  3
CVIEWDETAILSTYLE
350
1B7
  3
CVIEWSECTIONSTYLE
350
1B8
  3
DIMASSOC
350
67
  3
HIDETEXT
350
6B
  3
LAYEREVAL
350
14D
  3
LAYERNOTIFY
350
14E
  0
DICTIONARY
  5
2304
102
{ACAD_REACTORS
330
C
102
}
330
C
100
AcDbDictionary
281
     1
  0
DICTIONARY
  5
18F
102
{ACAD_REACTORS
330
18E
102
}
330
18E
100
AcDbDictionary
281
     1
  0
SORTENTSTABLE
  5
28E
102
{ACAD_REACTORS
330
15D
102
}
330
15D
100
AcDbSortentsTable
330
1F
331
9B4F
  5
9B50
331
9B50
  5
9B51
331
9B51
  5
9B52
331
9B52
  5
9B53
331
9B53
  5
9B54
331
9B54
  5
9B55
331
9B55
  5
9B56
331
9B56
  5
9B57
331
9B57
  5
9B58
331
9B58
  5
9B59
331
9B59
  5
9B5A
331
9B5A
  5
9B5B
331
9B5B
  5
9B5C
331
9B5C
  5
9B5D
331
9B5D
  5
9B5E
331
9B5E
  5
9B5F
331
9B5F
  5
9B60
331
9B60
  5
9B61
331
9B61
  5
9B62
331
9B62
  5
9B63
331
9B63
  5
9B64
331
9B64
  5
9B65
331
9B65
  5
9B66
331
9B66
  5
9B67
331
9B67
  5
9B68
331
9B68
  5
9B69
331
9B69
  5
9B6A
331
9B6A
  5
9B6B
331
9B6B
  5
9B6D
331
9B6D
  5
9B75
331
9B6E
  5
9B76
331
9B6F
  5
9B77
331
9B70
  5
9B79
331
9B72
  5
9B80
331
9B73
  5
9B81
331
9B74
  5
9B82
331
9B75
  5
9B83
331
9B76
  5
9B84
331
9B77
  5
9B85
331
9B79
  5
9B8F
331
9B7A
  5
9B90
331
9B7B
  5
9B91
331
9B7C
  5
9B92
331
9B7D
  5
9B93
331
9B7E
  5
9B94
331
9B7F
  5
9B95
331
9B80
  5
9B96
331
9B81
  5
9B97
331
9B82
  5
9B98
331
9B83
  5
9B99
331
9B84
  5
9B9A
331
9B85
  5
9B9B
331
9B86
  5
9B9C
331
9B87
  5
9B9D
331
9B89
  5
9BA5
331
9B8B
  5
9BAC
331
9B8C
  5
9BAD
331
9B8E
  5
9BB4
331
9B8F
  5
9BB5
331
9B90
  5
9BB6
331
9B91
  5
9BB7
331
9B92
  5
9BB8
331
9B93
  5
9BB9
331
9B94
  5
9BBA
331
9B95
  5
9BBB
331
9B96
  5
9BBC
331
9B97
  5
9BBD
331
9B98
  5
9BBE
331
9B99
  5
9BBF
331
9B9A
  5
9BC0
331
9B9B
  5
9BC1
331
9B9C
  5
9BC3
331
9B9D
  5
9BC4
331
9B9E
  5
9BC5
331
9BA0
  5
9BC7
331
9BA1
  5
9BC8
331
9BA2
  5
9BC9
331
9BA3
  5
9BCB
331
9BA4
  5
9BCC
331
9BA5
  5
9BCD
331
9BA6
  5
9BCE
331
9BA7
  5
9BCF
331
9BA8
  5
9BD0
331
9BA9
  5
9BD1
331
9BAA
  5
9BD2
331
9BAB
  5
9BD3
331
9BAC
  5
9BD4
331
9BAD
  5
9BD5
331
9BAE
  5
9BD6
331
9BAF
  5
9BD7
331
9BB0
  5
9BD8
331
9BB1
  5
9BD9
331
9BB2
  5
9BDA
331
9BB3
  5
9BDB
331
9BB4
  5
9BDC
331
9BB5
  5
9BDD
331
9BB6
  5
9BDE
331
9BB7
  5
9BDF
331
9BB8
  5
9BE0
331
9BB9
  5
9BE1
331
9BBA
  5
9BE2
331
9BBB
  5
9BE3
331
9BBC
  5
9BE4
331
9BBD
  5
9BE5
331
9BBE
  5
9BE6
331
9BBF
  5
9BE7
331
9BC0
  5
9BE8
331
9BC1
  5
9BE9
331
9BC3
  5
9C09
331
9BC4
  5
9C0A
331
9BC5
  5
9C0B
331
9BC6
  5
9C0C
331
9BC7
  5
9C0D
331
9BC8
  5
9C0E
331
9BC9
  5
9C0F
331
9BCB
  5
9C18
331
9BCC
  5
9C19
331
9BCD
  5
9C1A
331
9BCE
  5
9C1B
331
9BCF
  5
9C1C
331
9BD0
  5
9C1D
331
9BD1
  5
9C1E
331
9BD2
  5
9C1F
331
9BD3
  5
9C20
331
9BD4
  5
9C21
331
9BD5
  5
9C22
331
9BD6
  5
9C23
331
9BD7
  5
9C24
331
9BD8
  5
9C25
331
9BD9
  5
9C26
331
9BDA
  5
9C27
331
9BDB
  5
9C28
331
9BDC
  5
9C29
331
9BDD
  5
9C2A
331
9BDE
  5
9C2B
331
9BDF
  5
9C2C
331
9BE0
  5
9C2D
331
9BE1
  5
9C2E
331
9BE2
  5
9C2F
331
9BE3
  5
9C30
331
9BE4
  5
9C32
331
9BE5
  5
9C33
331
9BE6
  5
9C34
331
9BE7
  5
9C35
331
9BE8
  5
9C36
331
9BE9
  5
9C37
331
9BEA
  5
9C38
331
9BEB
  5
9C39
331
9BEC
  5
9C3A
331
9BED
  5
9C3B
331
9BEE
  5
9C3C
331
9BEF
  5
9C3D
331
9BF0
  5
9C3E
331
9BF1
  5
9C3F
331
9BF2
  5
9C40
331
9BF3
  5
9C41
331
9BF4
  5
9C42
331
9BF6
  5
9C47
331
9BF7
  5
9C48
331
9BF8
  5
9C49
331
9BF9
  5
9C4A
331
9BFA
  5
9C4B
331
9BFB
  5
9C4C
331
9BFC
  5
9C4D
331
9BFD
  5
9C4E
331
9BFE
  5
9C4F
331
9BFF
  5
9C50
331
9C00
  5
9C51
331
9C01
  5
9C52
331
9C02
  5
9C53
331
9C03
  5
9C54
331
9C04
  5
9C55
331
9C05
  5
9C56
331
9C06
  5
9C57
331
9C07
  5
9C58
331
9C08
  5
9C59
331
9C09
  5
9C5A
331
9C0A
  5
9C5B
331
9C0B
  5
9C5C
331
9C0C
  5
9C5D
331
9C0D
  5
9C5E
331
9C0E
  5
9C5F
331
9C0F
  5
9C60
331
9C10
  5
9C61
331
9C11
  5
9C62
331
9C12
  5
9C63
331
9C13
  5
9C64
331
9C14
  5
9C65
331
9C15
  5
9C66
331
9C16
  5
9C67
331
9C17
  5
9C68
331
9C18
  5
9C69
331
9C19
  5
9C6A
331
9C1A
  5
9C6B
331
9C1C
  5
9C6D
331
9C1D
  5
9C6E
331
9C1E
  5
9C6F
331
9C1F
  5
9C70
331
9C20
  5
9C71
331
9C21
  5
9C72
331
9C22
  5
9C73
331
9C23
  5
9C74
331
9C24
  5
9C75
331
9C25
  5
9C76
331
9C26
  5
9C77
331
9C27
  5
9C78
331
9C28
  5
9C79
331
9C29
  5
9C7A
331
9C2A
  5
9C7B
331
9C2B
  5
9C7C
331
9C2C
  5
9C7D
331
9C2D
  5
9C7E
331
9C2E
  5
9C7F
331
9C2F
  5
9C80
331
9C30
  5
9C81
331
9C32
  5
9F02
331
9C33
  5
9F03
331
9C34
  5
9F04
331
9C35
  5
9F05
331
9C36
  5
9F06
331
9C37
  5
9F07
331
9C38
  5
9F08
331
9C39
  5
9F09
331
9C3A
  5
9F0A
331
9C3C
  5
9F0B
331
9C3D
  5
9C82
331
9C3E
  5
9C83
331
9C3F
  5
9C84
331
9C40
  5
9C85
331
9C41
  5
9C86
331
9C42
  5
9C87
331
9C43
  5
9C88
331
9C44
  5
9C89
331
9C45
  5
9C8A
331
9C46
  5
9C8B
331
9C47
  5
9C8C
331
9C48
  5
9C8D
331
9C49
  5
9C8E
331
9C4A
  5
9C8F
331
9C4B
  5
9C90
331
9C4C
  5
9C91
331
9C4D
  5
9C92
331
9C4E
  5
9C93
331
9C4F
  5
9C94
331
9C50
  5
9C95
331
9C51
  5
9C96
331
9C52
  5
9C97
331
9C53
  5
9C98
331
9C54
  5
9C99
331
9C55
  5
9C9A
331
9C56
  5
9C9B
331
9C57
  5
9C9C
331
9C58
  5
9C9D
331
9C59
  5
9C9E
331
9C5A
  5
9C9F
331
9C5B
  5
9CA0
331
9C5C
  5
9CA1
331
9C5D
  5
9CA2
331
9C5E
  5
9CA3
331
9C5F
  5
9CA4
331
9C60
  5
9CA5
331
9C61
  5
9CA6
331
9C62
  5
9CA7
331
9C63
  5
9CA8
331
9C64
  5
9CA9
331
9C65
  5
9CAA
331
9C66
  5
9CAB
331
9C67
  5
9CAC
331
9C68
  5
9CAD
331
9C69
  5
9CAE
331
9C6A
  5
9CAF
331
9C6B
  5
9CB0
331
9C6C
  5
9CB1
331
9C6D
  5
9CB2
331
9C6E
  5
9CB3
331
9C6F
  5
9CB4
331
9C70
  5
9CB5
331
9C71
  5
9CB6
331
9C72
  5
9CB7
331
9C73
  5
9CB8
331
9C74
  5
9CB9
331
9C75
  5
9CBA
331
9C76
  5
9CBB
331
9C77
  5
9CBC
331
9C78
  5
9CBD
331
9C79
  5
9CBE
331
9C7A
  5
9CBF
331
9C7B
  5
9CC0
331
9C7C
  5
9CC1
331
9C7D
  5
9CC2
331
9C7E
  5
9CC3
331
9C7F
  5
9CC4
331
9C81
  5
9CD3
331
9C85
  5
9CFE
331
9C89
  5
9D1D
331
9C8A
  5
9D1F
331
9C8B
  5
9D20
331
9C8C
  5
9D21
331
9C8D
  5
9D22
331
9C8E
  5
9D23
331
9C8F
  5
9D24
331
9C90
  5
9D27
331
9C97
  5
9D54
331
9C9B
  5
9D71
331
9C9C
  5
9D72
331
9C9D
  5
9D73
331
9C9E
  5
9D74
331
9CA8
  5
9D9F
331
9CAD
  5
9DB6
331
9CAE
  5
9DB7
331
9CAF
  5
9DB8
331
9CB0
  5
9DB9
331
9CB1
  5
9DBA
331
9CB2
  5
9DBB
331
9CB3
  5
9DBC
331
9CB4
  5
9DBD
331
9CB6
  5
9DC4
331
9CB7
  5
9DC5
331
9CB8
  5
9DC6
331
9CB9
  5
9DC7
331
9CBA
  5
9DC8
331
9CBC
  5
9DCF
331
9CBD
  5
9DD0
331
9CBE
  5
9DD1
331
9CBF
  5
9DD2
331
9CC0
  5
9DD3
331
9CC5
  5
9DE1
331
9CC6
  5
9DE2
331
9CC9
  5
9DEB
331
9CCA
  5
9DEC
331
9CCB
  5
9DED
331
9CCC
  5
9DEE
331
9CCD
  5
9DEF
331
9CD2
  5
9DFC
331
9CD4
  5
9E0B
331
9CD5
  5
9E0C
331
9CD6
  5
9E0D
331
9CD8
  5
9E1E
331
9CDA
  5
9E21
331
9CDB
  5
9E22
331
9CDC
  5
9E23
331
9CDD
  5
9E24
331
9CDE
  5
9E25
331
9CDF
  5
9E26
331
9CE2
  5
9E3B
331
9CE3
  5
9E3C
331
9CE4
  5
9E3D
331
9CE5
  5
9E3E
331
9CE8
  5
9E4D
331
9CE9
  5
9E4E
331
9CEB
  5
9E57
331
9CEC
  5
9E58
331
9CEE
  5
9E5F
331
9CEF
  5
9E60
331
9CF0
  5
9E61
331
9CF1
  5
9E62
331
9CF2
  5
9E63
331
9CF3
  5
9E64
331
9CF6
  5
9E6B
331
9CFA
  5
9E7C
331
9CFB
  5
9E7D
331
9CFC
  5
9E7E
331
9CFE
  5
9E85
331
9CFF
  5
9E86
331
9D00
  5
9E87
331
9D01
  5
9E88
331
9D05
  5
9E95
331
9D06
  5
9E96
331
9D07
  5
9E97
331
9D08
  5
9E98
331
9D0B
  5
9EBD
331
9D0C
  5
9EBE
331
9D0D
  5
9EBF
331
9D0E
  5
9EC0
331
9D0F
  5
9EC1
331
9D11
  5
9EC6
331
9D12
  5
9EC7
331
9D13
  5
9EC8
331
9D14
  5
9EC9
331
9D15
  5
9ECA
331
9D16
  5
9ECB
331
9D17
  5
9ECC
331
9D18
  5
9ECD
331
9D19
  5
9ECE
331
9D1A
  5
9ECF
331
9D1B
  5
9ED0
331
9D1C
  5
9ED1
331
9D1D
  5
9ED2
331
9D1E
  5
9ED3
331
9D1F
  5
9ED4
331
9D21
  5
9ED9
331
9D22
  5
9EDA
331
9D23
  5
9EDB
331
9D25
  5
9EE0
331
9D26
  5
9EE1
331
9D27
  5
9EE2
331
9D29
  5
9EE7
331
9D2A
  5
9EE8
331
9D2B
  5
9EE9
331
9D2C
  5
9EEA
331
9D2D
  5
9EEB
331
9D2E
  5
9EEC
331
9D2F
  5
9EED
331
9D30
  5
9EEE
331
9D31
  5
9EEF
331
9D32
  5
9EF0
331
9D34
  5
9EF5
331
9D35
  5
9EF6
331
9D36
  5
9EF7
331
9D37
  5
9EF8
331
9D38
  5
9EF9
331
9D39
  5
9EFA
331
9D3A
  5
9EFB
331
9D3C
  5
9F00
331
9D3D
  5
9F01
331
9D3E
  5
9C43
331
9D3F
  5
9C44
331
9D40
  5
9C45
331
9D41
  5
9C46
331
9D42
  5
9C10
331
9D43
  5
9C11
331
9D44
  5
9C12
331
9D45
  5
9C13
331
9D46
  5
9C14
331
9D47
  5
9C15
331
9D48
  5
9C16
331
9D49
  5
9C17
331
9D4A
  5
9BEA
331
9D4B
  5
9BEB
331
9D4C
  5
9BEC
331
9D4D
  5
9BED
331
9D4E
  5
9BEE
331
9D4F
  5
9BEF
331
9D50
  5
9BF0
331
9D51
  5
9BF1
331
9D52
  5
9BF2
331
9D53
  5
9BF3
331
9D54
  5
9BF4
331
9D55
  5
9BF6
331
9D56
  5
9BF7
331
9D57
  5
9BF8
331
9D58
  5
9BF9
331
9D59
  5
9BFA
331
9D5A
  5
9BFB
331
9D5B
  5
9BFC
331
9D5C
  5
9BFD
331
9D5D
  5
9BFE
331
9D5E
  5
9BFF
331
9D5F
  5
9C00
331
9D60
  5
9C01
331
9D61
  5
9C02
331
9D62
  5
9C03
331
9D63
  5
9C04
331
9D64
  5
9C05
331
9D65
  5
9C06
331
9D66
  5
9C07
331
9D67
  5
9C08
331
9D69
  5
9BAE
331
9D6A
  5
9BAF
331
9D6B
  5
9BB0
331
9D6C
  5
9BB1
331
9D6D
  5
9BB2
331
9D6E
  5
9BB3
331
9D6F
  5
9BA6
331
9D70
  5
9BA7
331
9D71
  5
9BA8
331
9D72
  5
9BA9
331
9D73
  5
9BAA
331
9D74
  5
9BAB
331
9D75
  5
9B9E
331
9D76
  5
9BA0
331
9D77
  5
9BA1
331
9D78
  5
9BA2
331
9D79
  5
9BA3
331
9D7A
  5
9BA4
331
9D7B
  5
9B86
331
9D7C
  5
9B87
331
9D7D
  5
9B89
331
9D7E
  5
9B8B
331
9D7F
  5
9B8C
331
9D80
  5
9B8E
331
9D81
  5
9B7A
331
9D82
  5
9B7B
331
9D83
  5
9B7C
331
9D84
  5
9B7D
331
9D85
  5
9B7E
331
9D86
  5
9B7F
331
9D87
  5
9B6E
331
9D88
  5
9B6F
331
9D89
  5
9B70
331
9D8A
  5
9B72
331
9D8B
  5
9B73
331
9D8C
  5
9B74
331
9D8E
  5
9EFC
331
9D8F
  5
9EFD
331
9D90
  5
9EFE
331
9D91
  5
9EFF
331
9D92
  5
9EF1
331
9D93
  5
9EF2
331
9D94
  5
9EF3
331
9D95
  5
9EF4
331
9D96
  5
9EE3
331
9D97
  5
9EE4
331
9D98
  5
9EE5
331
9D99
  5
9EE6
331
9D9A
  5
9EDC
331
9D9B
  5
9EDD
331
9D9C
  5
9EDE
331
9D9D
  5
9EDF
331
9D9E
  5
9ED5
331
9D9F
  5
9ED6
331
9DA0
  5
9ED7
331
9DA1
  5
9ED8
331
9DA2
  5
9EC2
331
9DA3
  5
9EC3
331
9DA4
  5
9EC4
331
9DA5
  5
9EC5
331
9DA6
  5
9EB9
331
9DA7
  5
9EBA
331
9DA8
  5
9EBB
331
9DA9
  5
9EBC
331
9DAA
  5
9E99
331
9DAB
  5
9E9A
331
9DAC
  5
9E9B
331
9DAD
  5
9E9C
331
9DAE
  5
9E9D
331
9DAF
  5
9E9E
331
9DB0
  5
9E9F
331
9DB1
  5
9EA0
331
9DB2
  5
9EA1
331
9DB3
  5
9EA2
331
9DB4
  5
9EA3
331
9DB5
  5
9EA4
331
9DB6
  5
9EA5
331
9DB7
  5
9EA6
331
9DB8
  5
9EA7
331
9DB9
  5
9EA8
331
9DBA
  5
9EA9
331
9DBB
  5
9EAA
331
9DBC
  5
9EAB
331
9DBD
  5
9EAC
331
9DBE
  5
9EAD
331
9DBF
  5
9EAE
331
9DC0
  5
9EAF
331
9DC1
  5
9EB0
331
9DC2
  5
9EB1
331
9DC3
  5
9EB2
331
9DC4
  5
9EB3
331
9DC5
  5
9EB4
331
9DC6
  5
9EB5
331
9DC7
  5
9EB6
331
9DC8
  5
9EB7
331
9DC9
  5
9EB8
331
9DCA
  5
9E91
331
9DCB
  5
9E92
331
9DCC
  5
9E93
331
9DCD
  5
9E94
331
9DCE
  5
9E8D
331
9DCF
  5
9E8E
331
9DD0
  5
9E8F
331
9DD1
  5
9E90
331
9DD2
  5
9E89
331
9DD3
  5
9E8A
331
9DD4
  5
9E8B
331
9DD5
  5
9E8C
331
9DD6
  5
9E7F
331
9DD7
  5
9E80
331
9DD8
  5
9E81
331
9DD9
  5
9E82
331
9DDA
  5
9E83
331
9DDB
  5
9E84
331
9DDC
  5
9E74
331
9DDD
  5
9E75
331
9DDE
  5
9E76
331
9DDF
  5
9E77
331
9DE0
  5
9E78
331
9DE1
  5
9E79
331
9DE2
  5
9E7A
331
9DE3
  5
9E7B
331
9DE4
  5
9E71
331
9DE5
  5
9E72
331
9DE6
  5
9E73
331
9DE7
  5
9E6C
331
9DE8
  5
9E6D
331
9DE9
  5
9E6E
331
9DEA
  5
9E6F
331
9DEB
  5
9E70
331
9DEC
  5
9E66
331
9DED
  5
9E67
331
9DEE
  5
9E68
331
9DEF
  5
9E69
331
9DF0
  5
9E6A
331
9DF1
  5
9E65
331
9DF2
  5
9E59
331
9DF3
  5
9E5A
331
9DF4
  5
9E5B
331
9DF5
  5
9E5C
331
9DF6
  5
9E5D
331
9DF7
  5
9E5E
331
9DF8
  5
9E4F
331
9DF9
  5
9E50
331
9DFA
  5
9E51
331
9DFB
  5
9E52
331
9DFC
  5
9E53
331
9DFD
  5
9E54
331
9DFE
  5
9E55
331
9DFF
  5
9E56
331
9E00
  5
9E47
331
9E01
  5
9E48
331
9E02
  5
9E49
331
9E03
  5
9E4A
331
9E04
  5
9E4B
331
9E05
  5
9E4C
331
9E06
  5
9E3F
331
9E07
  5
9E40
331
9E08
  5
9E41
331
9E09
  5
9E42
331
9E0A
  5
9E43
331
9E0B
  5
9E44
331
9E0C
  5
9E45
331
9E0D
  5
9E46
331
9E0E
  5
9E31
331
9E0F
  5
9E32
331
9E10
  5
9E33
331
9E11
  5
9E34
331
9E12
  5
9E35
331
9E13
  5
9E36
331
9E14
  5
9E37
331
9E15
  5
9E38
331
9E16
  5
9E39
331
9E17
  5
9E3A
331
9E18
  5
9E27
331
9E19
  5
9E28
331
9E1A
  5
9E29
331
9E1B
  5
9E2A
331
9E1C
  5
9E2B
331
9E1D
  5
9E2C
331
9E1E
  5
9E2D
331
9E1F
  5
9E2E
331
9E20
  5
9E2F
331
9E21
  5
9E30
331
9E22
  5
9E1F
331
9E23
  5
9E20
331
9E24
  5
9E0E
331
9E25
  5
9E0F
331
9E26
  5
9E10
331
9E27
  5
9E11
331
9E28
  5
9E12
331
9E29
  5
9E13
331
9E2A
  5
9E14
331
9E2B
  5
9E15
331
9E2C
  5
9E16
331
9E2D
  5
9E17
331
9E2E
  5
9E18
331
9E2F
  5
9E19
331
9E30
  5
9E1A
331
9E31
  5
9E1B
331
9E32
  5
9E1C
331
9E33
  5
9E1D
331
9E34
  5
9DFD
331
9E35
  5
9DFE
331
9E36
  5
9DFF
331
9E37
  5
9E00
331
9E38
  5
9E01
331
9E39
  5
9E02
331
9E3A
  5
9E03
331
9E3B
  5
9E04
331
9E3C
  5
9E05
331
9E3D
  5
9E06
331
9E3E
  5
9E07
331
9E3F
  5
9E08
331
9E40
  5
9E09
331
9E42
  5
9DFB
331
9E43
  5
9DF6
331
9E44
  5
9DF7
331
9E45
  5
9DF8
331
9E46
  5
9DF9
331
9E47
  5
9DFA
331
9E48
  5
9DF1
331
9E49
  5
9DF2
331
9E4A
  5
9DF3
331
9E4B
  5
9DF4
331
9E4C
  5
9DF5
331
9E4D
  5
9DF0
331
9E4E
  5
9DE7
331
9E4F
  5
9DE8
331
9E50
  5
9DE9
331
9E51
  5
9DEA
331
9E52
  5
9DE3
331
9E53
  5
9DE4
331
9E54
  5
9DE5
331
9E55
  5
9DE6
331
9E56
  5
9DDE
331
9E57
  5
9DDF
331
9E58
  5
9DE0
331
9E59
  5
9DDA
331
9E5A
  5
9DDB
331
9E5B
  5
9DDC
331
9E5C
  5
9DDD
331
9E5D
  5
9DD7
331
9E5E
  5
9DD8
331
9E5F
  5
9DD9
331
9E60
  5
9DD4
331
9E61
  5
9DD5
331
9E62
  5
9DD6
331
9E63
  5
9DC9
331
9E64
  5
9DCA
331
9E65
  5
9DCB
331
9E66
  5
9DCC
331
9E67
  5
9DCD
331
9E68
  5
9DCE
331
9E69
  5
9DBE
331
9E6A
  5
9DBF
331
9E6B
  5
9DC0
331
9E6C
  5
9DC1
331
9E6D
  5
9DC2
331
9E6E
  5
9DC3
331
9E6F
  5
9DAE
331
9E70
  5
9DAF
331
9E71
  5
9DB0
331
9E72
  5
9DB1
331
9E73
  5
9DB2
331
9E74
  5
9DB3
331
9E75
  5
9DB4
331
9E76
  5
9DB5
331
9E77
  5
9DA6
331
9E78
  5
9DA7
331
9E79
  5
9DA8
331
9E7A
  5
9DA9
331
9E7B
  5
9DAA
331
9E7C
  5
9DAB
331
9E7D
  5
9DAC
331
9E7E
  5
9DAD
331
9E7F
  5
9DA2
331
9E80
  5
9DA3
331
9E81
  5
9DA4
331
9E82
  5
9DA5
331
9E83
  5
9DA0
331
9E84
  5
9DA1
331
9E85
  5
9D9B
331
9E86
  5
9D9C
331
9E87
  5
9D9D
331
9E88
  5
9D9E
331
9E89
  5
9D92
331
9E8A
  5
9D93
331
9E8B
  5
9D94
331
9E8C
  5
9D95
331
9E8D
  5
9D96
331
9E8E
  5
9D97
331
9E8F
  5
9D98
331
9E90
  5
9D99
331
9E91
  5
9D9A
331
9E92
  5
9D8A
331
9E93
  5
9D8B
331
9E94
  5
9D8D
331
9E95
  5
9D8E
331
9E96
  5
9D8F
331
9E97
  5
9D90
331
9E98
  5
9D91
331
9E99
  5
9D89
331
9E9A
  5
9D86
331
9E9B
  5
9D87
331
9E9C
  5
9D88
331
9E9D
  5
9D83
331
9E9E
  5
9D84
331
9E9F
  5
9D85
331
9EA0
  5
9D82
331
9EA1
  5
9D7E
331
9EA2
  5
9D7F
331
9EA3
  5
9D81
331
9EA4
  5
9D75
331
9EA5
  5
9D76
331
9EA6
  5
9D77
331
9EA7
  5
9D79
331
9EA8
  5
9D7A
331
9EA9
  5
9D7B
331
9EAA
  5
9D7C
331
9EAB
  5
9D7D
331
9EAC
  5
9D64
331
9EAD
  5
9D66
331
9EAE
  5
9D67
331
9EAF
  5
9D68
331
9EB0
  5
9D6A
331
9EB1
  5
9D6B
331
9EB2
  5
9D6C
331
9EB3
  5
9D6E
331
9EB4
  5
9D6F
331
9EB5
  5
9D70
331
9EB6
  5
9D5A
331
9EB7
  5
9D5B
331
9EB8
  5
9D5C
331
9EB9
  5
9D5D
331
9EBA
  5
9D5E
331
9EBB
  5
9D5F
331
9EBC
  5
9D60
331
9EBD
  5
9D61
331
9EBE
  5
9D62
331
9EBF
  5
9D63
331
9EC0
  5
9D56
331
9EC1
  5
9D57
331
9EC2
  5
9D58
331
9EC3
  5
9D59
331
9EC4
  5
9D50
331
9EC5
  5
9D51
331
9EC6
  5
9D52
331
9EC7
  5
9D53
331
9EC8
  5
9D45
331
9EC9
  5
9D46
331
9ECA
  5
9D4A
331
9ECB
  5
9D4B
331
9ECC
  5
9D4C
331
9ECD
  5
9D4D
331
9ECE
  5
9D44
331
9ECF
  5
9D3F
331
9ED0
  5
9D40
331
9ED1
  5
9D41
331
9ED2
  5
9D43
331
9ED3
  5
9D36
331
9ED4
  5
9D37
331
9ED5
  5
9D38
331
9ED6
  5
9D3B
331
9ED7
  5
9D28
331
9ED8
  5
9D29
331
9ED9
  5
9D2A
331
9EDA
  5
9D2D
331
9EDB
  5
9D2E
331
9EDC
  5
9D30
331
9EDD
  5
9D31
331
9EDE
  5
9D33
331
9EDF
  5
9D34
331
9EE0
  5
9D35
331
9EE1
  5
9D17
331
9EE2
  5
9D19
331
9EE3
  5
9D1A
331
9EE4
  5
9D1B
331
9EE5
  5
9D0B
331
9EE6
  5
9D0E
331
9EE7
  5
9D0F
331
9EE8
  5
9D10
331
9EE9
  5
9D11
331
9EEA
  5
9D12
331
9EEB
  5
9CFF
331
9EEC
  5
9D01
331
9EED
  5
9D02
331
9EEE
  5
9D03
331
9EEF
  5
9D04
331
9EF0
  5
9D05
331
9EF1
  5
9D0A
331
9EF2
  5
9CF6
331
9EF3
  5
9CF7
331
9EF4
  5
9CF8
331
9EF5
  5
9CF9
331
9EF6
  5
9CFB
331
9EF7
  5
9CFC
331
9EF8
  5
9CFD
331
9EF9
  5
9CE1
331
9EFA
  5
9CE2
331
9EFB
  5
9CE3
331
9EFC
  5
9CED
331
9EFD
  5
9CF2
331
9EFE
  5
9CF3
331
9EFF
  5
9CF4
331
9F00
  5
9CF5
331
9F01
  5
9CD4
331
9F02
  5
9CD5
331
9F03
  5
9CDC
331
9F04
  5
9CE0
331
9F05
  5
9CC6
331
9F06
  5
9CCA
331
9F07
  5
9CCE
331
9F08
  5
9CCF
331
9F09
  5
9CD0
331
9F0A
  5
9CD1
331
9F0B
  5
9CD2
  0
ACDBDETAILVIEWSTYLE
  5
1AC
102
{ACAD_REACTORS
330
1AB
102
}
330
1AB
100
AcDbModelDocViewStyle
 70
     0
  3
Imperial24
290
     0
300
Imperial24
 90
        0
100
AcDbDetailViewStyle
 70
     0
 71
     0
 90
        3
 71
     1
340
11
 62
   256
 40
0.24
340
0
 62
   256
 40
0.24
300

 40
0.36
280
     3
 71
     2
340
16
 90
       25
 62
   256
 71
     3
340
11
 62
   256
 40
0.24
 90
        1
 40
0.75
 90
        1
300
%<\AcVar ViewType \f "%tc1">% %<\AcVar ViewDetailId>%\PSCALE %<\AcVar ViewScale \f "%sn">%
 71
     4
340
16
 90
       25
 62
   256
340
16
 90
       25
 62
   256
280
     0
  0
ACDBDETAILVIEWSTYLE
  5
224
102
{ACAD_REACTORS
330
1AB
102
}
330
1AB
100
AcDbModelDocViewStyle
 70
     0
  3
Metric50
290
     0
300
Metric50
 90
        0
100
AcDbDetailViewStyle
 70
     0
 71
     0
 90
        3
 71
     1
340
11
 62
   256
 40
5.0
340
0
 62
   256
 40
5.0
300

 40
0.0
280
     1
 71
     2
340
16
 90
       25
 62
   256
 71
     3
340
11
 62
   256
 40
5.0
 90
        0
 40
15.0
 90
        1
300
%<\AcVar ViewDetailId>% (%<\AcVar ViewScale \f "%sn">%)
 71
     4
340
16
 90
       25
 62
   256
340
16
 90
       25
 62
   256
280
     0
  0
LAYOUT
  5
59
102
{ACAD_REACTORS
330
1A
102
}
330
1A
100
AcDbPlotSettings
  1

  2
None
  4

  6

 40
0.0
 41
0.0
 42
0.0
 43
0.0
 44
0.0
 45
0.0
 46
0.0
 47
0.0
 48
0.0
 49
0.0
140
0.0
141
0.0
142
1.0
143
1.0
 70
   688
 72
     0
 73
     0
 74
     5
  7

 75
    16
147
1.0
 76
     0
 77
     2
 78
   300
148
0.0
149
0.0
100
AcDbLayout
  1
Layout1
 70
     1
 71
     1
 10
0.0
 20
0.0
 11
12.0
 21
9.0
 12
0.0
 22
0.0
 32
0.0
 14
0.0
 24
0.0
 34
0.0
 15
0.0
 25
0.0
 35
0.0
146
0.0
 13
0.0
 23
0.0
 33
0.0
 16
1.0
 26
0.0
 36
0.0
 17
0.0
 27
1.0
 37
0.0
 76
     0
330
58
  0
LAYOUT
  5
5E
102
{ACAD_REACTORS
330
1A
102
}
330
1A
100
AcDbPlotSettings
  1

  2
None
  4

  6

 40
0.0
 41
0.0
 42
0.0
 43
0.0
 44
0.0
 45
0.0
 46
0.0
 47
0.0
 48
0.0
 49
0.0
140
0.0
141
0.0
142
1.0
143
1.0
 70
   688
 72
     0
 73
     0
 74
     5
  7

 75
    16
147
1.0
 76
     0
 77
     2
 78
   300
148
0.0
149
0.0
100
AcDbLayout
  1
Layout2
 70
     1
 71
     2
 10
0.0
 20
0.0
 11
12.0
 21
9.0
 12
0.0
 22
0.0
 32
0.0
 14
0.0
 24
0.0
 34
0.0
 15
0.0
 25
0.0
 35
0.0
146
0.0
 13
0.0
 23
0.0
 33
0.0
 16
1.0
 26
0.0
 36
0.0
 17
0.0
 27
1.0
 37
0.0
 76
     0
330
5D
  0
LAYOUT
  5
22
102
{ACAD_XDICTIONARY
360
194
102
}
102
{ACAD_REACTORS
330
1A
102
}
330
1A
100
AcDbPlotSettings
  1

  2
none_device
  4
ANSI_A_(8.50_x_11.00_Inches)
  6

 40
6.349999904632568
 41
19.04999923706055
 42
6.350006103515625
 43
19.04998779296875
 44
215.8999938964844
 45
279.3999938964844
 46
0.0
 47
0.0
 48
0.0
 49
0.0
140
0.0
141
0.0
142
1.0
143
2.584895464708373
 70
 11952
 72
     0
 73
     1
 74
     0
  7

 75
     0
147
0.3868628397755418
 76
     0
 77
     2
 78
   300
148
0.0
149
0.0
100
AcDbLayout
  1
Model
 70
     1
 71
     0
 10
0.0
 20
0.0
 11
12.0
 21
9.0
 12
0.0
 22
0.0
 32
0.0
 14
0.0
 24
0.0
 34
0.0
 15
0.0
 25
0.0
 35
0.0
146
0.0
 13
0.0
 23
0.0
 33
0.0
 16
1.0
 26
0.0
 36
0.0
 17
0.0
 27
1.0
 37
0.0
 76
     0
330
1F
331
94
  0
MATERIAL
  5
97
102
{ACAD_XDICTIONARY
360
188
102
}
102
{ACAD_REACTORS
330
72
102
}
330
72
100
AcDbMaterial
  1
ByBlock
 94
       63
  0
MATERIAL
  5
96
102
{ACAD_XDICTIONARY
360
186
102
}
102
{ACAD_REACTORS
330
72
102
}
330
72
100
AcDbMaterial
  1
ByLayer
 94
       63
  0
MATERIAL
  5
98
102
{ACAD_XDICTIONARY
360
110
102
}
102
{ACAD_REACTORS
330
72
102
}
330
72
100
AcDbMaterial
  1
Global
 43
0.0208000000566244
 43
0.0
 43
0.0
 43
0.0
 43
0.0
 43
0.0208000000566244
 43
0.0
 43
0.0
 43
0.0
 43
0.0
 43
1.0
 43
0.0
 43
0.0
 43
0.0
 43
0.0
 43
1.0
 49
0.0208000000566244
 49
0.0
 49
0.0
 49
0.0
 49
0.0
 49
0.0208000000566244
 49
0.0
 49
0.0
 49
0.0
 49
0.0
 49
1.0
 49
0.0
 49
0.0
 49
0.0
 49
0.0
 49
1.0
142
0.0208000000566244
142
0.0
142
0.0
142
0.0
142
0.0
142
0.0208000000566244
142
0.0
142
0.0
142
0.0
142
0.0
142
1.0
142
0.0
142
0.0
142
0.0
142
0.0
142
1.0
144
0.0208000000566244
144
0.0
144
0.0
144
0.0
144
0.0
144
0.0208000000566244
144
0.0
144
0.0
144
0.0
144
0.0
144
1.0
144
0.0
144
0.0
144
0.0
144
0.0
144
1.0
 94
       63
1001
ACAD
1070
    -1
1070
     3
1070
     0
1000

1071
        0
1070
     0
  0
MLEADERSTYLE
  5
D8
102
{ACAD_REACTORS
330
D7
102
}
330
D7
100
AcDbMLeaderStyle
179
     2
170
     2
171
     1
172
     0
 90
        2
 40
0.0
 41
0.0
173
     1
 91
-1056964608
340
14
 92
       -2
290
     1
 42
0.09
291
     1
 43
0.36
  3
Standard
 44
0.18
300

342
11
174
     1
178
     1
175
     1
176
     0
 93
-1056964608
 45
0.18
292
     0
297
     0
 46
0.18
 94
-1056964608
 47
1.0
 49
1.0
140
1.0
293
     1
141
0.0
294
     1
177
     0
142
1.0
295
     0
296
     0
143
0.125
271
     0
272
     9
273
     9
298
     0
  0
MLINESTYLE
  5
18
102
{ACAD_REACTORS
330
17
102
}
330
17
100
AcDbMlineStyle
  2
STANDARD
 70
     0
  3

 62
   256
 51
90.0
 52
90.0
 71
     2
 49
0.5
 62
   256
  6
BYLAYER
 49
-0.5
 62
   256
  6
BYLAYER
  0
ACDBPLACEHOLDER
  5
F
102
{ACAD_REACTORS
330
E
102
}
330
E
  0
SCALE
  5
67C1
102
{ACAD_REACTORS
330
B6
102
}
330
B6
100
AcDbScale
 70
     0
300
1:100_1
140
1.0
141
0.1
290
     0
  0
SCALE
  5
67C2
102
{ACAD_REACTORS
330
B6
102
}
330
B6
100
AcDbScale
 70
     0
300
1:1000
140
1.0
141
1.0
290
     0
  0
SCALE
  5
B7
102
{ACAD_REACTORS
330
B6
102
}
330
B6
100
AcDbScale
 70
     0
300
1:1
140
1.0
141
1.0
290
     1
  0
SCALE
  5
124
102
{ACAD_REACTORS
330
B6
102
}
330
B6
100
AcDbScale
 70
     0
300
1:2
140
1.0
141
2.0
290
     0
  0
SCALE
  5
125
102
{ACAD_REACTORS
330
B6
102
}
330
B6
100
AcDbScale
 70
     0
300
1:4
140
1.0
141
4.0
290
     0
  0
SCALE
  5
126
102
{ACAD_REACTORS
330
B6
102
}
330
B6
100
AcDbScale
 70
     0
300
1:5
140
1.0
141
5.0
290
     0
  0
SCALE
  5
127
102
{ACAD_REACTORS
330
B6
102
}
330
B6
100
AcDbScale
 70
     0
300
1:8
140
1.0
141
8.0
290
     0
  0
SCALE
  5
128
102
{ACAD_REACTORS
330
B6
102
}
330
B6
100
AcDbScale
 70
     0
300
1:10
140
1.0
141
10.0
290
     0
  0
SCALE
  5
129
102
{ACAD_REACTORS
330
B6
102
}
330
B6
100
AcDbScale
 70
     0
300
1:16
140
1.0
141
16.0
290
     0
  0
SCALE
  5
12A
102
{ACAD_REACTORS
330
B6
102
}
330
B6
100
AcDbScale
 70
     0
300
1:20
140
1.0
141
20.0
290
     0
  0
SCALE
  5
12B
102
{ACAD_REACTORS
330
B6
102
}
330
B6
100
AcDbScale
 70
     0
300
1:30
140
1.0
141
30.0
290
     0
  0
SCALE
  5
12C
102
{ACAD_REACTORS
330
B6
102
}
330
B6
100
AcDbScale
 70
     0
300
1:40
140
1.0
141
40.0
290
     0
  0
SCALE
  5
12D
102
{ACAD_REACTORS
330
B6
102
}
330
B6
100
AcDbScale
 70
     0
300
1:50
140
1.0
141
50.0
290
     0
  0
SCALE
  5
12E
102
{ACAD_REACTORS
330
B6
102
}
330
B6
100
AcDbScale
 70
     0
300
1:100
140
1.0
141
100.0
290
     0
  0
SCALE
  5
12F
102
{ACAD_REACTORS
330
B6
102
}
330
B6
100
AcDbScale
 70
     0
300
2:1
140
2.0
141
1.0
290
     0
  0
SCALE
  5
130
102
{ACAD_REACTORS
330
B6
102
}
330
B6
100
AcDbScale
 70
     0
300
4:1
140
4.0
141
1.0
290
     0
  0
SCALE
  5
131
102
{ACAD_REACTORS
330
B6
102
}
330
B6
100
AcDbScale
 70
     0
300
8:1
140
8.0
141
1.0
290
     0
  0
SCALE
  5
132
102
{ACAD_REACTORS
330
B6
102
}
330
B6
100
AcDbScale
 70
     0
300
10:1
140
10.0
141
1.0
290
     0
  0
SCALE
  5
133
102
{ACAD_REACTORS
330
B6
102
}
330
B6
100
AcDbScale
 70
     0
300
100:1
140
100.0
141
1.0
290
     0
  0
SCALE
  5
134
102
{ACAD_REACTORS
330
B6
102
}
330
B6
100
AcDbScale
 70
     0
300
1/128" = 1'-0"
140
0.0078125
141
12.0
290
     0
  0
SCALE
  5
135
102
{ACAD_REACTORS
330
B6
102
}
330
B6
100
AcDbScale
 70
     0
300
1/64" = 1'-0"
140
0.015625
141
12.0
290
     0
  0
SCALE
  5
136
102
{ACAD_REACTORS
330
B6
102
}
330
B6
100
AcDbScale
 70
     0
300
1/32" = 1'-0"
140
0.03125
141
12.0
290
     0
  0
SCALE
  5
137
102
{ACAD_REACTORS
330
B6
102
}
330
B6
100
AcDbScale
 70
     0
300
1/16" = 1'-0"
140
0.0625
141
12.0
290
     0
  0
SCALE
  5
138
102
{ACAD_REACTORS
330
B6
102
}
330
B6
100
AcDbScale
 70
     0
300
3/32" = 1'-0"
140
0.09375
141
12.0
290
     0
  0
SCALE
  5
139
102
{ACAD_REACTORS
330
B6
102
}
330
B6
100
AcDbScale
 70
     0
300
1/8" = 1'-0"
140
0.125
141
12.0
290
     0
  0
SCALE
  5
13A
102
{ACAD_REACTORS
330
B6
102
}
330
B6
100
AcDbScale
 70
     0
300
3/16" = 1'-0"
140
0.1875
141
12.0
290
     0
  0
SCALE
  5
13B
102
{ACAD_REACTORS
330
B6
102
}
330
B6
100
AcDbScale
 70
     0
300
1/4" = 1'-0"
140
0.25
141
12.0
290
     0
  0
SCALE
  5
13C
102
{ACAD_REACTORS
330
B6
102
}
330
B6
100
AcDbScale
 70
     0
300
3/8" = 1'-0"
140
0.375
141
12.0
290
     0
  0
SCALE
  5
13D
102
{ACAD_REACTORS
330
B6
102
}
330
B6
100
AcDbScale
 70
     0
300
1/2" = 1'-0"
140
0.5
141
12.0
290
     0
  0
SCALE
  5
13E
102
{ACAD_REACTORS
330
B6
102
}
330
B6
100
AcDbScale
 70
     0
300
3/4" = 1'-0"
140
0.75
141
12.0
290
     0
  0
SCALE
  5
13F
102
{ACAD_REACTORS
330
B6
102
}
330
B6
100
AcDbScale
 70
     0
300
1" = 1'-0"
140
1.0
141
12.0
290
     0
  0
SCALE
  5
140
102
{ACAD_REACTORS
330
B6
102
}
330
B6
100
AcDbScale
 70
     0
300
1-1/2" = 1'-0"
140
1.5
141
12.0
290
     0
  0
SCALE
  5
141
102
{ACAD_REACTORS
330
B6
102
}
330
B6
100
AcDbScale
 70
     0
300
3" = 1'-0"
140
3.0
141
12.0
290
     0
  0
SCALE
  5
142
102
{ACAD_REACTORS
330
B6
102
}
330
B6
100
AcDbScale
 70
     0
300
6" = 1'-0"
140
6.0
141
12.0
290
     0
  0
SCALE
  5
143
102
{ACAD_REACTORS
330
B6
102
}
330
B6
100
AcDbScale
 70
     0
300
1'-0" = 1'-0"
140
12.0
141
12.0
290
     0
  0
ACDBSECTIONVIEWSTYLE
  5
1AA
102
{ACAD_REACTORS
330
1A8
102
}
330
1A8
100
AcDbModelDocViewStyle
 70
     0
  3
Imperial24
290
     0
300
Imperial24
 90
        0
100
AcDbSectionViewStyle
 70
     0
 71
     0
 90
       78
 71
     1
340
11
 62
   256
 40
0.24
340
0
340
0
 62
   256
 40
0.24
300
I, O, Q, S, X, Z
 40
0.48
 90
        3
 40
0.18
 90
        1
 71
     2
340
16
 90
       25
 62
   256
340
16
 90
       50
 62
   256
 40
0.24
 40
0.0
 40
0.24
 71
     3
340
11
 62
   256
 40
0.24
 90
        1
 40
0.75
 90
        1
300
%<\AcVar ViewType \f "%tc1">% %<\AcVar ViewSectionStartId>%-%<\AcVar ViewSectionEndId>%\PSCALE %<\AcVar ViewScale \f "%sn">%
 71
     4
 62
   256
 62
   257
300
ANSI31
 40
1.0
 90
        0
290
     0
290
     0
 90
        6
 40
0.0
 40
1.570796326794896
 40
0.2617993877991494
 40
1.308996938995747
 40
-0.2617993877991494
 40
1.832595714594046
  0
ACDBSECTIONVIEWSTYLE
  5
223
102
{ACAD_REACTORS
330
1A8
102
}
330
1A8
100
AcDbModelDocViewStyle
 70
     0
  3
Metric50
290
     0
300
Metric50
 90
        0
100
AcDbSectionViewStyle
 70
     0
 71
     0
 90
      102
 71
     1
340
11
 62
   256
 40
5.0
340
0
340
0
 62
   256
 40
5.0
300
I, O, Q, S, X, Z
 40
10.0
 90
        0
 40
2.5
 90
        0
 71
     2
340
16
 90
       25
 62
   256
340
16
 90
       50
 62
   256
 40
5.0
 40
2.5
 40
5.0
 71
     3
340
11
 62
   256
 40
5.0
 90
        0
 40
15.0
 90
        1
300
%<\AcVar ViewSectionStartId>%-%<\AcVar ViewSectionEndId>% (%<\AcVar ViewScale \f "%sn">%)
 71
     4
 62
   256
 62
   257
300
ANSI31
 40
1.0
 90
        0
290
     0
290
     0
 90
        6
 40
0.0
 40
1.570796326794896
 40
0.2617993877991494
 40
1.308996938995747
 40
-0.2617993877991494
 40
1.832595714594046
  0
TABLESTYLE
  5
87
102
{ACAD_XDICTIONARY
360
104
102
}
102
{ACAD_REACTORS
330
86
102
}
330
86
100
AcDbTableStyle
280
     0
  3
Standard
 70
     0
 71
     0
 40
0.06
 41
0.06
280
     0
281
     0
  7
Standard
140
0.18
170
     2
 62
     0
 63
     7
283
     0
 90
      512
 91
        0
  1

274
    -2
284
     1
 64
     0
275
    -2
285
     1
 65
     0
276
    -2
286
     1
 66
     0
277
    -2
287
     1
 67
     0
278
    -2
288
     1
 68
     0
279
    -2
289
     1
 69
     0
  7
Standard
140
0.25
170
     5
 62
     0
 63
     7
283
     0
 90
      512
 91
        0
  1

274
    -2
284
     1
 64
     0
275
    -2
285
     1
 65
     0
276
    -2
286
     1
 66
     0
277
    -2
287
     1
 67
     0
278
    -2
288
     1
 68
     0
279
    -2
289
     1
 69
     0
  7
Standard
140
0.18
170
     5
 62
     0
 63
     7
283
     0
 90
      512
 91
        0
  1

274
    -2
284
     1
 64
     0
275
    -2
285
     1
 65
     0
276
    -2
286
     1
 66
     0
277
    -2
287
     1
 67
     0
278
    -2
288
     1
 68
     0
279
    -2
289
     1
 69
     0
  0
VISUALSTYLE
  5
9F
102
{ACAD_REACTORS
330
99
102
}
330
99
100
AcDbVisualStyle
  2
2dWireframe
 70
     4
177
     3
291
     0
 70
    58
 90
        0
176
     1
 90
        2
176
     1
 90
        1
176
     1
 90
        0
176
     1
 40
0.6
176
     1
 40
30.0
176
     1
 62
     7
420
 16777215
176
     1
 90
        1
176
     1
 90
        4
176
     1
 62
     7
176
     1
 62
   257
176
     1
 90
        1
176
     1
 90
        1
176
     1
 40
1.0
176
     1
 90
        0
176
     1
 62
   257
176
     1
 40
1.0
176
     1
 90
        1
176
     1
 90
        6
176
     1
 90
        2
176
     1
 62
     7
176
     1
 90
        5
176
     1
 90
        0
176
     1
 90
        0
176
     1
290
     0
176
     1
 90
        1
176
     1
 40
0.0
176
     1
 90
        0
176
     1
290
     1
176
     1
290
     1
176
     1
290
     0
176
     1
290
     0
176
     1
290
     0
176
     1
290
     0
176
     1
290
     0
176
     1
290
     0
176
     1
290
     0
176
     1
 90
       50
176
     1
 40
0.0
176
     1
 40
1.0
176
     1
 90
        0
176
     1
 62
    18
420
        0
176
     1
 90
       50
176
     1
 90
        3
176
     1
 62
     5
420
      255
176
     1
290
     0
176
     1
 90
       50
176
     1
 90
       50
176
     1
 90
       50
176
     1
290
     0
176
     1
 90
       50
176
     1
 62
   256
176
     0
 40
1.0
176
     0
 90
        2
176
     1
  1
strokes_ogs.tif
176
     1
290
     0
176
     1
 40
1.0
176
     1
 40
1.0
176
     1
  0
VISUALSTYLE
  5
9E
102
{ACAD_REACTORS
330
99
102
}
330
99
100
AcDbVisualStyle
  2
Basic
 70
     7
177
     3
291
     1
 70
    58
 90
        1
176
     1
 90
        0
176
     1
 90
        1
176
     1
 90
        0
176
     1
 40
0.6
176
     1
 40
30.0
176
     1
 62
     7
420
 16777215
176
     1
 90
        0
176
     1
 90
        4
176
     1
 62
     7
176
     1
 62
   257
176
     1
 90
        1
176
     1
 90
        1
176
     1
 40
1.0
176
     1
 90
        8
176
     1
 62
     7
176
     1
 40
1.0
176
     1
 90
        1
176
     1
 90
        6
176
     1
 90
        2
176
     1
 62
     7
176
     1
 90
        5
176
     1
 90
        0
176
     1
 90
        0
176
     1
290
     0
176
     1
 90
        1
176
     1
 40
0.0
176
     1
 90
        0
176
     1
290
     0
176
     1
290
     1
176
     1
290
     1
176
     1
290
     0
176
     1
290
     0
176
     1
290
     0
176
     1
290
     0
176
     1
290
     0
176
     1
290
     0
176
     1
 90
       50
176
     1
 40
0.0
176
     1
 40
1.0
176
     1
 90
        0
176
     1
 62
    18
420
        0
176
     1
 90
       50
176
     1
 90
        3
176
     1
 62
     5
420
      255
176
     1
290
     0
176
     1
 90
       50
176
     1
 90
       50
176
     1
 90
       50
176
     1
290
     0
176
     1
 90
       50
176
     1
 62
   256
176
     0
 40
1.0
176
     0
 90
        2
176
     1
  1
strokes_ogs.tif
176
     1
290
     0
176
     1
 40
1.0
176
     1
 40
1.0
176
     1
  0
VISUALSTYLE
  5
A5
102
{ACAD_REACTORS
330
99
102
}
330
99
100
AcDbVisualStyle
  2
Brighten
 70
    12
177
     3
291
     1
 70
    58
 90
        2
176
     1
 90
        2
176
     1
 90
        1
176
     1
 90
        0
176
     1
 40
0.6
176
     1
 40
30.0
176
     1
 62
     7
420
 16777215
176
     1
 90
        1
176
     1
 90
        4
176
     1
 62
     7
176
     1
 62
   257
176
     1
 90
        1
176
     1
 90
        1
176
     1
 40
1.0
176
     1
 90
        8
176
     1
 62
     7
176
     1
 40
1.0
176
     1
 90
        1
176
     1
 90
        6
176
     1
 90
        2
176
     1
 62
     7
176
     1
 90
        5
176
     1
 90
        0
176
     1
 90
        0
176
     1
290
     0
176
     1
 90
        1
176
     1
 40
50.0
176
     1
 90
        0
176
     1
290
     0
176
     1
290
     1
176
     1
290
     1
176
     1
290
     0
176
     1
290
     0
176
     1
290
     0
176
     1
290
     0
176
     1
290
     0
176
     1
290
     0
176
     1
 90
       50
176
     1
 40
0.0
176
     1
 40
1.0
176
     1
 90
        0
176
     1
 62
    18
420
        0
176
     1
 90
       50
176
     1
 90
        3
176
     1
 62
     5
420
      255
176
     1
290
     0
176
     1
 90
       50
176
     1
 90
       50
176
     1
 90
       50
176
     1
290
     0
176
     1
 90
       50
176
     1
 62
   256
176
     0
 40
1.0
176
     0
 90
        2
176
     1
  1
strokes_ogs.tif
176
     1
290
     0
176
     1
 40
1.0
176
     1
 40
1.0
176
     1
  0
VISUALSTYLE
  5
A9
102
{ACAD_REACTORS
330
99
102
}
330
99
100
AcDbVisualStyle
  2
ColorChange
 70
    16
177
     3
291
     1
 70
    58
 90
        2
176
     1
 90
        2
176
     1
 90
        3
176
     1
 90
        0
176
     1
 40
0.6
176
     1
 40
30.0
176
     1
 62
     8
420
  8421504
176
     1
 90
        1
176
     1
 90
        4
176
     1
 62
     7
176
     1
 62
   257
176
     1
 90
        1
176
     1
 90
        1
176
     1
 40
1.0
176
     1
 90
        8
176
     1
 62
     8
420
  8421504
176
     1
 40
1.0
176
     1
 90
        1
176
     1
 90
        6
176
     1
 90
        2
176
     1
 62
     7
176
     1
 90
        5
176
     1
 90
        0
176
     1
 90
        0
176
     1
290
     0
176
     1
 90
        1
176
     1
 40
0.0
176
     1
 90
        0
176
     1
290
     0
176
     1
290
     1
176
     1
290
     1
176
     1
290
     0
176
     1
290
     0
176
     1
290
     0
176
     1
290
     0
176
     1
290
     0
176
     1
290
     0
176
     1
 90
       50
176
     1
 40
0.0
176
     1
 40
1.0
176
     1
 90
        0
176
     1
 62
    18
420
        0
176
     1
 90
       50
176
     1
 90
        3
176
     1
 62
     5
420
      255
176
     1
290
     0
176
     1
 90
       50
176
     1
 90
       50
176
     1
 90
       50
176
     1
290
     0
176
     1
 90
       50
176
     1
 62
   256
176
     0
 40
1.0
176
     0
 90
        2
176
     1
  1
strokes_ogs.tif
176
     1
290
     0
176
     1
 40
1.0
176
     1
 40
1.0
176
     1
  0
VISUALSTYLE
  5
A2
102
{ACAD_REACTORS
330
99
102
}
330
99
100
AcDbVisualStyle
  2
Conceptual
 70
     9
177
     3
291
     0
 70
    58
 90
        3
176
     1
 90
        2
176
     1
 90
        1
176
     1
 90
        0
176
     1
 40
0.6
176
     1
 40
30.0
176
     1
 62
     7
420
 16777215
176
     1
 90
        2
176
     1
 90
        2
176
     1
 62
     7
176
     1
 62
   257
176
     1
 90
        1
176
     1
 90
        1
176
     1
 40
40.0
176
     1
 90
        8
176
     1
 62
     7
176
     1
 40
1.0
176
     1
 90
        1
176
     1
 90
        6
176
     1
 90
        2
176
     1
 62
     7
176
     1
 90
        3
176
     1
 90
        0
176
     1
 90
        0
176
     1
290
     0
176
     1
 90
        1
176
     1
 40
0.0
176
     1
 90
        0
176
     1
290
     0
176
     1
290
     1
176
     1
290
     1
176
     1
290
     0
176
     1
290
     0
176
     1
290
     0
176
     1
290
     0
176
     1
290
     0
176
     1
290
     0
176
     1
 90
       50
176
     1
 40
0.0
176
     1
 40
1.0
176
     1
 90
        0
176
     1
 62
    18
420
        0
176
     1
 90
       50
176
     1
 90
        3
176
     1
 62
     5
420
      255
176
     1
290
     0
176
     1
 90
       50
176
     1
 90
       50
176
     1
 90
       50
176
     1
290
     0
176
     1
 90
       50
176
     1
 62
   256
176
     0
 40
1.0
176
     0
 90
        2
176
     1
  1
strokes_ogs.tif
176
     1
290
     0
176
     1
 40
1.0
176
     1
 40
1.0
176
     1
  0
VISUALSTYLE
  5
A4
102
{ACAD_REACTORS
330
99
102
}
330
99
100
AcDbVisualStyle
  2
Dim
 70
    11
177
     3
291
     1
 70
    58
 90
        2
176
     1
 90
        2
176
     1
 90
        1
176
     1
 90
        0
176
     1
 40
0.6
176
     1
 40
30.0
176
     1
 62
     7
420
 16777215
176
     1
 90
        1
176
     1
 90
        4
176
     1
 62
     7
176
     1
 62
   257
176
     1
 90
        1
176
     1
 90
        1
176
     1
 40
1.0
176
     1
 90
        8
176
     1
 62
     7
176
     1
 40
1.0
176
     1
 90
        1
176
     1
 90
        6
176
     1
 90
        2
176
     1
 62
     7
176
     1
 90
        5
176
     1
 90
        0
176
     1
 90
        0
176
     1
290
     0
176
     1
 90
        1
176
     1
 40
-50.0
176
     1
 90
        0
176
     1
290
     0
176
     1
290
     1
176
     1
290
     1
176
     1
290
     0
176
     1
290
     0
176
     1
290
     0
176
     1
290
     0
176
     1
290
     0
176
     1
290
     0
176
     1
 90
       50
176
     1
 40
0.0
176
     1
 40
1.0
176
     1
 90
        0
176
     1
 62
    18
420
        0
176
     1
 90
       50
176
     1
 90
        3
176
     1
 62
     5
420
      255
176
     1
290
     0
176
     1
 90
       50
176
     1
 90
       50
176
     1
 90
       50
176
     1
290
     0
176
     1
 90
       50
176
     1
 62
   256
176
     0
 40
1.0
176
     0
 90
        2
176
     1
  1
strokes_ogs.tif
176
     1
290
     0
176
     1
 40
1.0
176
     1
 40
1.0
176
     1
  0
VISUALSTYLE
  5
175
102
{ACAD_REACTORS
330
99
102
}
330
99
100
AcDbVisualStyle
  2
EdgeColorOff
 70
    22
177
     3
291
     1
 70
    58
 90
        2
176
     0
 90
        2
176
     0
 90
        0
176
     0
 90
        0
176
     0
 40
0.6
176
     0
 40
30.0
176
     0
 62
     7
420
 16777215
176
     0
 90
        1
176
     0
 90
        4
176
     0
 62
     7
176
     0
 62
   257
176
     0
 90
        1
176
     0
 90
        1
176
     0
 40
1.0
176
     0
 90
        8
176
     2
 62
     7
176
     0
 40
1.0
176
     0
 90
        1
176
     0
 90
        6
176
     0
 90
        2
176
     0
 62
     7
176
     0
 90
        5
176
     0
 90
        0
176
     0
 90
        0
176
     0
290
     0
176
     0
 90
        1
176
     0
 40
0.0
176
     0
 90
        0
176
     0
290
     0
176
     1
290
     1
176
     1
290
     1
176
     1
290
     0
176
     1
290
     0
176
     1
290
     0
176
     1
290
     0
176
     1
290
     0
176
     1
290
     0
176
     1
 90
       50
176
     1
 40
0.0
176
     1
 40
1.0
176
     1
 90
        0
176
     1
 62
    18
420
        0
176
     1
 90
       50
176
     1
 90
        3
176
     1
 62
     5
420
      255
176
     1
290
     0
176
     1
 90
       50
176
     1
 90
       50
176
     1
 90
       50
176
     1
290
     0
176
     1
 90
       50
176
     1
 62
   256
176
     0
 40
1.0
176
     0
 90
        2
176
     1
  1
strokes_ogs.tif
176
     1
290
     0
176
     1
 40
1.0
176
     1
 40
1.0
176
     1
  0
VISUALSTYLE
  5
A8
102
{ACAD_REACTORS
330
99
102
}
330
99
100
AcDbVisualStyle
  2
Facepattern
 70
    15
177
     3
291
     1
 70
    58
 90
        2
176
     1
 90
        2
176
     1
 90
        1
176
     1
 90
        0
176
     1
 40
0.6
176
     1
 40
30.0
176
     1
 62
     7
420
 16777215
176
     1
 90
        1
176
     1
 90
        4
176
     1
 62
     7
176
     1
 62
   257
176
     1
 90
        1
176
     1
 90
        1
176
     1
 40
1.0
176
     1
 90
        8
176
     1
 62
     7
176
     1
 40
1.0
176
     1
 90
        1
176
     1
 90
        6
176
     1
 90
        2
176
     1
 62
     7
176
     1
 90
        5
176
     1
 90
        0
176
     1
 90
        0
176
     1
290
     0
176
     1
 90
        1
176
     1
 40
0.0
176
     1
 90
        0
176
     1
290
     0
176
     1
290
     1
176
     1
290
     1
176
     1
290
     0
176
     1
290
     0
176
     1
290
     0
176
     1
290
     0
176
     1
290
     0
176
     1
290
     0
176
     1
 90
       50
176
     1
 40
0.0
176
     1
 40
1.0
176
     1
 90
        0
176
     1
 62
    18
420
        0
176
     1
 90
       50
176
     1
 90
        3
176
     1
 62
     5
420
      255
176
     1
290
     0
176
     1
 90
       50
176
     1
 90
       50
176
     1
 90
       50
176
     1
290
     0
176
     1
 90
       50
176
     1
 62
   256
176
     0
 40
1.0
176
     0
 90
        2
176
     1
  1
strokes_ogs.tif
176
     1
290
     0
176
     1
 40
1.0
176
     1
 40
1.0
176
     1
  0
VISUALSTYLE
  5
9A
102
{ACAD_REACTORS
330
99
102
}
330
99
100
AcDbVisualStyle
  2
Flat
 70
     0
177
     3
291
     1
 70
    58
 90
        2
176
     1
 90
        1
176
     1
 90
        1
176
     1
 90
        2
176
     1
 40
0.6
176
     1
 40
30.0
176
     1
 62
     7
420
 16777215
176
     1
 90
        0
176
     1
 90
        0
176
     1
 62
     7
176
     1
 62
   257
176
     1
 90
        1
176
     1
 90
        1
176
     1
 40
1.0
176
     1
 90
        8
176
     1
 62
     7
176
     1
 40
1.0
176
     1
 90
        1
176
     1
 90
        6
176
     1
 90
        2
176
     1
 62
     7
176
     1
 90
        5
176
     1
 90
        0
176
     1
 90
        0
176
     1
290
     0
176
     1
 90
       13
176
     1
 40
0.0
176
     1
 90
        0
176
     1
290
     0
176
     1
290
     1
176
     1
290
     1
176
     1
290
     0
176
     1
290
     0
176
     1
290
     0
176
     1
290
     0
176
     1
290
     0
176
     1
290
     0
176
     1
 90
       50
176
     1
 40
0.0
176
     1
 40
1.0
176
     1
 90
        0
176
     1
 62
    18
420
        0
176
     1
 90
       50
176
     1
 90
        3
176
     1
 62
     5
420
      255
176
     1
290
     0
176
     1
 90
       50
176
     1
 90
       50
176
     1
 90
       50
176
     1
290
     0
176
     1
 90
       50
176
     1
 62
   256
176
     0
 40
1.0
176
     0
 90
        2
176
     1
  1
strokes_ogs.tif
176
     1
290
     0
176
     1
 40
1.0
176
     1
 40
1.0
176
     1
  0
VISUALSTYLE
  5
9B
102
{ACAD_REACTORS
330
99
102
}
330
99
100
AcDbVisualStyle
  2
FlatWithEdges
 70
     1
177
     3
291
     1
 70
    58
 90
        2
176
     1
 90
        1
176
     1
 90
        1
176
     1
 90
        2
176
     1
 40
0.6
176
     1
 40
30.0
176
     1
 62
     7
420
 16777215
176
     1
 90
        1
176
     1
 90
        0
176
     1
 62
     7
176
     1
 62
   257
176
     1
 90
        1
176
     1
 90
        1
176
     1
 40
1.0
176
     1
 90
        0
176
     1
 62
   257
176
     1
 40
1.0
176
     1
 90
        1
176
     1
 90
        6
176
     1
 90
        2
176
     1
 62
     7
176
     1
 90
        5
176
     1
 90
        0
176
     1
 90
        0
176
     1
290
     0
176
     1
 90
       13
176
     1
 40
0.0
176
     1
 90
        0
176
     1
290
     0
176
     1
290
     1
176
     1
290
     1
176
     1
290
     0
176
     1
290
     0
176
     1
290
     0
176
     1
290
     0
176
     1
290
     0
176
     1
290
     0
176
     1
 90
       50
176
     1
 40
0.0
176
     1
 40
1.0
176
     1
 90
        0
176
     1
 62
    18
420
        0
176
     1
 90
       50
176
     1
 90
        3
176
     1
 62
     5
420
      255
176
     1
290
     0
176
     1
 90
       50
176
     1
 90
       50
176
     1
 90
       50
176
     1
290
     0
176
     1
 90
       50
176
     1
 62
   256
176
     0
 40
1.0
176
     0
 90
        2
176
     1
  1
strokes_ogs.tif
176
     1
290
     0
176
     1
 40
1.0
176
     1
 40
1.0
176
     1
  0
VISUALSTYLE
  5
9C
102
{ACAD_REACTORS
330
99
102
}
330
99
100
AcDbVisualStyle
  2
Gouraud
 70
     2
177
     3
291
     1
 70
    58
 90
        2
176
     1
 90
        2
176
     1
 90
        1
176
     1
 90
        2
176
     1
 40
0.6
176
     1
 40
30.0
176
     1
 62
     7
420
 16777215
176
     1
 90
        0
176
     1
 90
        0
176
     1
 62
     7
176
     1
 62
   257
176
     1
 90
        1
176
     1
 90
        1
176
     1
 40
1.0
176
     1
 90
        0
176
     1
 62
     7
176
     1
 40
1.0
176
     1
 90
        1
176
     1
 90
        6
176
     1
 90
        2
176
     1
 62
     7
176
     1
 90
        5
176
     1
 90
        0
176
     1
 90
        0
176
     1
290
     0
176
     1
 90
       13
176
     1
 40
0.0
176
     1
 90
        0
176
     1
290
     0
176
     1
290
     1
176
     1
290
     1
176
     1
290
     0
176
     1
290
     0
176
     1
290
     0
176
     1
290
     0
176
     1
290
     0
176
     1
290
     0
176
     1
 90
       50
176
     1
 40
0.0
176
     1
 40
1.0
176
     1
 90
        0
176
     1
 62
    18
420
        0
176
     1
 90
       50
176
     1
 90
        3
176
     1
 62
     5
420
      255
176
     1
290
     0
176
     1
 90
       50
176
     1
 90
       50
176
     1
 90
       50
176
     1
290
     0
176
     1
 90
       50
176
     1
 62
   256
176
     0
 40
1.0
176
     0
 90
        2
176
     1
  1
strokes_ogs.tif
176
     1
290
     0
176
     1
 40
1.0
176
     1
 40
1.0
176
     1
  0
VISUALSTYLE
  5
9D
102
{ACAD_REACTORS
330
99
102
}
330
99
100
AcDbVisualStyle
  2
GouraudWithEdges
 70
     3
177
     3
291
     1
 70
    58
 90
        2
176
     1
 90
        2
176
     1
 90
        1
176
     1
 90
        2
176
     1
 40
0.6
176
     1
 40
30.0
176
     1
 62
     7
420
 16777215
176
     1
 90
        1
176
     1
 90
        0
176
     1
 62
     7
176
     1
 62
   257
176
     1
 90
        1
176
     1
 90
        1
176
     1
 40
1.0
176
     1
 90
        0
176
     1
 62
   257
176
     1
 40
1.0
176
     1
 90
        1
176
     1
 90
        6
176
     1
 90
        2
176
     1
 62
     7
176
     1
 90
        5
176
     1
 90
        0
176
     1
 90
        0
176
     1
290
     0
176
     1
 90
       13
176
     1
 40
0.0
176
     1
 90
        0
176
     1
290
     0
176
     1
290
     1
176
     1
290
     1
176
     1
290
     0
176
     1
290
     0
176
     1
290
     0
176
     1
290
     0
176
     1
290
     0
176
     1
290
     0
176
     1
 90
       50
176
     1
 40
0.0
176
     1
 40
1.0
176
     1
 90
        0
176
     1
 62
    18
420
        0
176
     1
 90
       50
176
     1
 90
        3
176
     1
 62
     5
420
      255
176
     1
290
     0
176
     1
 90
       50
176
     1
 90
       50
176
     1
 90
       50
176
     1
290
     0
176
     1
 90
       50
176
     1
 62
   256
176
     0
 40
1.0
176
     0
 90
        2
176
     1
  1
strokes_ogs.tif
176
     1
290
     0
176
     1
 40
1.0
176
     1
 40
1.0
176
     1
  0
VISUALSTYLE
  5
A1
102
{ACAD_REACTORS
330
99
102
}
330
99
100
AcDbVisualStyle
  2
Hidden
 70
     6
177
     3
291
     0
 70
    58
 90
        1
176
     1
 90
        2
176
     1
 90
        2
176
     1
 90
        0
176
     1
 40
0.6
176
     1
 40
30.0
176
     1
 62
     7
420
 16777215
176
     1
 90
        2
176
     1
 90
        2
176
     1
 62
     7
176
     1
 62
   257
176
     1
 90
        2
176
     1
 90
        1
176
     1
 40
40.0
176
     1
 90
        0
176
     1
 62
   257
176
     1
 40
1.0
176
     1
 90
        1
176
     1
 90
        6
176
     1
 90
        2
176
     1
 62
     7
176
     1
 90
        3
176
     1
 90
        0
176
     1
 90
        0
176
     1
290
     0
176
     1
 90
        1
176
     1
 40
0.0
176
     1
 90
        0
176
     1
290
     0
176
     1
290
     1
176
     1
290
     1
176
     1
290
     0
176
     1
290
     0
176
     1
290
     0
176
     1
290
     0
176
     1
290
     0
176
     1
290
     0
176
     1
 90
       50
176
     1
 40
0.0
176
     1
 40
1.0
176
     1
 90
        0
176
     1
 62
    18
420
        0
176
     1
 90
       50
176
     1
 90
        3
176
     1
 62
     5
420
      255
176
     1
290
     0
176
     1
 90
       50
176
     1
 90
       50
176
     1
 90
       50
176
     1
290
     0
176
     1
 90
       50
176
     1
 62
   256
176
     0
 40
1.0
176
     0
 90
        2
176
     1
  1
strokes_ogs.tif
176
     1
290
     0
176
     1
 40
1.0
176
     1
 40
1.0
176
     1
  0
VISUALSTYLE
  5
173
102
{ACAD_REACTORS
330
99
102
}
330
99
100
AcDbVisualStyle
  2
JitterOff
 70
    20
177
     3
291
     1
 70
    58
 90
        2
176
     0
 90
        2
176
     0
 90
        0
176
     0
 90
        0
176
     0
 40
0.6
176
     0
 40
30.0
176
     0
 62
     7
420
 16777215
176
     0
 90
        1
176
     0
 90
        4
176
     0
 62
     7
176
     0
 62
   257
176
     0
 90
        1
176
     0
 90
        1
176
     0
 40
1.0
176
     0
 90
       10
176
     2
 62
     7
176
     0
 40
1.0
176
     0
 90
        1
176
     0
 90
        6
176
     0
 90
        2
176
     0
 62
     7
176
     0
 90
        5
176
     0
 90
        0
176
     0
 90
        0
176
     0
290
     0
176
     0
 90
        1
176
     0
 40
0.0
176
     0
 90
        0
176
     0
290
     0
176
     1
290
     1
176
     1
290
     1
176
     1
290
     0
176
     1
290
     0
176
     1
290
     0
176
     1
290
     0
176
     1
290
     0
176
     1
290
     0
176
     1
 90
       50
176
     1
 40
0.0
176
     1
 40
1.0
176
     1
 90
        0
176
     1
 62
    18
420
        0
176
     1
 90
       50
176
     1
 90
        3
176
     1
 62
     5
420
      255
176
     1
290
     0
176
     1
 90
       50
176
     1
 90
       50
176
     1
 90
       50
176
     1
290
     0
176
     1
 90
       50
176
     1
 62
   256
176
     0
 40
1.0
176
     0
 90
        2
176
     1
  1
strokes_ogs.tif
176
     1
290
     0
176
     1
 40
1.0
176
     1
 40
1.0
176
     1
  0
VISUALSTYLE
  5
A7
102
{ACAD_REACTORS
330
99
102
}
330
99
100
AcDbVisualStyle
  2
Linepattern
 70
    14
177
     3
291
     1
 70
    58
 90
        2
176
     1
 90
        2
176
     1
 90
        1
176
     1
 90
        0
176
     1
 40
0.6
176
     1
 40
30.0
176
     1
 62
     7
420
 16777215
176
     1
 90
        1
176
     1
 90
        4
176
     1
 62
     7
176
     1
 62
   257
176
     1
 90
        7
176
     1
 90
        7
176
     1
 40
1.0
176
     1
 90
        8
176
     1
 62
     7
176
     1
 40
1.0
176
     1
 90
        1
176
     1
 90
        6
176
     1
 90
        2
176
     1
 62
     7
176
     1
 90
        5
176
     1
 90
        0
176
     1
 90
        0
176
     1
290
     0
176
     1
 90
        1
176
     1
 40
0.0
176
     1
 90
        0
176
     1
290
     0
176
     1
290
     1
176
     1
290
     1
176
     1
290
     0
176
     1
290
     0
176
     1
290
     0
176
     1
290
     0
176
     1
290
     0
176
     1
290
     0
176
     1
 90
       50
176
     1
 40
0.0
176
     1
 40
1.0
176
     1
 90
        0
176
     1
 62
    18
420
        0
176
     1
 90
       50
176
     1
 90
        3
176
     1
 62
     5
420
      255
176
     1
290
     0
176
     1
 90
       50
176
     1
 90
       50
176
     1
 90
       50
176
     1
290
     0
176
     1
 90
       50
176
     1
 62
   256
176
     0
 40
1.0
176
     0
 90
        2
176
     1
  1
strokes_ogs.tif
176
     1
290
     0
176
     1
 40
1.0
176
     1
 40
1.0
176
     1
  0
VISUALSTYLE
  5
174
102
{ACAD_REACTORS
330
99
102
}
330
99
100
AcDbVisualStyle
  2
OverhangOff
 70
    21
177
     3
291
     1
 70
    58
 90
        2
176
     0
 90
        2
176
     0
 90
        0
176
     0
 90
        0
176
     0
 40
0.6
176
     0
 40
30.0
176
     0
 62
     7
420
 16777215
176
     0
 90
        1
176
     0
 90
        4
176
     0
 62
     7
176
     0
 62
   257
176
     0
 90
        1
176
     0
 90
        1
176
     0
 40
1.0
176
     0
 90
        9
176
     2
 62
     7
176
     0
 40
1.0
176
     0
 90
        1
176
     0
 90
        6
176
     0
 90
        2
176
     0
 62
     7
176
     0
 90
        5
176
     0
 90
        0
176
     0
 90
        0
176
     0
290
     0
176
     0
 90
        1
176
     0
 40
0.0
176
     0
 90
        0
176
     0
290
     0
176
     1
290
     1
176
     1
290
     1
176
     1
290
     0
176
     1
290
     0
176
     1
290
     0
176
     1
290
     0
176
     1
290
     0
176
     1
290
     0
176
     1
 90
       50
176
     1
 40
0.0
176
     1
 40
1.0
176
     1
 90
        0
176
     1
 62
    18
420
        0
176
     1
 90
       50
176
     1
 90
        3
176
     1
 62
     5
420
      255
176
     1
290
     0
176
     1
 90
       50
176
     1
 90
       50
176
     1
 90
       50
176
     1
290
     0
176
     1
 90
       50
176
     1
 62
   256
176
     0
 40
1.0
176
     0
 90
        2
176
     1
  1
strokes_ogs.tif
176
     1
290
     0
176
     1
 40
1.0
176
     1
 40
1.0
176
     1
  0
VISUALSTYLE
  5
A3
102
{ACAD_REACTORS
330
99
102
}
330
99
100
AcDbVisualStyle
  2
Realistic
 70
     8
177
     3
291
     0
 70
    58
 90
        2
176
     1
 90
        2
176
     1
 90
        0
176
     1
 90
        2
176
     1
 40
0.6
176
     1
 40
30.0
176
     1
 62
     7
420
 16777215
176
     1
 90
        0
176
     1
 90
        0
176
     1
 62
     7
176
     1
 62
   257
176
     1
 90
        1
176
     1
 90
        1
176
     1
 40
1.0
176
     1
 90
        8
176
     1
 62
   257
176
     1
 40
1.0
176
     1
 90
        1
176
     1
 90
        6
176
     1
 90
        2
176
     1
 62
     7
176
     1
 90
        3
176
     1
 90
        0
176
     1
 90
        0
176
     1
290
     0
176
     1
 90
       13
176
     1
 40
0.0
176
     1
 90
        0
176
     1
290
     0
176
     1
290
     1
176
     1
290
     1
176
     1
290
     0
176
     1
290
     0
176
     1
290
     0
176
     1
290
     0
176
     1
290
     0
176
     1
290
     0
176
     1
 90
       50
176
     1
 40
0.0
176
     1
 40
1.0
176
     1
 90
        0
176
     1
 62
    18
420
        0
176
     1
 90
       50
176
     1
 90
        3
176
     1
 62
     5
420
      255
176
     1
290
     0
176
     1
 90
       50
176
     1
 90
       50
176
     1
 90
       50
176
     1
290
     0
176
     1
 90
       50
176
     1
 62
   256
176
     0
 40
1.0
176
     0
 90
        2
176
     1
  1
strokes_ogs.tif
176
     1
290
     0
176
     1
 40
1.0
176
     1
 40
1.0
176
     1
  0
VISUALSTYLE
  5
182
102
{ACAD_REACTORS
330
99
102
}
330
99
100
AcDbVisualStyle
  2
Shaded
 70
    27
177
     3
291
     0
 70
    58
 90
        2
176
     1
 90
        2
176
     1
 90
        1
176
     1
 90
        2
176
     1
 40
0.6
176
     1
 40
30.0
176
     1
 62
     7
420
 16777215
176
     1
 90
        0
176
     1
 90
        4
176
     1
 62
     7
176
     1
 62
   257
176
     1
 90
        1
176
     1
 90
        1
176
     1
 40
1.0
176
     1
 90
        8
176
     1
 62
   257
176
     1
 40
1.0
176
     1
 90
        1
176
     1
 90
        6
176
     1
 90
        2
176
     1
 62
     8
420
  7895160
176
     1
 90
        3
176
     1
 90
        0
176
     1
 90
        0
176
     1
290
     0
176
     1
 90
        5
176
     1
 40
0.0
176
     1
 90
        0
176
     1
290
     0
176
     1
290
     1
176
     1
290
     1
176
     1
290
     0
176
     1
290
     0
176
     1
290
     0
176
     1
290
     0
176
     1
290
     0
176
     1
290
     0
176
     1
 90
       50
176
     1
 40
0.0
176
     1
 40
1.0
176
     1
 90
        0
176
     1
 62
    18
420
        0
176
     1
 90
       50
176
     1
 90
        3
176
     1
 62
     5
420
      255
176
     1
290
     0
176
     1
 90
       50
176
     1
 90
       50
176
     1
 90
       50
176
     1
290
     0
176
     1
 90
       50
176
     1
 62
   256
176
     0
 40
1.0
176
     0
 90
        2
176
     1
  1
strokes_ogs.tif
176
     1
290
     0
176
     1
 40
1.0
176
     1
 40
1.0
176
     1
  0
VISUALSTYLE
  5
181
102
{ACAD_REACTORS
330
99
102
}
330
99
100
AcDbVisualStyle
  2
Shaded with edges
 70
    26
177
     3
291
     0
 70
    58
 90
        2
176
     1
 90
        2
176
     1
 90
        1
176
     1
 90
        2
176
     1
 40
0.6
176
     1
 40
30.0
176
     1
 62
     7
420
 16777215
176
     1
 90
        1
176
     1
 90
        2
176
     1
 62
     7
176
     1
 62
   257
176
     1
 90
        2
176
     1
 90
        1
176
     1
 40
1.0
176
     1
 90
        8
176
     1
 62
   257
176
     1
 40
1.0
176
     1
 90
        1
176
     1
 90
        6
176
     1
 90
        2
176
     1
 62
     7
176
     1
 90
        3
176
     1
 90
        0
176
     1
 90
        0
176
     1
290
     0
176
     1
 90
        5
176
     1
 40
0.0
176
     1
 90
        0
176
     1
290
     0
176
     1
290
     1
176
     1
290
     1
176
     1
290
     0
176
     1
290
     0
176
     1
290
     0
176
     1
290
     0
176
     1
290
     0
176
     1
290
     0
176
     1
 90
       50
176
     1
 40
0.0
176
     1
 40
1.0
176
     1
 90
        0
176
     1
 62
    18
420
        0
176
     1
 90
       50
176
     1
 90
        3
176
     1
 62
     5
420
      255
176
     1
290
     0
176
     1
 90
       50
176
     1
 90
       50
176
     1
 90
       50
176
     1
290
     0
176
     1
 90
       50
176
     1
 62
   256
176
     0
 40
1.0
176
     0
 90
        2
176
     1
  1
strokes_ogs.tif
176
     1
290
     0
176
     1
 40
1.0
176
     1
 40
1.0
176
     1
  0
VISUALSTYLE
  5
17E
102
{ACAD_REACTORS
330
99
102
}
330
99
100
AcDbVisualStyle
  2
Shades of Gray
 70
    23
177
     3
291
     0
 70
    58
 90
        2
176
     1
 90
        2
176
     1
 90
        3
176
     1
 90
        0
176
     1
 40
0.6
176
     1
 40
30.0
176
     1
 62
     7
420
 16777215
176
     1
 90
        2
176
     1
 90
        2
176
     1
 62
     7
176
     1
 62
     7
176
     1
 90
        1
176
     1
 90
        1
176
     1
 40
40.0
176
     1
 90
        8
176
     1
 62
     7
176
     1
 40
1.0
176
     1
 90
        1
176
     1
 90
        6
176
     1
 90
        2
176
     1
 62
     7
176
     1
 90
        3
176
     1
 90
        0
176
     1
 90
        0
176
     1
290
     0
176
     1
 90
        1
176
     1
 40
0.0
176
     1
 90
        0
176
     1
290
     0
176
     1
290
     1
176
     1
290
     1
176
     1
290
     0
176
     1
290
     0
176
     1
290
     0
176
     1
290
     0
176
     1
290
     0
176
     1
290
     0
176
     1
 90
       50
176
     1
 40
0.0
176
     1
 40
1.0
176
     1
 90
        0
176
     1
 62
    18
420
        0
176
     1
 90
       50
176
     1
 90
        3
176
     1
 62
     5
420
      255
176
     1
290
     0
176
     1
 90
       50
176
     1
 90
       50
176
     1
 90
       50
176
     1
290
     0
176
     1
 90
       50
176
     1
 62
   256
176
     0
 40
1.0
176
     0
 90
        2
176
     1
  1
strokes_ogs.tif
176
     1
290
     0
176
     1
 40
1.0
176
     1
 40
1.0
176
     1
  0
VISUALSTYLE
  5
17F
102
{ACAD_REACTORS
330
99
102
}
330
99
100
AcDbVisualStyle
  2
Sketchy
 70
    24
177
     3
291
     0
 70
    58
 90
        1
176
     1
 90
        2
176
     1
 90
        2
176
     1
 90
        0
176
     1
 40
0.6
176
     1
 40
30.0
176
     1
 62
     7
420
 16777215
176
     1
 90
        2
176
     1
 90
        2
176
     1
 62
     7
176
     1
 62
     7
176
     1
 90
        1
176
     1
 90
        1
176
     1
 40
40.0
176
     1
 90
       11
176
     1
 62
     7
176
     1
 40
1.0
176
     1
 90
        1
176
     1
 90
        6
176
     1
 90
        2
176
     1
 62
     7
176
     1
 90
        6
176
     1
 90
        0
176
     1
 90
        0
176
     1
290
     0
176
     1
 90
        1
176
     1
 40
0.0
176
     1
 90
        0
176
     1
290
     0
176
     1
290
     1
176
     1
290
     1
176
     1
290
     0
176
     1
290
     0
176
     1
290
     0
176
     1
290
     0
176
     1
290
     0
176
     1
290
     0
176
     1
 90
       50
176
     1
 40
0.0
176
     1
 40
1.0
176
     1
 90
        0
176
     1
 62
    18
420
        0
176
     1
 90
       50
176
     1
 90
        3
176
     1
 62
     5
420
      255
176
     1
290
     0
176
     1
 90
       50
176
     1
 90
       50
176
     1
 90
       50
176
     1
290
     0
176
     1
 90
       50
176
     1
 62
   256
176
     0
 40
1.0
176
     0
 90
        2
176
     1
  1
strokes_ogs.tif
176
     1
290
     0
176
     1
 40
1.0
176
     1
 40
1.0
176
     1
  0
VISUALSTYLE
  5
A6
102
{ACAD_REACTORS
330
99
102
}
330
99
100
AcDbVisualStyle
  2
Thicken
 70
    13
177
     3
291
     1
 70
    58
 90
        2
176
     1
 90
        2
176
     1
 90
        1
176
     1
 90
        0
176
     1
 40
0.6
176
     1
 40
30.0
176
     1
 62
     7
420
 16777215
176
     1
 90
        1
176
     1
 90
        4
176
     1
 62
     7
176
     1
 62
   257
176
     1
 90
        1
176
     1
 90
        1
176
     1
 40
1.0
176
     1
 90
       12
176
     1
 62
     7
176
     1
 40
1.0
176
     1
 90
        1
176
     1
 90
        6
176
     1
 90
        2
176
     1
 62
     7
176
     1
 90
        5
176
     1
 90
        0
176
     1
 90
        0
176
     1
290
     0
176
     1
 90
        1
176
     1
 40
0.0
176
     1
 90
        0
176
     1
290
     0
176
     1
290
     1
176
     1
290
     1
176
     1
290
     0
176
     1
290
     0
176
     1
290
     0
176
     1
290
     0
176
     1
290
     0
176
     1
290
     0
176
     1
 90
       50
176
     1
 40
0.0
176
     1
 40
1.0
176
     1
 90
        0
176
     1
 62
    18
420
        0
176
     1
 90
       50
176
     1
 90
        3
176
     1
 62
     5
420
      255
176
     1
290
     0
176
     1
 90
       50
176
     1
 90
       50
176
     1
 90
       50
176
     1
290
     0
176
     1
 90
       50
176
     1
 62
   256
176
     0
 40
1.0
176
     0
 90
        2
176
     1
  1
strokes_ogs.tif
176
     1
290
     0
176
     1
 40
1.0
176
     1
 40
1.0
176
     1
  0
VISUALSTYLE
  5
A0
102
{ACAD_REACTORS
330
99
102
}
330
99
100
AcDbVisualStyle
  2
Wireframe
 70
     5
177
     3
291
     0
 70
    58
 90
        0
176
     1
 90
        2
176
     1
 90
        0
176
     1
 90
        0
176
     1
 40
0.6
176
     1
 40
30.0
176
     1
 62
     7
420
 16777215
176
     1
 90
        1
176
     1
 90
        4
176
     1
 62
     7
176
     1
 62
   257
176
     1
 90
        1
176
     1
 90
        1
176
     1
 40
1.0
176
     1
 90
        0
176
     1
 62
   257
176
     1
 40
1.0
176
     1
 90
        1
176
     1
 90
        6
176
     1
 90
        2
176
     1
 62
     7
176
     1
 90
        3
176
     1
 90
        0
176
     1
 90
        0
176
     1
290
     0
176
     1
 90
        1
176
     1
 40
0.0
176
     1
 90
        0
176
     1
290
     0
176
     1
290
     1
176
     1
290
     1
176
     1
290
     0
176
     1
290
     0
176
     1
290
     0
176
     1
290
     0
176
     1
290
     0
176
     1
290
     0
176
     1
 90
       50
176
     1
 40
0.0
176
     1
 40
1.0
176
     1
 90
        0
176
     1
 62
    18
420
        0
176
     1
 90
       50
176
     1
 90
        3
176
     1
 62
     5
420
      255
176
     1
290
     0
176
     1
 90
       50
176
     1
 90
       50
176
     1
 90
       50
176
     1
290
     0
176
     1
 90
       50
176
     1
 62
   256
176
     0
 40
1.0
176
     0
 90
        2
176
     1
  1
strokes_ogs.tif
176
     1
290
     0
176
     1
 40
1.0
176
     1
 40
1.0
176
     1
  0
VISUALSTYLE
  5
180
102
{ACAD_REACTORS
330
99
102
}
330
99
100
AcDbVisualStyle
  2
X-Ray
 70
    25
177
     3
291
     0
 70
    58
 90
        2
176
     1
 90
        2
176
     1
 90
        1
176
     1
 90
        1
176
     1
 40
0.5
176
     1
 40
30.0
176
     1
 62
     7
420
 16777215
176
     1
 90
        1
176
     1
 90
        0
176
     1
 62
     7
176
     1
 62
   257
176
     1
 90
        1
176
     1
 90
        1
176
     1
 40
1.0
176
     1
 90
        8
176
     1
 62
     7
176
     1
 40
1.0
176
     1
 90
        1
176
     1
 90
        6
176
     1
 90
        2
176
     1
 62
     7
176
     1
 90
        3
176
     1
 90
        0
176
     1
 90
        0
176
     1
290
     0
176
     1
 90
       13
176
     1
 40
0.0
176
     1
 90
        0
176
     1
290
     0
176
     1
290
     1
176
     1
290
     1
176
     1
290
     0
176
     1
290
     0
176
     1
290
     0
176
     1
290
     0
176
     1
290
     0
176
     1
290
     0
176
     1
 90
       50
176
     1
 40
0.0
176
     1
 40
1.0
176
     1
 90
        0
176
     1
 62
    18
420
        0
176
     1
 90
       50
176
     1
 90
        3
176
     1
 62
     5
420
      255
176
     1
290
     0
176
     1
 90
       50
176
     1
 90
       50
176
     1
 90
       50
176
     1
290
     0
176
     1
 90
       50
176
     1
 62
   256
176
     0
 40
1.0
176
     0
 90
        2
176
     1
  1
strokes_ogs.tif
176
     1
290
     0
176
     1
 40
1.0
176
     1
 40
1.0
176
     1
  0
DICTIONARYVAR
  5
F0
102
{ACAD_REACTORS
330
66
102
}
330
66
100
DictionaryVariables
280
     0
  1
1:1
  0
DICTIONARYVAR
  5
EF
102
{ACAD_REACTORS
330
66
102
}
330
66
100
DictionaryVariables
280
     0
  1
STANDARD
  0
DICTIONARYVAR
  5
89
102
{ACAD_REACTORS
330
66
102
}
330
66
100
DictionaryVariables
280
     0
  1
STANDARD
  0
DICTIONARYVAR
  5
1B7
102
{ACAD_REACTORS
330
66
102
}
330
66
100
DictionaryVariables
280
     0
  1
Imperial24
  0
DICTIONARYVAR
  5
1B8
102
{ACAD_REACTORS
330
66
102
}
330
66
100
DictionaryVariables
280
     0
  1
Imperial24
  0
DICTIONARYVAR
  5
67
102
{ACAD_REACTORS
330
66
102
}
330
66
100
DictionaryVariables
280
     0
  1
2
  0
DICTIONARYVAR
  5
6B
102
{ACAD_REACTORS
330
66
102
}
330
66
100
DictionaryVariables
280
     0
  1
1
  0
DICTIONARYVAR
  5
14D
102
{ACAD_REACTORS
330
66
102
}
330
66
100
DictionaryVariables
280
     0
  1
0
  0
DICTIONARYVAR
  5
14E
102
{ACAD_REACTORS
330
66
102
}
330
66
100
DictionaryVariables
280
     0
  1
0
  0
DICTIONARY
  5
194
330
22
100
AcDbDictionary
280
     1
281
     1
  0
DICTIONARY
  5
188
330
97
100
AcDbDictionary
280
     1
281
     1
  3
FBXASSET
360
189
  0
DICTIONARY
  5
186
330
96
100
AcDbDictionary
280
     1
281
     1
  3
FBXASSET
360
187
  0
DICTIONARY
  5
110
330
98
100
AcDbDictionary
280
     1
281
     1
  3
BUMPTILE
360
112
  3
DIFFUSETILE
360
111
  3
FBXASSET
360
18A
  3
OPACITYTILE
360
113
  3
REFLECTIONTILE
360
114
  0
DICTIONARY
  5
104
330
87
100
AcDbDictionary
280
     1
281
     1
  3
ACAD_ROUNDTRIP_2008_TABLESTYLE_CELLSTYLEMAP
360
9FB2
  0
XRECORD
  5
189
102
{ACAD_REACTORS
330
188
102
}
330
188
100
AcDbXrecord
280
     1
 70
     1
 90
429727718
  1
508B35C9-AEE7-456F-BE74-D52651303AC6
310
504B03040A0000080000B670623B3DEE336E79000000790000001B0000006175746F6465736B2D64657369676E2D7061636B6167652E786D6C3C3F786D6C2076657273696F6E3D22312E302220656E636F64696E673D227574662D3822203F3E3C666F726D6174733E3C666F726D61743E687474703A2F2F736368656D612E
310
6175746F6465736B2E636F6D2F64657369676E2D7061636B6167652F323030393C2F666F726D61743E3C2F666F726D6174733E504B0304140006080800B670623BD486FD9CA0000000F4000000130000005B436F6E74656E745F54797065735D2E786D6C7D8EC10E82300C865F65E91D8A1E8C310C0EEA1BF002731658846E
310
D98AC1B77784ABF1D8FE5FBFBF75BBCE937A534CCEB38643598122B6FEE978D0B0485F9C41B54DDD7D022595594E1A469170414C76A4D9A4D207E29CF43ECE46F218070CC6BECC4078ACAA135ACF422C856C0E68EA1BF5669944DDD7BCDE7B1F8E415D77AECB980613C2E4AC91FC167A2B244592486606FC29C8FD7F045B9A
310
EF7053A7E60B504B0304140006080800B670623B28ED286BEB0000007C01000008000000636F72652E786D6C8D90416EC3201045AF82665B6183218D6D61A254764FD00B204C5C94182C03558F5F9C3852BBEB6A467FFE9B197D71FA9E6FE8CBACC17AD7012D0820E3B41FAD9B3A48F1826B40272956EFE32F1B20A766D3C1
310
268314D3EAD3B24BDABB685CCCAAF3A3D94515828980F42D371D04FD696655A814B3235C8B45E9AB9A4C419F5D8653B2237A1CB163DE672FD6AC209BF3C08E0D1B30EB19C3FC9D72FCC6EB231EFA33EDE96BDD341517E5064B11EDFCBCAF57A3A2194156843498524CAA0FCA5B7268F9E185D42D21A2DCEC7FA0B48CFF8492
310
759155FBBB0F2C80A4F991FB408A72CB22977B50B96EB9C91F504B0304140006080800B670623B55019EA25F0000007C00000007000000636E782E786D6C4DCB3B0E80201045D1AD90E915ED2CF8AC45050C11660C8261F98AB1B07AC9C97D42D718D865D3E909258CFD00CCE24AC6E326A164D74DC0B4128928FF32603847
310
2BA13128B1252AC747C6BAB984FC68F0B87FE8960A5C09FE86CFB69FBA01504B0304140006080800B670623B7BC41AC871010000D40300000C0000006662782F636F72652E786D6CC553ED6E8320147D15C2DF4501B56B6D90A64BBB27D80B50A5CE54C120983EFEAE1F4DD7A56BBA5FF3879273EEE59E7310BE393735EA95
310
ED2AA333CC428A91D2B9292A5D66D8BB63B0C26823B835C67D2BC348CB46657880B1E0A535BE9DA1DC68A7B403549B42CDA0EC3AE530CA6B5864B8CB3F552343E91D5474A7B095F949962A6421D0502778E72C0840D390E18DC5F170E664C205F7BE2A66B62A605A75AC94C522DDEEE3651AEF837817C741F2CE92E02D592D
310
83FD6ECB76EC7595A651C2C9D02CB8AB9A8BBADC2AE954814544691A3016D0E883256BBA58278B17BA5A53CAC9507ED3E4DBE2C9265F691747B3DCA9ADC382819091F8E1162272A8933DE82182932144F88C09DF060D8140C84E1EEA8B8F1340BDCA9DB1093085F157AA97B557309586747CD0EF0B4EA64E983A6E0EAEEFCE
310
889E9EF17847386AA94B30211D2C0FDE0D3AF9A4610EAD5536E8DD1969631B593F67E381C33F5157F17725E5A636F6BF1491F980C8FC7B90E13E8A2F504B0304140006080800B670623B70102A487D0000009D0000000B0000006662782F636E782E786D6C4DCCD10A83201886E15B91FFDC95A5C30335ACCDFB886521330D
310
A76397BF1A1DECE883878F57749FD5A3B74D2F17830472A901D9F088930B8B849267CC01754AA418F3DF0D5018572BE160506249B16C274D761E8BCFBB7A179E27F65CB39A0F14D396184C9921B81F34C3ACA1B4B99ABB6E6F062A25AA5F69DF23ACBE504B0304140006080800B670623B3610CA3329010000120200003100
310
00006662782F42384135303843342D343331462D343546312D424341352D3532343432364645413344462F636F72652E786D6C8D515B6EC32010BC0AE22B55850D0E446E848992B43E412FE000495162B07854397EA176A4F62F3F2C9A9D991D58BEBB8F37F0AD7D30CE76905418026DA553C65E3A98E219B510EC04F7CEC5
310
3F3408EC30EA0E16180A7EF12E4D0B249D8DDAC68C5AA7F4020E21E80881BCE54B0783FCD2E3500D296646B856D320AFC34557A4CAEDCC133C449F0380794839A138B47B86DB2345744D7A44594FD0E1B867883594369BFE63BF7EEF793D0B054FC9A8456E548E63CE46FB674D8A58F068C6477CE9F510B582A2C1F80D1182
310
70F349E816B32D65AFB8DD62CCEB42FF274A937A52948C8DEB66893BCB021484D7734370E5D2E9F608A3EF93F3119479ABA0E50B14B8C298119A43CCC4FCFCECB8A18B6388CEE7EF5D5D4F994BD86CBBA182D76543B9FCAE2FD7B24DF103504B0304140006080800B670623B1B8617914E0100003303000030000000666278
310
2F42384135303843342D343331462D343546312D424341352D3532343432364645413344462F636E782E786D6CD593C16EC32010447F0571AD6CE3D489D20813A9877E410FBD62D82434182CC055F3F75D1292E692438FBD206B7698593D61BEFD1E2DF982108D773D6D6B460938E5B571FB9ECE6957AD29D90A1EBC4F7736
310
4A9C1CA1A759A682EF839FA72269D8C9D92654AD71C72206887E0E0A22CAF926B15E498B01E0AA19451807D01A34B919F16B070157417138917400F2F6FA41FCF0092A45DEE414C19BDC21783E4BD39D891265658C3D8DEA00A3ACE59CBC8678ACB54CB26EEB6BD7839D7E9348BE70AD9C8321B9BCA7F9A4A26C542347DEE0
310
50F09802D22BA6749A800A394DD62899107273365E3C82CFC6A55557BC06C10774B7ABE7AEC3B0F34CF06446280E154026D0542C187BA9DAB6628BF7B6DBB0E5A65B3EB1F58631DE64BBE083F7B65CC218087E22CABB042E51D1F2268F1FE12B3EA24D40D63E9CFE00120194D60B9D5BC67FE6D39CDF37E20AF817881F504B
310
0304140006080800B670623BBFEF2E3B690500003C100000340000006662782F42384135303843342D343331462D343546312D424341352D3532343432364645413344462F6F626A656374732E786D6CAD575D739B3814FD2B0CFB0C98D84E931D4227B6938EA793B6534F3BFB90198F0099B001899144EAECAFDF231018B0
310
D37A3FFC609090EEE7B94757C1FB7D915B2F54C88CB31BDB7727B64559CC938CA53776A576CE956DBD0F03C1B9EA2DB32D460A7A63EB693B0C52C1ABD24C257447AA5C8D66EF177F5832A68CDA569C13296F6C193FD182B8A4523CA1F2D94D88226EBADBBBBEDB2C1C8A4D05299F46424B222853B014F30C52ACC6287F389C
310
D85E1878FA7B18E87FB36AFAF62AAFF667A83F635211161F291B8999FAB3D5DDC5FCDA99CF6653677679E13B8BFBC5CAF1DF4D27CBCBE5F2FAF6EE1A8AA51290642C117467871F101B91C581D77CEA2C36869F3229E68CD1B8F61F1ED6361B89092D294B90C78C4A68EB793D190E7D1D9BDEE7A91E1B95FDE9F3BCEAEFE809
310
6A6D6F9F7D4B79F4275C90E7A04248AA51D5C4C738DAE06F72885AC4796EBE65D22A88A22223B995679120E2D50EB1542F098381188D4EA111AE3DB043FF20AF6F2B4AE3D7D83D65E5AECA730D4D3BAC91BD05FEA992B565D95F549CD6069B90AB2A63EACA38A45E4B6A87D781574F86817E4C2FCCC72690D62E2729520E37
310
9BAF234797BAF6D62B3BFC781FED37BA1E4F2B2F052FA9501A3E80569BB8F6A9A364D4FA67654E6F803383981F82F21591FF84F23D9882BC896C3FDBCF8C162508933B2E0AE4C69DD43F6BD2BE38DDDBF10BF86CB4FA784D37F3AF16075E67EC9030DECA1FC0A55373F5DFF3378C591FA9BDF485C10B0A8C8BA909E5262639
310
A8E72163488806A595734C81CB77D1DE0ED7604A303B76913CEC0272F412782FF88EFF4636D8AA56DF7B322474C4B767303F625997056C7B032C473C592B36CEBD15F3F9FF5233B7ABCDC74D257624A60F8658567497B14CE1EC3C80B76FD02011038F9EE9EB0F2E12387A9C844D3F09855125116D1D731DF8B43D2CF4E0A0
310
79A020C6BE946BCE0B7EA1E1219331CD73C228AF5A2DDD31A4B1DA918CE91350854D40A71723140BFA92E94E62B0626016CEFA5864A50E5977E8753CEDBEE1CBB7F52780D20E17AF0BA0F5F9B02A3AD07DCC732EB6D1EBB661421BE0C39E21BABF0FE16D22EA6929407C8DE596724C88B749B6DB5512BC7B228ADFD7CB7EA6
310
3A22397E690BA8D5D8D4E40CEC8CDA23C2C0B7D5898640101CEC9C6D331CE328CB93CAFBBAC70A642DF70DF95155945B52F08AA973C23469FD69ADEF84F7BB18F983A8F8C90E37F5D35980B2139A1C523540813E824EF83448CF7C72B598CE97D7CEEDDDDD3B6736BFBC771677EF66CE6A7E7139F7A793E9EDF2B2B3A8B624
310
0CDA13AA5F8388264EC4A0129909F3B7F5A16CEDF08128E97D680ACA4B9BE7B7B58BB638F0B00700EF36AE8B32A705658A68F83EE897FC2B41573190D1CCAF0B92D233A47CFEB019D9809933F67DD1A5467F8CF69AD9A5AE859342D45355448C64F968A371DC2D596ADC6E43D93D1B466F877A64E2893E54F23C4B40388995
310
525E5005DA3983ED45412510D3EFCA13737B3863F74BD30F2A12E5B4B5E489A025CE25500DB855B11ACE5BBFA185D35DD48D8DC3CE7DC69F2944DB42AA6F6CF09BCA622ADD08C7A36E7C6AE18000BAB08E040135C2D21C9D75B3A91B77BB746C403F38018DFE6EC939DD92F16B40BC05294B9CDA035AAD6D330AE27FE4786B
310
8E45145EA34A75BE1C263A676A35A8ACC6297337400BF16C54EF515F3F77CB77EB3583889C754FFA29081AA98E2222ADEF05DA3E63D2EDEA8B8756C05A7FB6CABC4A91CBF325398202CC952E70A008A830324BA200D5E5EF8F5F04C75DB4B0EE3340E071C98B823333B83577596BF3849B69F2085AA0FAFA212F26BEFF5877
310
FDE622B28D88A42E49E43326DA82D31E8CB006401E1DA726059ECEC168F97A6599036306A135688F9AD2E61A6EA178F4CD51974A9F2CCB9F36FE5EBD14601068D9C3BF01504B0304140006080000B670623B000000000000000000000000350000006662782F42384135303843342D343331462D343546312D424341352D35
310
32343432364645413344462F76657274696365732E62696E504B0304140006080800B670623BF270F1330600000004000000360000006662782F42384135303843342D343331462D343546312D424341352D3532343432364645413344462F747269616E676C65732E62696E636660600000504B0304140006080000B67062
310
3B000000000000000000000000370000006662782F42384135303843342D343331462D343546312D424341352D3532343432364645413344462F617474726962757465732E62696E504B0304140006080800B670623B08DA0BD19000000041010000360000006662782F42384135303843342D343331462D343546312D4243
310
41352D3532343432364645413344462F6469726563746F72792E786D6C858F410AC3201045AF22B36F53E9A60B35CBEEBAE80D244E44489C6234F4F835464A48035D0DF398FF9F8AF63D0E6CC63039F212F8F9020C7D47C6792B21C5FE7403D62A1188E2E60C98D7234A5830286103A55745067B9D86B8A3CF9C7F90C11DE6
310
07FB144396D7B6A82D282E9A152AD114D5EF2CB866EEE831B8EEA07A7BB5A8D7D61A2BAAEB7FD5F70921FF497D00504B0304140006080800B670623B3B4606F3FE000000A00100003B0000006662782F42384135303843342D343331462D343546312D424341352D3532343432364645413344462F7265736F75726365732F
310
636F72652E786D6C8D504B6E833010BD0A9A6D65B08134808CA354A427E8052C332156828DFCA97AFC9A40A576D7CDCCE87D344F8F9FBEE647F689CE6B6B7A6039850C8DB2A336530F315C4903D94970676DF82583CCC8197B5861107C72362E3BA4AC096842428D1D7107A5F71820538F74F4E0D50D6799CB1892C2DFF345
310
AABB9C306779A2934E701F5C0A906D4FD609C2A1B7D129F4BCD858C163D4E3AED163FAA9AF1A1D88F67CA98E6D35906AA82A52BFB39ABCD5CD915C86331BD86BD3B665CD8BD52C78D0F34F46E550061C419494B6843142CB0F5677F4D0D58717DA7494F26295FF31C565FCA7296A13AA728FBBD93C0896823C09C18BB5AFB4
310
9E65A6BD762BBE01504B010214000A0000080000B670623B3DEE336E79000000790000001B00000000000000000000000000000000006175746F6465736B2D64657369676E2D7061636B6167652E786D6C504B01021400140006080800B670623BD486FD9CA0000000F40000001300000000000000000000000000B2000000
310
5B436F6E74656E745F54797065735D2E786D6C504B01021400140006080800B670623B28ED286BEB0000007C010000080000000000000000000000000083010000636F72652E786D6C504B01021400140006080800B670623B55019EA25F0000007C000000070000000000000000000000000094020000636E782E786D6C50
310
4B01021400140006080800B670623B7BC41AC871010000D40300000C00000000000000000000000000180300006662782F636F72652E786D6C504B01021400140006080800B670623B70102A487D0000009D0000000B00000000000000000000000000B30400006662782F636E782E786D6C504B01021400140006080800B6
310
70623B3610CA3329010000120200003100000000000000000000000000590500006662782F42384135303843342D343331462D343546312D424341352D3532343432364645413344462F636F72652E786D6C504B01021400140006080800B670623B1B8617914E010000330300003000000000000000000000000000D10600
310
006662782F42384135303843342D343331462D343546312D424341352D3532343432364645413344462F636E782E786D6C504B01021400140006080800B670623BBFEF2E3B690500003C10000034000000000000000000000000006D0800006662782F42384135303843342D343331462D343546312D424341352D35323434
310
32364645413344462F6F626A656374732E786D6C504B01021400140006080000B670623B0000000000000000000000003500000000000000000000000000280E00006662782F42384135303843342D343331462D343546312D424341352D3532343432364645413344462F76657274696365732E62696E504B010214001400
310
06080800B670623BF270F133060000000400000036000000000000000000000000007B0E00006662782F42384135303843342D343331462D343546312D424341352D3532343432364645413344462F747269616E676C65732E62696E504B01021400140006080000B670623B00000000000000000000000037000000000000
310
00000000000000D50E00006662782F42384135303843342D343331462D343546312D424341352D3532343432364645413344462F617474726962757465732E62696E504B01021400140006080800B670623B08DA0BD1900000004101000036000000000000000000000000002A0F00006662782F42384135303843342D3433
310
31462D343546312D424341352D3532343432364645413344462F6469726563746F72792E786D6C504B01021400140006080800B670623B3B4606F3FE000000A00100003B000000000000000000000000000E1000006662782F42384135303843342D343331462D343546312D424341352D3532343432364645413344462F72
310
65736F75726365732F636F72652E786D6C504B0506000000000E000E0080040000651100000000
  0
XRECORD
  5
187
102
{ACAD_REACTORS
330
186
102
}
330
186
100
AcDbXrecord
280
     1
 70
     1
 90
429727718
  1
887D55A9-D0DD-414E-B741-A7DCD4DA2B4C
310
504B03040A0000080000B670623B3DEE336E79000000790000001B0000006175746F6465736B2D64657369676E2D7061636B6167652E786D6C3C3F786D6C2076657273696F6E3D22312E302220656E636F64696E673D227574662D3822203F3E3C666F726D6174733E3C666F726D61743E687474703A2F2F736368656D612E
310
6175746F6465736B2E636F6D2F64657369676E2D7061636B6167652F323030393C2F666F726D61743E3C2F666F726D6174733E504B0304140006080800B670623BD486FD9CA0000000F4000000130000005B436F6E74656E745F54797065735D2E786D6C7D8EC10E82300C865F65E91D8A1E8C310C0EEA1BF002731658846E
310
D98AC1B77784ABF1D8FE5FBFBF75BBCE937A534CCEB38643598122B6FEE978D0B0485F9C41B54DDD7D022595594E1A469170414C76A4D9A4D207E29CF43ECE46F218070CC6BECC4078ACAA135ACF422C856C0E68EA1BF5669944DDD7BCDE7B1F8E415D77AECB980613C2E4AC91FC167A2B244592486606FC29C8FD7F045B9A
310
EF7053A7E60B504B0304140006080800B670623BBC1638F5EC0000007C01000008000000636F72652E786D6C8D90416EC3201045AF82665B61836BE2D8C24471DB9CA01740401C94182C03558F5F9C3852BBEB6A467FFE9B197D7EF89E6EE8CB2CC17AD7032D0820E394D7D68D3DA478C67B4007C117EFE32F1B202727D3C3
310
2A83E0E3E2D3BC49CABB685CCCAAF3DA6CA20CC14440EA969B1E82BA98491632C5EC08D76296EA2A4753D06797E194AC468F2356E77DF66CCD02825543D50CACC62D39ED70FDC68EB8FD68F6F8787A6784342D1DDA1D2F5758F068A7E77DB518198D065111D2624A31A93E69DD11D6D5EC85EC3B4278B9DAFF4069D6FF8492
310
75F1B5DADE7D600104CD8FDC0782976B16B9DC83CA75CD4DFC00504B0304140006080800B670623B55019EA25F0000007C00000007000000636E782E786D6C4DCB3B0E80201045D1AD90E915ED2CF8AC45050C11660C8261F98AB1B07AC9C97D42D718D865D3E909258CFD00CCE24AC6E326A164D74DC0B4128928FF326038
310
472BA13128B1252AC747C6BAB984FC68F0B87FE8960A5C09FE86CFB69FBA01504B0304140006080800B670623B3586FFB671010000D40300000C0000006662782F636F72652E786D6CC553ED6E8320147D15C2DF4541A76D6D90A6DDD627D80B50A4CE54C120983EFEAE1F4DD7A55BBA5FF3879273EEE59E7310B6393735EA
310
95ED2AA3731C851423A5A5292A5DE6D8BB63B0C268C39935C67D29C3488B46E578803167A535BE9D2169B453DA01AA4DA16650749D7218C91A1639EEE4876A4428BC838AEE14B6429E44A9C228041AEA38EB9C0501681A32BC313F1ECE8C4C3867DE57C5CC56054CAB8E95B298A7F12E5EEED224C8E87E11242FE936C8DE96
310
AB60BB7F4D295D66D12E5B30323473E6AAE6A24E5A259C2A308F29CD82280A68FC1E256B9AAE93F489AED694323294DF34F9B678B0C957DA3DC7B3DCA9ADC33C022123F1CD2D44E450277AD04338234388F01913BE0D1A0281909D38D4171F27807A259DB1093085F157AA17B557309586747CD0CF0B46A64E983A6E0EAEEF
310
CE881F9EF1FB8E70D44297604238581EBC1B74B249C31C5AAB6CD0BB33D2C636A27ECCC62F0EFF445DC5DF95244D6DEC7F2922F30191F9F720C37DE49F504B0304140006080800B670623B4220A0FF7D0000009D0000000B0000006662782F636E782E786D6C4DCCD10A83201886E15B91FFDCE542CB0335D0EC3E6259C84A
310
C3E9D8E5AF46073BFAE0E1E315DD675BD1DBA5978F41C2FD4600B9F088930F8B849267CC01754AA418F3DF0D50183727E164506249B1EC174D6E1ECB9A0F5D7D785E68DB8151CD286E5A5363CA6B8A39E90D36D40E96B086F55A43A544F52B1D7B86D517504B0304140006080800B670623B2FA3FEDE290100001202000031
310
0000006662782F45374635344235342D363743322D343832342D383044432D4334454645303536354442422F636F72652E786D6C8D515B6EC32010BC0AE22B55850D2E386E848994D7097A0117488A1283C5A3CAF10BB523B57FF961D1ECCCECC0F2ED7DBC816FED8371B687A4C210682B9D32F6D2C314CFA883602BB8772E
310
FEA141608751F7B0C050F08B77695A20E96CD43666D43AA5177008414708E42D5F7A18E4971E876A483133C2B59A06791D2EBA22556E679EE021FA1C00CC43CA09C5717D6274C7286AD7FB06D1AEA1A8C3873DDAD3E3E98859CB0EBB1DAF67A1E02919B5C88DCA71CCD968FFAC49110B1ECDF8882FBD1EA256503418BF2342
310
106E3E08DD60B6A1EC15771B8C795DE8FF4469524F8A92B1F1AD59E2CEB20005E1F5DC105CB9F4797B84D1F7C9F908CABC55D0F2050A5C61CC1AD2F27A26E6E767C7962E8E213A9FBF7775FDCC5CC266DB960A5E970DE5F2BBBE5CCB36C50F504B0304140006080800B670623B1B8617914E01000033030000300000006662
310
782F45374635344235342D363743322D343832342D383044432D4334454645303536354442422F636E782E786D6CD593C16EC32010447F0571AD6CE3D489D20813A9877E410FBD62D82434182CC055F3F75D1292E692438FBD206B7698593D61BEFD1E2DF982108D773D6D6B460938E5B571FB9ECE6957AD29D90A1EBC4F77
310
364A9C1CA1A759A682EF839FA72269D8C9D92654AD71C72206887E0E0A22CAF926B15E498B01E0AA19451807D01A34B919F16B070157417138917400F2F6FA41FCF0092A45DEE414C19BDC21783E4BD39D891265658C3D8DEA00A3ACE59CBC8678ACB54CB26EEB6BD7839D7E9348BE70AD9C8321B9BCA7F9A4A26C542347DE
310
E050F09802D22BA6749A800A394DD62899107273365E3C82CFC6A55557BC06C10774B7ABE7AEC3B0F34CF06446280E154026D0542C187BA9DAB6628BF7B6DBB0E5A65B3EB1F58631DE64BBE083F7B65CC218087E22CABB042E51D1F2268F1FE12B3EA24D40D63E9CFE00120194D60B9D5BC67FE6D39CDF37E20AF817881F50
310
4B0304140006080800B670623B29652116630500003C100000340000006662782F45374635344235342D363743322D343832342D383044432D4334454645303536354442422F6F626A656374732E786D6CAD575D739B3814FD2B0CFB0C989834C90EA1639B24E3E9A6EDD4D3CE3E64C623834CD8006224913AFDF57B040203
310
B65BEF871F0C12D2FD3CF7E8CA7FBFCB33E3957291B2E2D674ED8969D02262715A24B76625B7D6B569BC0F7CCE98EC2D338D82E4F4D654D366E0279C55A59E8AE99654991CCDDECFFF3444440B6A1A514684B83545F44C7362934AB2988A173B2692D8C97667BB76B3702836E1A47C1E092D09A78584A5982F20C5688C7287
310
C389E904BEA3BE07BEFAD7ABA6A75739B53F43FD69212429A20365233153D70BEF2E2E6FAC4BCF9B5ADEBB0BD79ADFCF43CBBD9A4E16EF168B9BD9DD0D140BC921495BC2E9D60C1E101B9E46BED37CEA2CD6861F3329624541A3DA7F7858DBAC25C6B4A4458C3CA654405BCFEBC970E8AAD8F43E4FD558ABEC4F9FE7557F47
310
4F506B7BFBEC5BCA367FC105710E2AB8A00A554D7CB4A30DFE26FBA86D18CBF4B75418399194A72433B274C3097F33032C554B027F2046A1932B842B0FCCC0DDCBEBDB8AD2F835768F59B9ADB24C41D30C6A64AF817F2A456D59FA83F2E3DA60137255A585BCD60EC9B7929AC18DEFD49381AF1ED30BFDB109A4B1CD488294
310
C3CDE6EBC8D185AABD6568061FEE37BB95AAC7E3CA4BCE4ACAA5820FA0D526AE7DAA2869B5EE5999531BE0CC20E6FBA07C41E43FA27CF7A6206F3CDD793B4F6B919C1462CB788EDCD893FA674CDA17AB7B3B7C019F8D561FAEE966FED562DFE98C1D12C6A9FC015C2A35D7FF3D7FC398F591DA4B5FE0BFA2C0189FEA50AE22
310
92817A1ED3020951A03432862970F976B33383259812CC8E5D240BBA801CBCF8CE2BBEE3BF910DB6AAD5F79E05123AE2DB33981FB1ACCB02B69D00CB014FD68AB573A7627EF9BFD4CC2C5C7D58557C4B22FAA88925A4DBB44825CECE3D78FB060D1231F0E885BE7D673C86A3874958F593906B5502D1563157814FDAC3420D
310
F69A070A22EC4B98E23CFF171A1E5311D12C23056555ABA53B8614563B92D17D02AAB009E8F46284624E5F53D5490C560CCCC2591FF1B45421EB0EBD8EA7ED13BE7C5D7E0428CD60FEF60779EB13E6664FF711CB185F6FDED60D139A001FF60CD1FD6D086F1D51474901E26B2CB794A343BC8ED3EDB612E0DD2351FCB65CF4
310
33D511C9E14B5B40ADC6A6263DB0336A8F700DDF56271A024E70B0B3629DE21847591E55DED73D56206AB927E46FAABC5C939C55853C274C93D69FD6FA4E78BF8B11DF898C9ECD60553FAD39283BA6F18984AA23E8884F83F45C5F5F859797B31B2B9C84A1E5B9DE9D35BFF25C6B76152E422F9C5DCC3D847F5801ED09D5AF
310
41441327A25FF15487F9EB725FB666F048A4701E9A827292E6F97569A32DF61DEC01C0BB8DCBBCCC684E0B49147C1FD54BF685A0AB18C868E6973949E819523E3DAC463660E68C7D9F55A9D1EFA3BD7A76A16AE1A810F95CE59B82A4D968A376DC2E8B44BBDD86B27B368CDE0ED548C7137DA860591A83706223A12CA712B4
310
7306DBF39C0A20A6DF95C7FAF670C6EED7A61F946493D1D6926782963813403548A78AE470DEF80D2D9CEAA26E4D1C76F60BFE74219A06527D6B82DF641A51616F703CAAC6A7160E08A00BEB4810A0274592A1B36E3675E36E978A0DE80727A0D6DF2D39A75BD27E0D8837276589537B40ABB56D5A41F48F1C6FCD3188C4EB
310
A6929D2FFB89CE995A4D00AE813BDD032DC48B56BD437DFDDC2DD7AED70C2272D63DE9A72068A45A92F0A4BE17A8A06B9366E16707AD80B1FC649459952097E74BB23805982B55E0401150A165964402AA8BDF9F3E7386BB686EDCA780C0D382E5392BF460A6EFB2C6EA1937D3F809B440D5F5435C4C5CF7A9EEFAF54564BD
310
2182DA24162F98680B4E7930C21A0079709CEAEB99A372305ABE0C0D7D6078105A83F6A0296DAEE1068A47DD1C55A9F4C9B2FC69E3EFD44B81028E963DF81B504B0304140006080000B670623B000000000000000000000000350000006662782F45374635344235342D363743322D343832342D383044432D433445464530
310
3536354442422F76657274696365732E62696E504B0304140006080800B670623BF270F1330600000004000000360000006662782F45374635344235342D363743322D343832342D383044432D4334454645303536354442422F747269616E676C65732E62696E636660600000504B0304140006080000B670623B00000000
310
0000000000000000370000006662782F45374635344235342D363743322D343832342D383044432D4334454645303536354442422F617474726962757465732E62696E504B0304140006080800B670623B08DA0BD19000000041010000360000006662782F45374635344235342D363743322D343832342D383044432D4334
310
454645303536354442422F6469726563746F72792E786D6C858F410AC3201045AF22B36F53E9A60B35CBEEBAE80D244E44489C6234F4F835464A48035D0DF398FF9F8AF63D0E6CC63039F212F8F9020C7D47C6792B21C5FE7403D62A1188E2E60C98D7234A5830286103A55745067B9D86B8A3CF9C7F90C11DE607FB144396
310
D7B6A82D282E9A152AD114D5EF2CB866EEE831B8EEA07A7BB5A8D7D61A2BAAEB7FD5F70921FF497D00504B0304140006080800B670623B6378F24DFF000000A00100003B0000006662782F45374635344235342D363743322D343832342D383044432D4334454645303536354442422F7265736F75726365732F636F72652E
310
786D6C8D504B6E833010BD0A9A6D65B0094E42641C85B639412F6099496225D8C89FAAC7AF09546A77DDCC8CDE47F3F4C4F16B7C149FE88371B603565228D06A37187BED20C50BD9437194C23B177FC9A0B06AC40E6618A4B87A97A615D2CE46B431A3D60DB8822A048C50E8473E3A08FA86A32A558A5911EEE5A4F45D5DB1
310
6465A6B34E8A107D0E502C4FE609D26370C96B0CA25A58295232C3AA3143FE692E063D485EF7F5AEE71BD2D2F39634AFFC44DAF7DD9E9CCE6F9CD25DCBFA762BAAD92C4534E34F46ED51451C40D694B6843142EB0FD61C283F34FC85EE0F948A6A96FF31A569F8A729191B37F51A77B105902C0779125254735F793DCBCC7B
310
EE567E03504B010214000A0000080000B670623B3DEE336E79000000790000001B00000000000000000000000000000000006175746F6465736B2D64657369676E2D7061636B6167652E786D6C504B01021400140006080800B670623BD486FD9CA0000000F40000001300000000000000000000000000B20000005B436F6E
310
74656E745F54797065735D2E786D6C504B01021400140006080800B670623BBC1638F5EC0000007C010000080000000000000000000000000083010000636F72652E786D6C504B01021400140006080800B670623B55019EA25F0000007C000000070000000000000000000000000095020000636E782E786D6C504B010214
310
00140006080800B670623B3586FFB671010000D40300000C00000000000000000000000000190300006662782F636F72652E786D6C504B01021400140006080800B670623B4220A0FF7D0000009D0000000B00000000000000000000000000B40400006662782F636E782E786D6C504B01021400140006080800B670623B2F
310
A3FEDE290100001202000031000000000000000000000000005A0500006662782F45374635344235342D363743322D343832342D383044432D4334454645303536354442422F636F72652E786D6C504B01021400140006080800B670623B1B8617914E010000330300003000000000000000000000000000D2060000666278
310
2F45374635344235342D363743322D343832342D383044432D4334454645303536354442422F636E782E786D6C504B01021400140006080800B670623B29652116630500003C10000034000000000000000000000000006E0800006662782F45374635344235342D363743322D343832342D383044432D4334454645303536
310
354442422F6F626A656374732E786D6C504B01021400140006080000B670623B0000000000000000000000003500000000000000000000000000230E00006662782F45374635344235342D363743322D343832342D383044432D4334454645303536354442422F76657274696365732E62696E504B01021400140006080800
310
B670623BF270F13306000000040000003600000000000000000000000000760E00006662782F45374635344235342D363743322D343832342D383044432D4334454645303536354442422F747269616E676C65732E62696E504B01021400140006080000B670623B0000000000000000000000003700000000000000000000
310
000000D00E00006662782F45374635344235342D363743322D343832342D383044432D4334454645303536354442422F617474726962757465732E62696E504B01021400140006080800B670623B08DA0BD190000000410100003600000000000000000000000000250F00006662782F45374635344235342D363743322D34
310
3832342D383044432D4334454645303536354442422F6469726563746F72792E786D6C504B01021400140006080800B670623B6378F24DFF000000A00100003B00000000000000000000000000091000006662782F45374635344235342D363743322D343832342D383044432D4334454645303536354442422F7265736F75
310
726365732F636F72652E786D6C504B0506000000000E000E0080040000611100000000
  0
XRECORD
  5
112
102
{ACAD_REACTORS
330
110
102
}
330
110
100
AcDbXrecord
280
     1
270
     1
271
     1
  0
XRECORD
  5
111
102
{ACAD_REACTORS
330
110
102
}
330
110
100
AcDbXrecord
280
     1
270
     1
271
     1
  0
XRECORD
  5
18A
102
{ACAD_REACTORS
330
110
102
}
330
110
100
AcDbXrecord
280
     1
 70
     0
 90
1778669749
  1
9BF507EE-FAF7-4A99-A33D-4EE51894BC40
310
504B03040A0000080000B670623B3DEE336E79000000790000001B0000006175746F6465736B2D64657369676E2D7061636B6167652E786D6C3C3F786D6C2076657273696F6E3D22312E302220656E636F64696E673D227574662D3822203F3E3C666F726D6174733E3C666F726D61743E687474703A2F2F736368656D612E
310
6175746F6465736B2E636F6D2F64657369676E2D7061636B6167652F323030393C2F666F726D61743E3C2F666F726D6174733E504B0304140006080800B670623BD486FD9CA0000000F4000000130000005B436F6E74656E745F54797065735D2E786D6C7D8EC10E82300C865F65E91D8A1E8C310C0EEA1BF002731658846E
310
D98AC1B77784ABF1D8FE5FBFBF75BBCE937A534CCEB38643598122B6FEE978D0B0485F9C41B54DDD7D022595594E1A469170414C76A4D9A4D207E29CF43ECE46F218070CC6BECC4078ACAA135ACF422C856C0E68EA1BF5669944DDD7BCDE7B1F8E415D77AECB980613C2E4AC91FC167A2B244592486606FC29C8FD7F045B9A
310
EF7053A7E60B504B0304140006080800B670623BCA089DFFEC0000007C01000008000000636F72652E786D6C8D90416E83301045AF62CDB632D8402020E32882F604BD80653BC44AB011B6AB1EBF262152BBEB6A467FFE9B197D76FA9EEFE84BAFDE38DB03CD08206DA553C64E3DC470C1474027CE56E7C22F1B202B66DDC3
310
260367D3EAE2B24BD2D9A06D48AA754AEFA2F05E0740F29E9A1EBCBCEA59642286E4F0B76C11F226269DD15797E0188D42CF2346A57DE662F40ABCAEC77628C6120F654571D50C04B7F5B9C1E3997CD4F550BE3745C3F20DE62C98F9755FAE5A04AD801784B498524C8A4F5A75E4D055873772EC0861F966FF03C545FD138A
310
C686B2D8DF7D621E384D8F3C069CE55B16A93C824A75CB8DFF00504B0304140006080800B670623B55019EA25F0000007C00000007000000636E782E786D6C4DCB3B0E80201045D1AD90E915ED2CF8AC45050C11660C8261F98AB1B07AC9C97D42D718D865D3E909258CFD00CCE24AC6E326A164D74DC0B4128928FF326038
310
472BA13128B1252AC747C6BAB984FC68F0B87FE8960A5C09FE86CFB69FBA01504B0304140006080800B670623B68FC0B7272010000D40300000C0000006662782F636F72652E786D6CC5535B6E833010BC8AE5DF0A6C1E8124328E22D29EA01770C0A128602363A31CBFCB234A53A555FA553EC09AD9F5CE8C31DB5DDA060D
310
D2F4B556190E7C8A9154852E6B5565D8D993B7C668C799D1DA7E29C3488956667884316795D1AE5BA0422B2B950554E9522EA0E87B69312A1A5864B82F3E642B7CE12C54F467BF13C55954D20F7CA0A18EB3DE1A1080E621E31BF3D3F1C2C88C73E65C5D2E6C5DC2B4FA544B8379921C36797888BC3C8A032F4E73EA6D927D
310
EA1DF6F42D49F2E8350D5346C666CE6CDD5ED515460A2B4BCC434A375E1078347C0FE22D5D6DE3D50B5D6F2965642CBF6B725DF96493AB958DC245EEDCD6631E809089F8E61622B2A81703E8219C913144F84C09DF070D8140C8561C9BAB8F3340832CAC363130A576376A108D933095FA747AD0CF0B46E64E983A6D0EAE1F
310
CE089F9EF1FB8E70D44255604258581E9D1D75B259C3125A278D37D80B52DAB4A279CEC62F0EFF44DDC43F9454E8469BFF5244960322CBEF41C6FBC83F01504B0304140006080800B670623B0F71DDB67E0000009D0000000B0000006662782F636E782E786D6C4DCCD10A83201886E15B91FFDCA54DB73F502386BB8F5816
310
32D3703976F9ABD1C18E3E78F87855FB990379BBFCF2296AE02706C4C5471A7C9C349475A408A4352AA7B4FEDD80C47E761A7606A3A69CCA72D0E0C6BE8475D3E0E3F3409428EA6B27A84079A782899AA2EC1A7AE3ECCC2FD858CB2D544655BFD2B67BD87C01504B0304140006080800B670623BE134B4FB28010000120200
310
00310000006662782F38353834323741342D343835462D343034322D383541392D4331303331363839454531452F636F72652E786D6C8D515B6EC32010BC0AE22B55850D0EA424C24451959EA0172086A42831583CAA1CBF503B52FB971F16CDCECC0EACD8DFC71BF836215AEF7A481A0C817183D7D65D7A98D3197108F652
310
04EFD31F1A044E8DA6871586525C82CFD3020DDE25E352419DD76601558C264130DCCAA58771F832A36A544E8511AFCDA486ABBA988634A55D7852C4144A00300FA927949C71DABD1D28A29C7D208A6987383B6CD13BC16BB2E1DBE3911C453B0BA5C8D9EA456E758963CFD684674DAA588A64C747FC2118958C86B2C3788B
310
0841B8FB247487D98EB257CC77188BB6D2FF89F2A49F1465EBD2BA5BE2CEB2082511EDDC9042FB7CBA3DC298FBE4430275DE2A9AE1054ADC60CC08E3A29D89E5F9C5714317C7987C28DFBBBA9E0A97B0D97643A568EB864AF95D5FA9759BF207504B0304140006080800B670623B1B8617914E010000330300003000000066
310
62782F38353834323741342D343835462D343034322D383541392D4331303331363839454531452F636E782E786D6CD593C16EC32010447F0571AD6CE3D489D20813A9877E410FBD62D82434182CC055F3F75D1292E692438FBD206B7698593D61BEFD1E2DF982108D773D6D6B460938E5B571FB9ECE6957AD29D90A1EBC4F
310
77364A9C1CA1A759A682EF839FA72269D8C9D92654AD71C72206887E0E0A22CAF926B15E498B01E0AA19451807D01A34B919F16B070157417138917400F2F6FA41FCF0092A45DEE414C19BDC21783E4BD39D891265658C3D8DEA00A3ACE59CBC8678ACB54CB26EEB6BD7839D7E9348BE70AD9C8321B9BCA7F9A4A26C542347
310
DEE050F09802D22BA6749A800A394DD62899107273365E3C82CFC6A55557BC06C10774B7ABE7AEC3B0F34CF06446280E154026D0542C187BA9DAB6628BF7B6DBB0E5A65B3EB1F58631DE64BBE083F7B65CC218087E22CABB042E51D1F2268F1FE12B3EA24D40D63E9CFE00120194D60B9D5BC67FE6D39CDF37E20AF817881F
310
504B0304140006080800B670623B5933D422630500003B100000340000006662782F38353834323741342D343835462D343034322D383541392D4331303331363839454531452F6F626A656374732E786D6CAD575B6FA33814FE2B887D0642934E9B156594264D158D3A534DD4D13E548A0C38942D60649B4EBABF7E3F8321
310
40924EF6928780CDF1B97EE762EFF32E4B8D37CA45C2F21BD3B547A641F39045491EDF98A5DC5AD7A6F1D9F73863B243661A39C9E88DA9B64DDF8B392B0BBD15D12D295339D85DDEFE618890E6D434C2940871638AF08566C426A5641115AF764424B1E3EDCE76ED9AB0CF36E6A47819302D08A7B984A6D8CFC1C5A89572FB
310
CB91E9F89EA3BEFB9EFAD754E3D3544E654F5F7E920B49F2F040D880CDD89D2CEE2E2EA7D6E56432B6269F2E5CEB7679BBB0DCABF168FE693E9FCEEEA6102C240727AD09A75BD3BF876F78127A4EFDA9D5582B7E4CA590E5390D2BFB6161A5B3E618D182E611E2985001691DAB47FDA5AB7CD3F93C566B2DB2BB7D9E55DD13
310
1D468DEECDB3AB290BFE8409E21C54704115AA6AFF68436BFC8DF65E0B184BF5B74418199194272435D224E084BF9B3E481589EFF5D828747285706581E9BB7B7E5D5D911ABFC6EE312DB7659A2A689A7E85EC0DF04FA5A8344BFEA2FCB834E8845895492EAFB541F2BDA0A63FF59C6AD3F7D4637CA13FD68E34B629891172
310
98597F1D183A57B9B75A98FE9765B05BAB7C3C2EBCE0ACA05C2AF8005A4DE09AA7F29216EB9E15397500C6F47CBE77CA7778FE2BD277AF0AE2C693DD6437D1522427B9D8329E2136F6A8FA19A3E6C56ADF0E5F50CF06D48734EDCEBF22F69C56D97EC138153F804B85E6FABFC7AFEFB32E523BE1F3BD372418E363EDCA7548
310
52949E8724474014288D94610BB57C1BEC4C7F854A89CA8E5324F55B871CBC78CE1BBEE3BFE68D6A5589EF3C730474506FCFA8FCF0659516D0ED04580EEA6425581B77CAE797FF4BCECC16EB2FEB926F49481F746159D06D922712BD730FDEAE42BD40F42C7AA5EF3F198F60E86110D6DD20645A9480B795CF95E3E3A659A8
310
C55E724F408873315335CFFB8584874484344D494E59D94869DB90C26A5B64F49C802CAC1D3ABE18A098D3B7444D123D8A9E5AE8F5214F0AE5B2B6E9B575DA3E61CBD3EA2B4009FA940524DD1305FB6A1FB294F14DF0BEA90BA109ECE1481FDC3FFAE8D60E75141700BE82725371B4873751B2DD960265F788137FACE6DD40
310
B575E4F0A5C99F46629D92131467A41EE11ABD8D4CCC039CA0AFB37C93A08B232B8F0AEFCA1E0A1015DF13FC83322B362463652ECF71D3A8B1A7D1BE65DE1D62C44F22C317D35F574FEB16153BA2D13E543D10A80E74C4A65E78A6B7CBCBD1D5DD9DB59C2DAFACC96C3AB566E3F1C29ADCDD5DBAD7D3C9ED7C822ED74F80A6
310
41755310DE4443F44A9E68373FADF6596BFA0F440AE7BECE2727AE9F4F2B1B53B1E7E00CF0DD1E5C65454A339A4BA2D0FBA05ED2EF0443458F47BDBFCA484CCFE0F2ED7E3DD0013B679C7B5499467F0ECEEADDB9CA85A34CE44B99053949D2C1416DB85DE4B136BB7165FBAC0B7AB3542BED4F8CA182A549847A1319316519
310
95A83A67147B9E5101C47487F2485F1ECE38FD568F839204296D3479219888530154036E6528FBFBC66F98E0D4107563A2D7D9AFF8D389681A08F58D89F22693900A3B407754734FC51C10C010D6D640809EE4718AC1BA3ED4AEDB53CA37283F68805A7E4B72CEB0A4EDEAD5DD8C14059A76AFAA56BA6901E13F32BC51C720
310
12AF41295B5BF61BAD3195181FB506E6B40F4C10AF5AF40EF9F5B159AE5DD1F43C72D635E94310D45C2D49785C5D0B94D3B54AB3C5A38349C0587D338AB48C11CBF339599C02CCA54A70A008A8D03C0B2201D5F9EFCF8F9CE12A9A19CB0410789EB32C63B95ECCF455D658BFE0621A3DA32C5075FB101723D77DAE867E7D0F
310
D90444509B44E2151B4DC2290B065803200FBAA9BE9D392A0603F2D5C2D00D6302A615680F66D2FA166E2079D4C551A54AB758161FCEFD4E450A14704CECFEDF504B0304140006080000B670623B000000000000000000000000350000006662782F38353834323741342D343835462D343034322D383541392D4331303331
310
363839454531452F76657274696365732E62696E504B0304140006080800B670623BF270F1330600000004000000360000006662782F38353834323741342D343835462D343034322D383541392D4331303331363839454531452F747269616E676C65732E62696E636660600000504B0304140006080000B670623B000000
310
000000000000000000370000006662782F38353834323741342D343835462D343034322D383541392D4331303331363839454531452F617474726962757465732E62696E504B0304140006080800B670623B08DA0BD19000000041010000360000006662782F38353834323741342D343835462D343034322D383541392D43
310
31303331363839454531452F6469726563746F72792E786D6C858F410AC3201045AF22B36F53E9A60B35CBEEBAE80D244E44489C6234F4F835464A48035D0DF398FF9F8AF63D0E6CC63039F212F8F9020C7D47C6792B21C5FE7403D62A1188E2E60C98D7234A5830286103A55745067B9D86B8A3CF9C7F90C11DE607FB1443
310
96D7B6A82D282E9A152AD114D5EF2CB866EEE831B8EEA07A7BB5A8D7D61A2BAAEB7FD5F70921FF497D00504B0304140006080800B670623BD9A3B367FE000000A00100003B0000006662782F38353834323741342D343835462D343034322D383541392D4331303331363839454531452F7265736F75726365732F636F7265
310
2E786D6C8D504B6E833010BD0A9A6D65B01D0201194711694FD00B586642AD043BF2A7EAF16B122AB5BB6E6646EFA3797AE2F8B5DC8A4FF4C1383B002B291468B59B8C9D0748F1420E501CA5F0CEC55F3228AC5A708015062966EFD27D83B4B3116DCCA875136EA00A012314FA968F0182FEC045952AC5AC08D7F2AEF455CD
310
58B232D3592745883E07289E4FD609D26370C96B0CA27AB252A464A64D63A6FCD35C0C7A904D73EE467EE664DCD58CD4ED4849D79C5A723ED1B7A61977AF2D6F45B59AA58866F9C9A83DAA8813484E6947182394BFB3BAA7FBBEDEBFD0434FA9A856F91F53BA4FFF342563E38E6F719FB60092E5200F428A6AED2BAF479979
310
AFDDCA6F504B010214000A0000080000B670623B3DEE336E79000000790000001B00000000000000000000000000000000006175746F6465736B2D64657369676E2D7061636B6167652E786D6C504B01021400140006080800B670623BD486FD9CA0000000F40000001300000000000000000000000000B20000005B436F6E
310
74656E745F54797065735D2E786D6C504B01021400140006080800B670623BCA089DFFEC0000007C010000080000000000000000000000000083010000636F72652E786D6C504B01021400140006080800B670623B55019EA25F0000007C000000070000000000000000000000000095020000636E782E786D6C504B010214
310
00140006080800B670623B68FC0B7272010000D40300000C00000000000000000000000000190300006662782F636F72652E786D6C504B01021400140006080800B670623B0F71DDB67E0000009D0000000B00000000000000000000000000B50400006662782F636E782E786D6C504B01021400140006080800B670623BE1
310
34B4FB280100001202000031000000000000000000000000005C0500006662782F38353834323741342D343835462D343034322D383541392D4331303331363839454531452F636F72652E786D6C504B01021400140006080800B670623B1B8617914E010000330300003000000000000000000000000000D3060000666278
310
2F38353834323741342D343835462D343034322D383541392D4331303331363839454531452F636E782E786D6C504B01021400140006080800B670623B5933D422630500003B10000034000000000000000000000000006F0800006662782F38353834323741342D343835462D343034322D383541392D4331303331363839
310
454531452F6F626A656374732E786D6C504B01021400140006080000B670623B0000000000000000000000003500000000000000000000000000240E00006662782F38353834323741342D343835462D343034322D383541392D4331303331363839454531452F76657274696365732E62696E504B01021400140006080800
310
B670623BF270F13306000000040000003600000000000000000000000000770E00006662782F38353834323741342D343835462D343034322D383541392D4331303331363839454531452F747269616E676C65732E62696E504B01021400140006080000B670623B0000000000000000000000003700000000000000000000
310
000000D10E00006662782F38353834323741342D343835462D343034322D383541392D4331303331363839454531452F617474726962757465732E62696E504B01021400140006080800B670623B08DA0BD190000000410100003600000000000000000000000000260F00006662782F38353834323741342D343835462D34
310
3034322D383541392D4331303331363839454531452F6469726563746F72792E786D6C504B01021400140006080800B670623BD9A3B367FE000000A00100003B000000000000000000000000000A1000006662782F38353834323741342D343835462D343034322D383541392D4331303331363839454531452F7265736F75
310
726365732F636F72652E786D6C504B0506000000000E000E0080040000611100000000
  0
XRECORD
  5
113
102
{ACAD_REACTORS
330
110
102
}
330
110
100
AcDbXrecord
280
     1
270
     1
271
     1
  0
XRECORD
  5
114
102
{ACAD_REACTORS
330
110
102
}
330
110
100
AcDbXrecord
280
     1
270
     1
271
     1
  0
CELLSTYLEMAP
  5
9FB2
102
{ACAD_REACTORS
330
104
102
}
330
104
100
AcDbCellStyleMap
 90
        3
300
CELLSTYLE
  1
TABLEFORMAT_BEGIN
 90
        5
170
     1
 91
        0
 92
    32768
 62
   257
 93
        1
300
CONTENTFORMAT
  1
CONTENTFORMAT_BEGIN
 90
        0
 91
        0
 92
      512
 93
        0
300

 40
0.0
140
1.0
 94
        5
 62
     0
340
11
144
0.25
309
CONTENTFORMAT_END
171
     1
301
MARGIN
  1
CELLMARGIN_BEGIN
 40
0.06
 40
0.06
 40
0.06
 40
0.06
 40
0.18
 40
0.18
309
CELLMARGIN_END
 94
        6
 95
        1
302
GRIDFORMAT
  1
GRIDFORMAT_BEGIN
 90
        0
 91
        1
 62
     0
 92
       -2
340
0
 93
        0
 40
0.045
309
GRIDFORMAT_END
 95
        2
302
GRIDFORMAT
  1
GRIDFORMAT_BEGIN
 90
        0
 91
        1
 62
     0
 92
       -2
340
0
 93
        0
 40
0.045
309
GRIDFORMAT_END
 95
        4
302
GRIDFORMAT
  1
GRIDFORMAT_BEGIN
 90
        0
 91
        1
 62
     0
 92
       -2
340
0
 93
        0
 40
0.045
309
GRIDFORMAT_END
 95
        8
302
GRIDFORMAT
  1
GRIDFORMAT_BEGIN
 90
        0
 91
        1
 62
     0
 92
       -2
340
0
 93
        0
 40
0.045
309
GRIDFORMAT_END
 95
       16
302
GRIDFORMAT
  1
GRIDFORMAT_BEGIN
 90
        0
 91
        1
 62
     0
 92
       -2
340
0
 93
        0
 40
0.045
309
GRIDFORMAT_END
 95
       32
302
GRIDFORMAT
  1
GRIDFORMAT_BEGIN
 90
        0
 91
        1
 62
     0
 92
       -2
340
0
 93
        0
 40
0.045
309
GRIDFORMAT_END
309
TABLEFORMAT_END
  1
CELLSTYLE_BEGIN
 90
        1
 91
        1
300
_TITLE
309
CELLSTYLE_END
300
CELLSTYLE
  1
TABLEFORMAT_BEGIN
 90
        5
170
     1
 91
        0
 92
        0
 62
   257
 93
        1
300
CONTENTFORMAT
  1
CONTENTFORMAT_BEGIN
 90
        0
 91
        0
 92
      512
 93
        0
300

 40
0.0
140
1.0
 94
        5
 62
     0
340
11
144
0.18
309
CONTENTFORMAT_END
171
     1
301
MARGIN
  1
CELLMARGIN_BEGIN
 40
0.06
 40
0.06
 40
0.06
 40
0.06
 40
0.18
 40
0.18
309
CELLMARGIN_END
 94
        6
 95
        1
302
GRIDFORMAT
  1
GRIDFORMAT_BEGIN
 90
        0
 91
        1
 62
     0
 92
       -2
340
0
 93
        0
 40
0.045
309
GRIDFORMAT_END
 95
        2
302
GRIDFORMAT
  1
GRIDFORMAT_BEGIN
 90
        0
 91
        1
 62
     0
 92
       -2
340
0
 93
        0
 40
0.045
309
GRIDFORMAT_END
 95
        4
302
GRIDFORMAT
  1
GRIDFORMAT_BEGIN
 90
        0
 91
        1
 62
     0
 92
       -2
340
0
 93
        0
 40
0.045
309
GRIDFORMAT_END
 95
        8
302
GRIDFORMAT
  1
GRIDFORMAT_BEGIN
 90
        0
 91
        1
 62
     0
 92
       -2
340
0
 93
        0
 40
0.045
309
GRIDFORMAT_END
 95
       16
302
GRIDFORMAT
  1
GRIDFORMAT_BEGIN
 90
        0
 91
        1
 62
     0
 92
       -2
340
0
 93
        0
 40
0.045
309
GRIDFORMAT_END
 95
       32
302
GRIDFORMAT
  1
GRIDFORMAT_BEGIN
 90
        0
 91
        1
 62
     0
 92
       -2
340
0
 93
        0
 40
0.045
309
GRIDFORMAT_END
309
TABLEFORMAT_END
  1
CELLSTYLE_BEGIN
 90
        2
 91
        1
300
_HEADER
309
CELLSTYLE_END
300
CELLSTYLE
  1
TABLEFORMAT_BEGIN
 90
        5
170
     1
 91
        0
 92
        0
 62
   257
 93
        1
300
CONTENTFORMAT
  1
CONTENTFORMAT_BEGIN
 90
        0
 91
        0
 92
      512
 93
        0
300

 40
0.0
140
1.0
 94
        2
 62
     0
340
11
144
0.18
309
CONTENTFORMAT_END
171
     1
301
MARGIN
  1
CELLMARGIN_BEGIN
 40
0.06
 40
0.06
 40
0.06
 40
0.06
 40
0.18
 40
0.18
309
CELLMARGIN_END
 94
        6
 95
        1
302
GRIDFORMAT
  1
GRIDFORMAT_BEGIN
 90
        0
 91
        1
 62
     0
 92
       -2
340
0
 93
        0
 40
0.045
309
GRIDFORMAT_END
 95
        2
302
GRIDFORMAT
  1
GRIDFORMAT_BEGIN
 90
        0
 91
        1
 62
     0
 92
       -2
340
0
 93
        0
 40
0.045
309
GRIDFORMAT_END
 95
        4
302
GRIDFORMAT
  1
GRIDFORMAT_BEGIN
 90
        0
 91
        1
 62
     0
 92
       -2
340
0
 93
        0
 40
0.045
309
GRIDFORMAT_END
 95
        8
302
GRIDFORMAT
  1
GRIDFORMAT_BEGIN
 90
        0
 91
        1
 62
     0
 92
       -2
340
0
 93
        0
 40
0.045
309
GRIDFORMAT_END
 95
       16
302
GRIDFORMAT
  1
GRIDFORMAT_BEGIN
 90
        0
 91
        1
 62
     0
 92
       -2
340
0
 93
        0
 40
0.045
309
GRIDFORMAT_END
 95
       32
302
GRIDFORMAT
  1
GRIDFORMAT_BEGIN
 90
        0
 91
        1
 62
     0
 92
       -2
340
0
 93
        0
 40
0.045
309
GRIDFORMAT_END
309
TABLEFORMAT_END
  1
CELLSTYLE_BEGIN
 90
        3
 91
        2
300
_DATA
309
CELLSTYLE_END
  0
ENDSEC
  0
SECTION
  2
ACDSDATA
 70
     2
 71
     8
  0
ACDSSCHEMA
 90
        0
  1
AcDb_Thumbnail_Schema
  2
AcDbDs::ID
280
    10
 91
        8
  2
Thumbnail_Data
280
    15
 91
        0
101
ACDSRECORD
 95
        0
 90
        1
  2
AcDbDs::TreatedAsObjectData
280
     1
291
     1
101
ACDSRECORD
 95
        0
 90
        2
  2
AcDbDs::Legacy
280
     1
291
     1
101
ACDSRECORD
  1
AcDbDs::ID
 90
        3
  2
AcDs:Indexable
280
     1
291
     1
101
ACDSRECORD
  1
AcDbDs::ID
 90
        4
  2
AcDbDs::HandleAttribute
280
     7
282
     1
  0
ACDSSCHEMA
 90
        1
  1
AcDbDs::TreatedAsObjectDataSchema
  2
AcDbDs::TreatedAsObjectData
280
     1
 91
        0
  0
ACDSSCHEMA
 90
        2
  1
AcDbDs::LegacySchema
  2
AcDbDs::Legacy
280
     1
 91
        0
  0
ACDSSCHEMA
 90
        3
  1
AcDbDs::IndexedPropertySchema
  2
AcDs:Indexable
280
     1
 91
        0
  0
ACDSSCHEMA
 90
        4
  1
AcDbDs::HandleAttributeSchema
  2
AcDbDs::HandleAttribute
280
     7
 91
        1
284
     1
  0
ACDSRECORD
 90
        0
  2
AcDbDs::ID
280
    10
320
22
  2
Thumbnail_Data
280
    15
 94
     1358
310
89504E470D0A1A0A0000000D4948445200000100000000670803000000D82A6C0200000300504C5445949494FFFFFF9494940000000000000000000000000000000000000000000000000000330000660000990000CC0000FF0033000033330033660033990033CC0033FF0066000066330066660066990066CC0066FF0099
310
000099330099660099990099CC0099FF00CC0000CC3300CC6600CC9900CCCC00CCFF00FF0000FF3300FF6600FF9900FFCC00FFFF3300003300333300663300993300CC3300FF3333003333333333663333993333CC3333FF3366003366333366663366993366CC3366FF3399003399333399663399993399CC3399FF33CC00
310
33CC3333CC6633CC9933CCCC33CCFF33FF0033FF3333FF6633FF9933FFCC33FFFF6600006600336600666600996600CC6600FF6633006633336633666633996633CC6633FF6666006666336666666666996666CC6666FF6699006699336699666699996699CC6699FF66CC0066CC3366CC6666CC9966CCCC66CCFF66FF0066
310
FF3366FF6666FF9966FFCC66FFFF9900009900339900669900999900CC9900FF9933009933339933669933999933CC9933FF9966009966339966669966999966CC9966FF9999009999339999669999999999CC9999FF99CC0099CC3399CC6699CC9999CCCC99CCFF99FF0099FF3399FF6699FF9999FFCC99FFFFCC0000CC00
310
33CC0066CC0099CC00CCCC00FFCC3300CC3333CC3366CC3399CC33CCCC33FFCC6600CC6633CC6666CC6699CC66CCCC66FFCC9900CC9933CC9966CC9999CC99CCCC99FFCCCC00CCCC33CCCC66CCCC99CCCCCCCCCCFFCCFF00CCFF33CCFF66CCFF99CCFFCCCCFFFFFF0000FF0033FF0066FF0099FF00CCFF00FFFF3300FF3333
310
FF3366FF3399FF33CCFF33FFFF6600FF6633FF6666FF6699FF66CCFF66FFFF9900FF9933FF9966FF9999FF99CCFF99FFFFCC00FFCC33FFCC66FFCC99FFCCCCFFCCFFFFFF00FFFF33FFFF66FFFF99FFFFCCFFFFFF0000000D0D0D1A1A1A2828283535354343435050505D5D5D6B6B6B787878868686939393A1A1A1AEAEAEBB
310
BBBBC9C9C9D6D6D6E4E4E4F1F1F1FFFFFF00000000000000000000000000000000000000000000000000000000000018B0B0CD000002094944415478DAEDDC5B6EC320108561F6BFCCB3924629106C0F1658CD43CF3F96223551FA305F60B853CA571FBD9E027E747D6800AFD7E1832234C0D90357052A024CE058026002A7
310
AC470438BDA7095C9A3D9A40025C6215AB3310F4FC2492400480EA0E457D7F541A08073F24810408E30409882E309907C1007CE2870ACC67C2200209F00E3D9C0B6508DC4D0623046AE88A463F2480385073011D015802D2D292903140E96B20B74B62B60203407BAF421248805500578175005381045807F014D801B01448
310
801D0047813D00438104D803F013D805B01348805D0037817D80F62F6C001F8107005E024F00AC2A419D04DC07306B09F600EC5A82F3A4B844AA04E15911544B10C58F6A09C61FFC1DBC846A09AEBB8296CE4BD91481EB62D8E281312B8107F1FB54826053D03A40619FB54C8104488114488014488104A00B486801C12B41
310
DB64CD062057021D8A00F0029A3E81F6AB205C52FCACABF4F3162A122C07F4EE90820B8900DD8076EB0E322156008D29100670C881BC4BC8FA7193DE24D02E61ABA381FE07EE523EF55F9F59021A40BF7F0D0B30A4016C091014A0E6C02E410450DB58600B302FD96ABB2A6A257005981F26D3D00AF876046F4638DBFB8B0C
310
4B800E25402800416E64D6AC9B3B6E302BC63D21ED3CB655607AB9C65A8399005905FE7BFC7FF5356300E7D1E0DA0E6AE349D12500153C80EFAAC85A1284037CB702FC0061E24FAEFFEBADE20000000049454E44AE426082
  0
ENDSEC
  0
EOF
