  0
SECTION
  2
HEADER
  9
$ACADVER
  1
AC1032
  9
$ACADMAINTVER
 90
      197
  9
$DWGCODEPAGE
  3
ANSI_1252
  9
$LASTSAVEDBY
  1
gregb
  9
$REQUIREDVERSIONS
160
                 0
  9
$INSBASE
 10
0.0
 20
0.0
 30
0.0
  9
$EXTMIN
 10
118717.721714083
 20
89275.42742342804
 30
0.0
  9
$EXTMAX
 10
124888.3506885207
 20
91179.03744998089
 30
0.0
  9
$LIMMIN
 10
0.0
 20
0.0
  9
$LIMMAX
 10
12.0
 20
9.0
  9
$ORTHOMODE
 70
     1
  9
$REGENMODE
 70
     1
  9
$FILLMODE
 70
     1
  9
$QTEXTMODE
 70
     0
  9
$MIRRTEXT
 70
     0
  9
$LTSCALE
 40
1.0
  9
$ATTMODE
 70
     1
  9
$TEXTSIZE
 40
0.2
  9
$TRACEWID
 40
0.05
  9
$TEXTSTYLE
  7
Standard
  9
$CLAYER
  8
freecads.com
  9
$CELTYPE
  6
ByLayer
  9
$CECOLOR
 62
   256
  9
$CELTSCALE
 40
1.0
  9
$DISPSILH
 70
     1
  9
$DIMSCALE
 40
1.0
  9
$DIMASZ
 40
0.18
  9
$DIMEXO
 40
0.0625
  9
$DIMDLI
 40
0.38
  9
$DIMRND
 40
0.0
  9
$DIMDLE
 40
0.0
  9
$DIMEXE
 40
0.18
  9
$DIMTP
 40
0.0
  9
$DIMTM
 40
0.0
  9
$DIMTXT
 40
0.18
  9
$DIMCEN
 40
0.09
  9
$DIMTSZ
 40
0.0
  9
$DIMTOL
 70
     0
  9
$DIMLIM
 70
     0
  9
$DIMTIH
 70
     1
  9
$DIMTOH
 70
     1
  9
$DIMSE1
 70
     0
  9
$DIMSE2
 70
     0
  9
$DIMTAD
 70
     0
  9
$DIMZIN
 70
     0
  9
$DIMBLK
  1

  9
$DIMASO
 70
     1
  9
$DIMSHO
 70
     1
  9
$DIMPOST
  1

  9
$DIMAPOST
  1

  9
$DIMALT
 70
     0
  9
$DIMALTD
 70
     2
  9
$DIMALTF
 40
25.4
  9
$DIMLFAC
 40
1.0
  9
$DIMTOFL
 70
     0
  9
$DIMTVP
 40
0.0
  9
$DIMTIX
 70
     0
  9
$DIMSOXD
 70
     0
  9
$DIMSAH
 70
     0
  9
$DIMBLK1
  1

  9
$DIMBLK2
  1

  9
$DIMSTYLE
  2
Standard
  9
$DIMCLRD
 70
     0
  9
$DIMCLRE
 70
     0
  9
$DIMCLRT
 70
     0
  9
$DIMTFAC
 40
1.0
  9
$DIMGAP
 40
0.09
  9
$DIMJUST
 70
     0
  9
$DIMSD1
 70
     0
  9
$DIMSD2
 70
     0
  9
$DIMTOLJ
 70
     1
  9
$DIMTZIN
 70
     0
  9
$DIMALTZ
 70
     0
  9
$DIMALTTZ
 70
     0
  9
$DIMUPT
 70
     0
  9
$DIMDEC
 70
     4
  9
$DIMTDEC
 70
     4
  9
$DIMALTU
 70
     2
  9
$DIMALTTD
 70
     2
  9
$DIMTXSTY
  7
Standard
  9
$DIMAUNIT
 70
     0
  9
$DIMADEC
 70
     0
  9
$DIMALTRND
 40
0.0
  9
$DIMAZIN
 70
     0
  9
$DIMDSEP
 70
    46
  9
$DIMATFIT
 70
     3
  9
$DIMFRAC
 70
     0
  9
$DIMLDRBLK
  1

  9
$DIMLUNIT
 70
     2
  9
$DIMLWD
 70
    -2
  9
$DIMLWE
 70
    -2
  9
$DIMTMOVE
 70
     0
  9
$DIMFXL
 40
1.0
  9
$DIMFXLON
 70
     0
  9
$DIMJOGANG
 40
0.7853981633974483
  9
$DIMTFILL
 70
     0
  9
$DIMTFILLCLR
 70
     0
  9
$DIMARCSYM
 70
     0
  9
$DIMLTYPE
  6

  9
$DIMLTEX1
  6

  9
$DIMLTEX2
  6

  9
$DIMTXTDIRECTION
 70
     0
  9
$LUNITS
 70
     2
  9
$LUPREC
 70
     4
  9
$SKETCHINC
 40
0.1
  9
$FILLETRAD
 40
0.0
  9
$AUNITS
 70
     0
  9
$AUPREC
 70
     0
  9
$MENU
  1
.
  9
$ELEVATION
 40
0.0
  9
$PELEVATION
 40
0.0
  9
$THICKNESS
 40
0.0
  9
$LIMCHECK
 70
     0
  9
$CHAMFERA
 40
0.0
  9
$CHAMFERB
 40
0.0
  9
$CHAMFERC
 40
0.0
  9
$CHAMFERD
 40
0.0
  9
$SKPOLY
 70
     0
  9
$TDCREATE
 40
2458157.371250000
  9
$TDUCREATE
 40
2458157.287916667
  9
$TDUPDATE
 40
2460988.565358796
  9
$TDUUPDATE
 40
2460988.482025463
  9
$TDINDWG
 40
0.2020138889
  9
$TDUSRTIMER
 40
0.2020138889
  9
$USRTIMER
 70
     1
  9
$ANGBASE
 50
0.0
  9
$ANGDIR
 70
     0
  9
$PDMODE
 70
     0
  9
$PDSIZE
 40
0.0
  9
$PLINEWID
 40
0.0
  9
$SPLFRAME
 70
     0
  9
$SPLINETYPE
 70
     6
  9
$SPLINESEGS
 70
     8
  9
$HANDSEED
  5
23E54
  9
$SURFTAB1
 70
     6
  9
$SURFTAB2
 70
     6
  9
$SURFTYPE
 70
     6
  9
$SURFU
 70
     6
  9
$SURFV
 70
     6
  9
$UCSBASE
  2

  9
$UCSNAME
  2

  9
$UCSORG
 10
0.0
 20
0.0
 30
0.0
  9
$UCSXDIR
 10
1.0
 20
0.0
 30
0.0
  9
$UCSYDIR
 10
0.0
 20
1.0
 30
0.0
  9
$UCSORTHOREF
  2

  9
$UCSORTHOVIEW
 70
     0
  9
$UCSORGTOP
 10
0.0
 20
0.0
 30
0.0
  9
$UCSORGBOTTOM
 10
0.0
 20
0.0
 30
0.0
  9
$UCSORGLEFT
 10
0.0
 20
0.0
 30
0.0
  9
$UCSORGRIGHT
 10
0.0
 20
0.0
 30
0.0
  9
$UCSORGFRONT
 10
0.0
 20
0.0
 30
0.0
  9
$UCSORGBACK
 10
0.0
 20
0.0
 30
0.0
  9
$PUCSBASE
  2

  9
$PUCSNAME
  2

  9
$PUCSORG
 10
0.0
 20
0.0
 30
0.0
  9
$PUCSXDIR
 10
1.0
 20
0.0
 30
0.0
  9
$PUCSYDIR
 10
0.0
 20
1.0
 30
0.0
  9
$PUCSORTHOREF
  2

  9
$PUCSORTHOVIEW
 70
     0
  9
$PUCSORGTOP
 10
0.0
 20
0.0
 30
0.0
  9
$PUCSORGBOTTOM
 10
0.0
 20
0.0
 30
0.0
  9
$PUCSORGLEFT
 10
0.0
 20
0.0
 30
0.0
  9
$PUCSORGRIGHT
 10
0.0
 20
0.0
 30
0.0
  9
$PUCSORGFRONT
 10
0.0
 20
0.0
 30
0.0
  9
$PUCSORGBACK
 10
0.0
 20
0.0
 30
0.0
  9
$USERI1
 70
     0
  9
$USERI2
 70
     0
  9
$USERI3
 70
     0
  9
$USERI4
 70
     0
  9
$USERI5
 70
     0
  9
$USERR1
 40
0.0
  9
$USERR2
 40
0.0
  9
$USERR3
 40
0.0
  9
$USERR4
 40
0.0
  9
$USERR5
 40
0.0
  9
$WORLDVIEW
 70
     1
  9
$SHADEDGE
 70
     3
  9
$SHADEDIF
 70
    70
  9
$TILEMODE
 70
     1
  9
$MAXACTVP
 70
    64
  9
$PINSBASE
 10
0.0
 20
0.0
 30
0.0
  9
$PLIMCHECK
 70
     0
  9
$PEXTMIN
 10
0.0
 20
0.0
 30
0.0
  9
$PEXTMAX
 10
0.0
 20
0.0
 30
0.0
  9
$PLIMMIN
 10
0.0
 20
0.0
  9
$PLIMMAX
 10
12.0
 20
9.0
  9
$UNITMODE
 70
     0
  9
$VISRETAIN
 70
     1
  9
$PLINEGEN
 70
     0
  9
$PSLTSCALE
 70
     1
  9
$TREEDEPTH
 70
  3020
  9
$CMLSTYLE
  2
Standard
  9
$CMLJUST
 70
     0
  9
$CMLSCALE
 40
1.0
  9
$PROXYGRAPHICS
 70
     1
  9
$MEASUREMENT
 70
     0
  9
$CELWEIGHT
370
    -1
  9
$ENDCAPS
280
     0
  9
$JOINSTYLE
280
     0
  9
$LWDISPLAY
290
     0
  9
$INSUNITS
 70
     1
  9
$HYPERLINKBASE
  1

  9
$STYLESHEET
  1
monochrome.ctb
  9
$XEDIT
290
     1
  9
$CEPSNTYPE
380
     0
  9
$PSTYLEMODE
290
     1
  9
$FINGERPRINTGUID
  2
{358EB121-6EE0-9143-8A3E-6E8E8869FDA6}
  9
$VERSIONGUID
  2
{5FADBE2F-BBC5-774D-A1AF-66E0258B815F}
  9
$EXTNAMES
290
     1
  9
$PSVPSCALE
 40
0.0
  9
$OLESTARTUP
290
     0
  9
$SORTENTS
280
   127
  9
$INDEXCTL
280
     0
  9
$HIDETEXT
280
     1
  9
$XCLIPFRAME
280
     2
  9
$HALOGAP
280
     0
  9
$OBSCOLOR
 70
   257
  9
$OBSLTYPE
280
     0
  9
$INTERSECTIONDISPLAY
280
     0
  9
$INTERSECTIONCOLOR
 70
   257
  9
$DIMASSOC
280
     2
  9
$PROJECTNAME
  1

  9
$CAMERADISPLAY
290
     0
  9
$LENSLENGTH
 40
50.0
  9
$CAMERAHEIGHT
 40
0.0
  9
$STEPSPERSEC
 40
2.0
  9
$STEPSIZE
 40
6.0
  9
$3DDWFPREC
 40
2.0
  9
$PSOLWIDTH
 40
0.25
  9
$PSOLHEIGHT
 40
4.0
  9
$LOFTANG1
 40
1.570796326794896
  9
$LOFTANG2
 40
1.570796326794896
  9
$LOFTMAG1
 40
0.0
  9
$LOFTMAG2
 40
0.0
  9
$LOFTPARAM
 70
     7
  9
$LOFTNORMALS
280
     1
  9
$LATITUDE
 40
37.795
  9
$LONGITUDE
 40
-122.394
  9
$NORTHDIRECTION
 40
0.0
  9
$TIMEZONE
 70
 -8000
  9
$LIGHTGLYPHDISPLAY
280
     1
  9
$TILEMODELIGHTSYNCH
280
     1
  9
$CMATERIAL
347
96
  9
$SOLIDHIST
280
     0
  9
$SHOWHIST
280
     1
  9
$DWFFRAME
280
     2
  9
$DGNFRAME
280
     0
  9
$REALWORLDSCALE
290
     1
  9
$INTERFERECOLOR
 62
     1
  9
$INTERFEREOBJVS
345
A3
  9
$INTERFEREVPVS
346
A0
  9
$CSHADOW
280
     0
  9
$SHADOWPLANELOCATION
 40
0.0
  0
ENDSEC
  0
SECTION
  2
CLASSES
  0
CLASS
  1
ACDBDICTIONARYWDFLT
  2
AcDbDictionaryWithDefault
  3
ObjectDBX Classes
 90
        0
 91
        1
280
     0
281
     0
  0
CLASS
  1
DICTIONARYVAR
  2
AcDbDictionaryVar
  3
ObjectDBX Classes
 90
        0
 91
       10
280
     0
281
     0
  0
CLASS
  1
TABLESTYLE
  2
AcDbTableStyle
  3
ObjectDBX Classes
 90
     4095
 91
        1
280
     0
281
     0
  0
CLASS
  1
MATERIAL
  2
AcDbMaterial
  3
ObjectDBX Classes
 90
     1153
 91
        3
280
     0
281
     0
  0
CLASS
  1
VISUALSTYLE
  2
AcDbVisualStyle
  3
ObjectDBX Classes
 90
     4095
 91
       25
280
     0
281
     0
  0
CLASS
  1
SCALE
  2
AcDbScale
  3
ObjectDBX Classes
 90
     1153
 91
       35
280
     0
281
     0
  0
CLASS
  1
MLEADERSTYLE
  2
AcDbMLeaderStyle
  3
ACDB_MLEADERSTYLE_CLASS
 90
     4095
 91
        1
280
     0
281
     0
  0
CLASS
  1
CELLSTYLEMAP
  2
AcDbCellStyleMap
  3
ObjectDBX Classes
 90
     1152
 91
        2
280
     0
281
     0
  0
CLASS
  1
EXACXREFPANELOBJECT
  2
ExAcXREFPanelObject
  3
EXAC_ESW
 90
     1025
 91
        1
280
     0
281
     0
  0
CLASS
  1
NPOCOLLECTION
  2
AcDbImpNonPersistentObjectsCollection
  3
ObjectDBX Classes
 90
     1153
 91
        1
280
     0
281
     0
  0
CLASS
  1
LAYER_INDEX
  2
AcDbLayerIndex
  3
ObjectDBX Classes
 90
        0
 91
        0
280
     0
281
     0
  0
CLASS
  1
SPATIAL_INDEX
  2
AcDbSpatialIndex
  3
ObjectDBX Classes
 90
        0
 91
        0
280
     0
281
     0
  0
CLASS
  1
IDBUFFER
  2
AcDbIdBuffer
  3
ObjectDBX Classes
 90
        0
 91
        0
280
     0
281
     0
  0
CLASS
  1
ACDBSECTIONVIEWSTYLE
  2
AcDbSectionViewStyle
  3
ObjectDBX Classes
 90
     1025
 91
        2
280
     0
281
     0
  0
CLASS
  1
ACDBDETAILVIEWSTYLE
  2
AcDbDetailViewStyle
  3
ObjectDBX Classes
 90
     1025
 91
        2
280
     0
281
     0
  0
CLASS
  1
SORTENTSTABLE
  2
AcDbSortentsTable
  3
ObjectDBX Classes
 90
        0
 91
        1
280
     0
281
     0
  0
CLASS
  1
WIPEOUT
  2
AcDbWipeout
  3
WipeOut|Product Desc: Object Enabler for WipeOut entity | Company: Autodesk, Inc. | WEB Address: www.autodesk.com
 90
     2175
 91
        0
280
     0
281
     1
  0
CLASS
  1
WIPEOUTVARIABLES
  2
AcDbWipeoutVariables
  3
"WipeOut|Product Desc:     WipeOut Dbx Application|Company:          Autodesk, Inc.|WEB Address:      www.autodesk.com"
 90
        0
 91
        1
280
     0
281
     0
  0
CLASS
  1
DIMASSOC
  2
AcDbDimAssoc
  3
"AcDbDimAssoc|Product Desc:     AcDim ARX App For Dimension|Company:          Autodesk, Inc.|WEB Address:      www.autodesk.com"
 90
        0
 91
        0
280
     0
281
     0
  0
CLASS
  1
ACAD_EVALUATION_GRAPH
  2
AcDbEvalGraph
  3
ObjectDBX Classes
 90
     1153
 91
        0
280
     0
281
     0
  0
CLASS
  1
BLOCKVISIBILITYPARAMETER
  2
AcDbBlockVisibilityParameter
  3
ObjectDBX Classes
 90
     1153
 91
        0
280
     0
281
     0
  0
CLASS
  1
BLOCKVISIBILITYGRIP
  2
AcDbBlockVisibilityGrip
  3
ObjectDBX Classes
 90
     1153
 91
        0
280
     0
281
     0
  0
CLASS
  1
BLOCKGRIPLOCATIONCOMPONENT
  2
AcDbBlockGripExpr
  3
ObjectDBX Classes
 90
     1153
 91
        0
280
     0
281
     0
  0
CLASS
  1
ACDB_DYNAMICBLOCKPURGEPREVENTER_VERSION
  2
AcDbDynamicBlockPurgePreventer
  3
ObjectDBX Classes
 90
     1153
 91
        0
280
     0
281
     0
  0
CLASS
  1
ACDB_BLOCKREPRESENTATION_DATA
  2
AcDbBlockRepresentationData
  3
ObjectDBX Classes
 90
     1153
 91
        0
280
     0
281
     0
  0
CLASS
  1
SPATIAL_FILTER
  2
AcDbSpatialFilter
  3
ObjectDBX Classes
 90
        0
 91
        0
280
     0
281
     0
  0
CLASS
  1
BLOCKLINEARPARAMETER
  2
AcDbBlockLinearParameter
  3
ObjectDBX Classes
 90
     1153
 91
        0
280
     0
281
     0
  0
CLASS
  1
BLOCKSCALEACTION
  2
AcDbBlockScaleAction
  3
ObjectDBX Classes
 90
     1153
 91
        0
280
     0
281
     0
  0
CLASS
  1
BLOCKSTRETCHACTION
  2
AcDbBlockStretchAction
  3
ObjectDBX Classes
 90
     1153
 91
        0
280
     0
281
     0
  0
CLASS
  1
BLOCKMOVEACTION
  2
AcDbBlockMoveAction
  3
ObjectDBX Classes
 90
     1153
 91
        0
280
     0
281
     0
  0
CLASS
  1
BLOCKLINEARGRIP
  2
AcDbBlockLinearGrip
  3
ObjectDBX Classes
 90
     1153
 91
        0
280
     0
281
     0
  0
CLASS
  1
BLOCKFLIPPARAMETER
  2
AcDbBlockFlipParameter
  3
ObjectDBX Classes
 90
     1153
 91
        0
280
     0
281
     0
  0
CLASS
  1
BLOCKFLIPGRIP
  2
AcDbBlockFlipGrip
  3
ObjectDBX Classes
 90
     1153
 91
        0
280
     0
281
     0
  0
CLASS
  1
BLOCKFLIPACTION
  2
AcDbBlockFlipAction
  3
ObjectDBX Classes
 90
     1153
 91
        0
280
     0
281
     0
  0
CLASS
  1
BLOCKALIGNMENTPARAMETER
  2
AcDbBlockAlignmentParameter
  3
ObjectDBX Classes
 90
     1153
 91
        0
280
     0
281
     0
  0
CLASS
  1
BLOCKALIGNMENTGRIP
  2
AcDbBlockAlignmentGrip
  3
ObjectDBX Classes
 90
     1153
 91
        0
280
     0
281
     0
  0
ENDSEC
  0
SECTION
  2
TABLES
  0
TABLE
  2
VPORT
  5
8
330
0
100
AcDbSymbolTable
 70
     1
  0
VPORT
  5
94
330
8
100
AcDbSymbolTableRecord
100
AcDbViewportTableRecord
  2
*Active
 70
     0
 10
0.0
 20
0.0
 11
1.0
 21
1.0
 12
121800.253326677
 22
90328.87208375852
 13
0.0
 23
0.0
 14
0.5
 24
0.5
 15
0.5
 25
0.5
 16
0.0
 26
0.0
 36
1.0
 17
0.0
 27
0.0
 37
0.0
 40
2705.845425335525
 41
2.293369663941871
 42
50.0
 43
0.0
 44
0.0
 50
0.0
 51
0.0
 71
     0
 72
  1000
 73
     1
 74
     3
 75
     0
 76
     0
 77
     0
 78
     0
281
     0
 65
     1
110
0.0
120
0.0
130
0.0
111
1.0
121
0.0
131
0.0
112
0.0
122
1.0
132
0.0
 79
     0
146
0.0
348
9F
 60
     3
 61
     5
292
     1
282
     1
141
0.0
142
0.0
 63
   250
421
  3355443
1001
ACAD_NAV_VCDISPLAY
1070
     3
  0
ENDTAB
  0
TABLE
  2
LTYPE
  5
5
330
0
100
AcDbSymbolTable
 70
     1
  0
LTYPE
  5
14
330
5
100
AcDbSymbolTableRecord
100
AcDbLinetypeTableRecord
  2
ByBlock
 70
     0
  3

 72
    65
 73
     0
 40
0.0
  0
LTYPE
  5
15
330
5
100
AcDbSymbolTableRecord
100
AcDbLinetypeTableRecord
  2
ByLayer
 70
     0
  3

 72
    65
 73
     0
 40
0.0
  0
LTYPE
  5
16
330
5
100
AcDbSymbolTableRecord
100
AcDbLinetypeTableRecord
  2
Continuous
 70
     0
  3
Solid line
 72
    65
 73
     0
 40
0.0
  0
ENDTAB
  0
TABLE
  2
LAYER
  5
2
102
{ACAD_XDICTIONARY
360
18E
102
}
330
0
100
AcDbSymbolTable
 70
     2
  0
LAYER
  5
10
102
{ACAD_XDICTIONARY
360
E6
102
}
330
2
100
AcDbSymbolTableRecord
100
AcDbLayerTableRecord
  2
0
 70
     0
 62
     7
  6
Continuous
370
    -3
390
F
347
98
348
0
  0
LAYER
  5
204
330
2
100
AcDbSymbolTableRecord
100
AcDbLayerTableRecord
  2
freecads.com
 70
     0
 62
     7
  6
Continuous
370
    -3
390
F
347
98
348
0
1001
AcAecLayerStandard
1000

1000

1001
AcCmTransparency
1071
        0
  0
ENDTAB
  0
TABLE
  2
STYLE
  5
3
330
0
100
AcDbSymbolTable
 70
     1
  0
STYLE
  5
11
330
3
100
AcDbSymbolTableRecord
100
AcDbTextStyleTableRecord
  2
Standard
 70
     0
 40
0.0
 41
1.0
 50
0.0
 71
     0
 42
0.2
  3
arial.ttf
  4

1001
ACAD
1000
Arial
1071
       34
  0
ENDTAB
  0
TABLE
  2
VIEW
  5
6
330
0
100
AcDbSymbolTable
 70
     0
  0
ENDTAB
  0
TABLE
  2
UCS
  5
7
330
0
100
AcDbSymbolTable
 70
     0
  0
ENDTAB
  0
TABLE
  2
APPID
  5
9
330
0
100
AcDbSymbolTable
 70
    29
  0
APPID
  5
12
330
9
100
AcDbSymbolTableRecord
100
AcDbRegAppTableRecord
  2
ACAD
 70
     0
  0
APPID
  5
DD
330
9
100
AcDbSymbolTableRecord
100
AcDbRegAppTableRecord
  2
AcadAnnoPO
 70
     0
  0
APPID
  5
DE
330
9
100
AcDbSymbolTableRecord
100
AcDbRegAppTableRecord
  2
AcadAnnotative
 70
     0
  0
APPID
  5
DF
330
9
100
AcDbSymbolTableRecord
100
AcDbRegAppTableRecord
  2
ACAD_DSTYLE_DIMJAG
 70
     0
  0
APPID
  5
E0
330
9
100
AcDbSymbolTableRecord
100
AcDbRegAppTableRecord
  2
ACAD_DSTYLE_DIMTALN
 70
     0
  0
APPID
  5
107
330
9
100
AcDbSymbolTableRecord
100
AcDbRegAppTableRecord
  2
ACAD_MLEADERVER
 70
     0
  0
APPID
  5
1A6
330
9
100
AcDbSymbolTableRecord
100
AcDbRegAppTableRecord
  2
ACAD_NAV_VCDISPLAY
 70
     0
  0
APPID
  5
205
330
9
100
AcDbSymbolTableRecord
100
AcDbRegAppTableRecord
  2
AcAecLayerStandard
 70
     0
  0
APPID
  5
206
330
9
100
AcDbSymbolTableRecord
100
AcDbRegAppTableRecord
  2
AcCmTransparency
 70
     0
  0
APPID
  5
222
330
9
100
AcDbSymbolTableRecord
100
AcDbRegAppTableRecord
  2
ACAD_PSEXT
 70
     0
  0
APPID
  5
2DA
330
9
100
AcDbSymbolTableRecord
100
AcDbRegAppTableRecord
  2
GradientColor1ACI
 70
     0
  0
APPID
  5
2DB
330
9
100
AcDbSymbolTableRecord
100
AcDbRegAppTableRecord
  2
GradientColor2ACI
 70
     0
  0
APPID
  5
2F3
330
9
100
AcDbSymbolTableRecord
100
AcDbRegAppTableRecord
  2
ACAD_EXEMPT_FROM_CAD_STANDARDS
 70
     0
  0
APPID
  5
A1A
330
9
100
AcDbSymbolTableRecord
100
AcDbRegAppTableRecord
  2
AcDbBlockRepETag
 70
     0
  0
APPID
  5
2276
330
9
100
AcDbSymbolTableRecord
100
AcDbRegAppTableRecord
  2
RAK
 70
     0
  0
APPID
  5
2277
330
9
100
AcDbSymbolTableRecord
100
AcDbRegAppTableRecord
  2
AcLayerTools
 70
     0
  0
APPID
  5
2301
330
9
100
AcDbSymbolTableRecord
100
AcDbRegAppTableRecord
  2
AcDbDynamicBlockGUID
 70
     0
  0
APPID
  5
23ED
330
9
100
AcDbSymbolTableRecord
100
AcDbRegAppTableRecord
  2
ACAD_DSTYLE_DIMJOGGED_JOGANGLE_SYMBOL
 70
     0
  0
APPID
  5
25B0
330
9
100
AcDbSymbolTableRecord
100
AcDbRegAppTableRecord
  2
AEC_MATERIAL
 70
     0
  0
APPID
  5
2F1D
330
9
100
AcDbSymbolTableRecord
100
AcDbRegAppTableRecord
  2
AEC_XDATA_BOUND_SPACE
 70
     0
  0
APPID
  5
9A94
330
9
100
AcDbSymbolTableRecord
100
AcDbRegAppTableRecord
  2
ACAD_DSTYLE_DIMBREAK
 70
     0
  0
APPID
  5
A914
330
9
100
AcDbSymbolTableRecord
100
AcDbRegAppTableRecord
  2
AcDbDynamicBlockTrueName
 70
     0
  0
APPID
  5
A915
330
9
100
AcDbSymbolTableRecord
100
AcDbRegAppTableRecord
  2
AcDbBlockRepBTag
 70
     0
  0
APPID
  5
15285
330
9
100
AcDbSymbolTableRecord
100
AcDbRegAppTableRecord
  2
BNS_SPRHATCH
 70
     0
  0
APPID
  5
163B1
330
9
100
AcDbSymbolTableRecord
100
AcDbRegAppTableRecord
  2
ADE
 70
     0
  0
APPID
  5
163B2
330
9
100
AcDbSymbolTableRecord
100
AcDbRegAppTableRecord
  2
AcadStringInfo
 70
     0
  0
APPID
  5
176E7
330
9
100
AcDbSymbolTableRecord
100
AcDbRegAppTableRecord
  2
AcadAnnoAV
 70
     0
  0
APPID
  5
23589
330
9
100
AcDbSymbolTableRecord
100
AcDbRegAppTableRecord
  2
ACAUTHENVIRON
 70
     0
  0
APPID
  5
23DEE
330
9
100
AcDbSymbolTableRecord
100
AcDbRegAppTableRecord
  2
ACAD_OBJECT_CHANGE_GUID
 70
     0
  0
ENDTAB
  0
TABLE
  2
DIMSTYLE
  5
A
330
0
100
AcDbSymbolTable
 70
     1
100
AcDbDimStyleTable
 71
     1
340
27
  0
DIMSTYLE
105
27
330
A
100
AcDbSymbolTableRecord
100
AcDbDimStyleTableRecord
  2
Standard
 70
     0
340
11
  0
ENDTAB
  0
TABLE
  2
BLOCK_RECORD
  5
1
330
0
100
AcDbSymbolTable
 70
     1
  0
BLOCK_RECORD
  5
1F
102
{ACAD_XDICTIONARY
360
15D
102
}
330
1
100
AcDbSymbolTableRecord
100
AcDbBlockTableRecord
  2
*Model_Space
340
22
 70
     0
280
     1
281
     0
  0
BLOCK_RECORD
  5
58
330
1
100
AcDbSymbolTableRecord
100
AcDbBlockTableRecord
  2
*Paper_Space
340
59
 70
     0
280
     1
281
     0
  0
BLOCK_RECORD
  5
5D
330
1
100
AcDbSymbolTableRecord
100
AcDbBlockTableRecord
  2
*Paper_Space0
340
5E
 70
     0
280
     1
281
     0
  0
ENDTAB
  0
ENDSEC
  0
SECTION
  2
BLOCKS
  0
BLOCK
  5
20
330
1F
100
AcDbEntity
  8
0
100
AcDbBlockBegin
  2
*Model_Space
 70
     0
 10
0.0
 20
0.0
 30
0.0
  3
*Model_Space
  1

  0
ENDBLK
  5
21
330
1F
100
AcDbEntity
  8
0
100
AcDbBlockEnd
  0
BLOCK
  5
5A
330
58
100
AcDbEntity
 67
     1
  8
0
100
AcDbBlockBegin
  2
*Paper_Space
 70
     0
 10
0.0
 20
0.0
 30
0.0
  3
*Paper_Space
  1

  0
ENDBLK
  5
5B
330
58
100
AcDbEntity
 67
     1
  8
0
100
AcDbBlockEnd
  0
BLOCK
  5
5F
330
5D
100
AcDbEntity
 67
     1
  8
0
100
AcDbBlockBegin
  2
*Paper_Space0
 70
     0
 10
0.0
 20
0.0
 30
0.0
  3
*Paper_Space0
  1

  0
ENDBLK
  5
60
330
5D
100
AcDbEntity
 67
     1
  8
0
100
AcDbBlockEnd
  0
ENDSEC
  0
SECTION
  2
ENTITIES
  0
LINE
  5
23B5C
330
1F
100
AcDbEntity
  8
freecads.com
100
AcDbLine
 10
124888.3506885207
 20
89685.78509135664
 30
0.0
 11
124888.1134377158
 21
90769.77063591897
 31
0.0
  0
LINE
  5
23B69
330
1F
100
AcDbEntity
  8
freecads.com
100
AcDbLine
 10
118858.5602058257
 20
89676.68305500625
 30
0.0
 11
118822.711995188
 21
89593.06765540063
 31
0.0
  0
LINE
  5
23B6A
330
1F
100
AcDbEntity
  8
freecads.com
100
AcDbLine
 10
118822.711995188
 20
89593.06765540063
 30
0.0
 11
118806.2815938628
 21
89540.17154635609
 31
0.0
  0
LINE
  5
23B6B
330
1F
100
AcDbEntity
  8
freecads.com
100
AcDbLine
 10
118806.2815938628
 20
89540.17154635609
 30
0.0
 11
118805.0882039702
 21
89504.66999264181
 31
0.0
  0
LINE
  5
23B6C
330
1F
100
AcDbEntity
  8
freecads.com
100
AcDbLine
 10
118805.0882039702
 20
89504.66999264181
 30
0.0
 11
118822.3438745177
 21
89482.41461314379
 31
0.0
  0
LINE
  5
23B6D
330
1F
100
AcDbEntity
  8
freecads.com
100
AcDbLine
 10
118822.3438745177
 20
89482.41461314379
 30
0.0
 11
118848.4036021865
 21
89470.65945924938
 31
0.0
  0
LINE
  5
23B6E
330
1F
100
AcDbEntity
  8
freecads.com
100
AcDbLine
 10
118848.4036021865
 20
89470.65945924938
 30
0.0
 11
118906.9612336791
 21
89454.91679568707
 31
0.0
  0
ARC
  5
23B6F
330
1F
100
AcDbEntity
  8
freecads.com
100
AcDbCircle
 10
118870.5816344856
 20
89376.27573560716
 30
0.0
 40
86.64809038846925
100
AcDbArc
 50
29.54265019434383
 51
65.17459197818564
  0
LINE
  5
23B70
330
1F
100
AcDbEntity
  8
freecads.com
100
AcDbLine
 10
118945.9645114577
 20
89418.99942256629
 30
0.0
 11
118933.3250785506
 21
89383.26285936058
 31
0.0
  0
ARC
  5
23B71
330
1F
100
AcDbEntity
  8
freecads.com
100
AcDbCircle
 10
118946.7694563211
 20
89382.3444517811
 30
0.0
 40
13.47571022689264
100
AcDbArc
 50
176.0921021378503
 51
315.3060291627769
  0
LINE
  5
23B72
330
1F
100
AcDbEntity
  8
freecads.com
100
AcDbLine
 10
118956.3489814437
 20
89372.86671657979
 30
0.0
 11
118962.6941605246
 21
89384.95256801068
 31
0.0
  0
LINE
  5
23B73
330
1F
100
AcDbEntity
  8
freecads.com
100
AcDbLine
 10
118962.6941605246
 20
89384.95256801068
 30
0.0
 11
118988.3492055571
 21
89335.9239437145
 31
0.0
  0
LINE
  5
23B74
330
1F
100
AcDbEntity
  8
freecads.com
100
AcDbLine
 10
118988.3492055571
 20
89335.9239437145
 30
0.0
 11
119028.007573191
 21
89296.28469492614
 31
0.0
  0
ARC
  5
23B75
330
1F
100
AcDbEntity
  8
freecads.com
100
AcDbCircle
 10
119176.8791432386
 20
89828.16648059218
 30
0.0
 40
552.3232552516083
100
AcDbArc
 50
254.3632806712004
 51
285.6643487861099
  0
LINE
  5
23B76
330
1F
100
AcDbEntity
  8
freecads.com
100
AcDbLine
 10
119326.0071826613
 20
89296.35654635847
 30
0.0
 11
119350.0126724875
 21
89317.38150830685
 31
0.0
  0
LINE
  5
23B77
330
1F
100
AcDbEntity
  8
freecads.com
100
AcDbLine
 10
119350.0126724875
 20
89317.38150830685
 30
0.0
 11
119365.4324169791
 21
89336.73203767956
 31
0.0
  0
LINE
  5
23B78
330
1F
100
AcDbEntity
  8
freecads.com
100
AcDbLine
 10
119365.4324169791
 20
89336.73203767956
 30
0.0
 11
119386.4115000403
 21
89374.53214325129
 31
0.0
  0
LINE
  5
23B79
330
1F
100
AcDbEntity
  8
freecads.com
100
AcDbLine
 10
119386.4115000403
 20
89374.53214325129
 30
0.0
 11
119390.8475990927
 21
89385.02239067972
 31
0.0
  0
LINE
  5
23B7A
330
1F
100
AcDbEntity
  8
freecads.com
100
AcDbLine
 10
119390.8475990927
 20
89385.02239067972
 30
0.0
 11
119393.8922339118
 21
89378.01512982071
 31
0.0
  0
LINE
  5
23B7B
330
1F
100
AcDbEntity
  8
freecads.com
100
AcDbLine
 10
119393.8922339118
 20
89378.01512982071
 30
0.0
 11
119397.3359509146
 21
89373.06733109176
 31
0.0
  0
ARC
  5
23B7C
330
1F
100
AcDbEntity
  8
freecads.com
100
AcDbCircle
 10
119406.8347223767
 20
89382.1832740647
 30
0.0
 40
13.1653741145131
100
AcDbArc
 50
223.8218264037248
 51
8.59450630371362
  0
LINE
  5
23B7D
330
1F
100
AcDbEntity
  8
freecads.com
100
AcDbLine
 10
119419.8522587454
 20
89384.15071465195
 30
0.0
 11
119407.6848784125
 21
89419.03873415411
 31
0.0
  0
LINE
  5
23B7E
330
1F
100
AcDbEntity
  8
freecads.com
100
AcDbLine
 10
119407.6848784125
 20
89419.03873415411
 30
0.0
 11
119421.2813621199
 21
89436.60898442686
 31
0.0
  0
LINE
  5
23B7F
330
1F
100
AcDbEntity
  8
freecads.com
100
AcDbLine
 10
119421.2813621199
 20
89436.60898442686
 30
0.0
 11
119446.9923687613
 21
89455.45827598989
 31
0.0
  0
LINE
  5
23B80
330
1F
100
AcDbEntity
  8
freecads.com
100
AcDbLine
 10
119446.9923687613
 20
89455.45827598989
 30
0.0
 11
119505.8538785613
 21
89471.01480074346
 31
0.0
  0
LINE
  5
23B81
330
1F
100
AcDbEntity
  8
freecads.com
100
AcDbLine
 10
119505.8538785613
 20
89471.01480074346
 30
0.0
 11
119531.2262864745
 21
89482.75696678578
 31
0.0
  0
LINE
  5
23B82
330
1F
100
AcDbEntity
  8
freecads.com
100
AcDbLine
 10
119531.2262864745
 20
89482.75696678578
 30
0.0
 11
119548.3492942488
 21
89504.64723892629
 31
0.0
  0
LINE
  5
23B83
330
1F
100
AcDbEntity
  8
freecads.com
100
AcDbLine
 10
119548.3492942488
 20
89504.64723892629
 30
0.0
 11
119547.3891573584
 21
89540.17234154164
 31
0.0
  0
LINE
  5
23B84
330
1F
100
AcDbEntity
  8
freecads.com
100
AcDbLine
 10
119547.3891573584
 20
89540.17234154164
 30
0.0
 11
119529.9303746855
 21
89595.35927613199
 31
0.0
  0
LINE
  5
23B85
330
1F
100
AcDbEntity
  8
freecads.com
100
AcDbLine
 10
119529.9303746855
 20
89595.35927613199
 30
0.0
 11
119494.9097149111
 21
89676.75948472255
 31
0.0
  0
LINE
  5
23B92
330
1F
100
AcDbEntity
  8
freecads.com
100
AcDbLine
 10
119740.6107845776
 20
89676.7889950196
 30
0.0
 11
119704.8083382285
 21
89593.28033991278
 31
0.0
  0
LINE
  5
23B93
330
1F
100
AcDbEntity
  8
freecads.com
100
AcDbLine
 10
119704.8083382285
 20
89593.28033991278
 30
0.0
 11
119688.3779383338
 21
89540.38423080861
 31
0.0
  0
LINE
  5
23B94
330
1F
100
AcDbEntity
  8
freecads.com
100
AcDbLine
 10
119688.3779383338
 20
89540.38423080861
 30
0.0
 11
119687.1845465338
 21
89504.88267715394
 31
0.0
  0
LINE
  5
23B95
330
1F
100
AcDbEntity
  8
freecads.com
100
AcDbLine
 10
119687.1845465338
 20
89504.88267715394
 30
0.0
 11
119704.440218035
 21
89482.62729813277
 31
0.0
  0
LINE
  5
23B96
330
1F
100
AcDbEntity
  8
freecads.com
100
AcDbLine
 10
119704.440218035
 20
89482.62729813277
 30
0.0
 11
119730.4999452269
 21
89470.87214364231
 31
0.0
  0
LINE
  5
23B97
330
1F
100
AcDbEntity
  8
freecads.com
100
AcDbLine
 10
119730.4999452269
 20
89470.87214364231
 30
0.0
 11
119789.0575762427
 21
89455.12948055684
 31
0.0
  0
ARC
  5
23B98
330
1F
100
AcDbEntity
  8
freecads.com
100
AcDbCircle
 10
119752.6779769697
 20
89376.48841881436
 30
0.0
 40
86.64809193081202
100
AcDbArc
 50
29.54265060816723
 51
65.17459239200788
  0
LINE
  5
23B99
330
1F
100
AcDbEntity
  8
freecads.com
100
AcDbLine
 10
119828.060854975
 20
89419.21210707844
 30
0.0
 11
119815.4214215911
 21
89383.47554417074
 31
0.0
  0
ARC
  5
23B9A
330
1F
100
AcDbEntity
  8
freecads.com
100
AcDbCircle
 10
119828.8658000658
 20
89382.55713688697
 30
0.0
 40
13.47571090926913
100
AcDbArc
 50
176.0921035962662
 51
315.3060306211879
  0
LINE
  5
23B9B
330
1F
100
AcDbEntity
  8
freecads.com
100
AcDbLine
 10
119838.4453259146
 20
89373.07940144956
 30
0.0
 11
119844.7905035651
 21
89385.16525204599
 31
0.0
  0
LINE
  5
23B9C
330
1F
100
AcDbEntity
  8
freecads.com
100
AcDbLine
 10
119844.7905035651
 20
89385.16525204599
 30
0.0
 11
119870.4455485976
 21
89336.13662822663
 31
0.0
  0
LINE
  5
23B9D
330
1F
100
AcDbEntity
  8
freecads.com
100
AcDbLine
 10
119870.4455485976
 20
89336.13662822663
 30
0.0
 11
119910.1039167082
 21
89296.49737991512
 31
0.0
  0
ARC
  5
23B9E
330
1F
100
AcDbEntity
  8
freecads.com
100
AcDbCircle
 10
120058.9754868366
 20
89828.37916464072
 30
0.0
 40
552.3232543677345
100
AcDbArc
 50
254.3632806368431
 51
285.6643487517528
  0
LINE
  5
23B9F
330
1F
100
AcDbEntity
  8
freecads.com
100
AcDbLine
 10
120208.1035257018
 20
89296.56923116862
 30
0.0
 11
120232.109015528
 21
89317.59419281901
 31
0.0
  0
LINE
  5
23BA0
330
1F
100
AcDbEntity
  8
freecads.com
100
AcDbLine
 10
120232.109015528
 20
89317.59419281901
 30
0.0
 11
120247.5287590659
 21
89336.94472219169
 31
0.0
  0
LINE
  5
23BA1
330
1F
100
AcDbEntity
  8
freecads.com
100
AcDbLine
 10
120247.5287590659
 20
89336.94472219169
 30
0.0
 11
120268.5078435576
 21
89374.74482782304
 31
0.0
  0
LINE
  5
23BA2
330
1F
100
AcDbEntity
  8
freecads.com
100
AcDbLine
 10
120268.5078435576
 20
89374.74482782304
 30
0.0
 11
120272.9439421332
 21
89385.23507513226
 31
0.0
  0
LINE
  5
23BA3
330
1F
100
AcDbEntity
  8
freecads.com
100
AcDbLine
 10
120272.9439421332
 20
89385.23507513226
 30
0.0
 11
120275.9885764754
 21
89378.2278137964
 31
0.0
  0
LINE
  5
23BA4
330
1F
100
AcDbEntity
  8
freecads.com
100
AcDbLine
 10
120275.9885764754
 20
89378.2278137964
 30
0.0
 11
120279.4322934783
 21
89373.28001625955
 31
0.0
  0
ARC
  5
23BA5
330
1F
100
AcDbEntity
  8
freecads.com
100
AcDbCircle
 10
120288.9310652829
 20
89382.39595898036
 30
0.0
 40
13.16537418704473
100
AcDbArc
 50
223.8218245798955
 51
8.59450447999233
  0
LINE
  5
23BA6
330
1F
100
AcDbEntity
  8
freecads.com
100
AcDbLine
 10
120301.9486017859
 20
89384.36339916409
 30
0.0
 11
120289.781221453
 21
89419.2514192623
 31
0.0
  0
LINE
  5
23BA7
330
1F
100
AcDbEntity
  8
freecads.com
100
AcDbLine
 10
120289.781221453
 20
89419.2514192623
 30
0.0
 11
120303.3777051604
 21
89436.82166870058
 31
0.0
  0
LINE
  5
23BA8
330
1F
100
AcDbEntity
  8
freecads.com
100
AcDbLine
 10
120303.3777051604
 20
89436.82166870058
 30
0.0
 11
120329.0887127555
 21
89455.67095990599
 31
0.0
  0
LINE
  5
23BA9
330
1F
100
AcDbEntity
  8
freecads.com
100
AcDbLine
 10
120329.0887127555
 20
89455.67095990599
 30
0.0
 11
120387.9502230323
 21
89471.22748567283
 31
0.0
  0
LINE
  5
23BAA
330
1F
100
AcDbEntity
  8
freecads.com
100
AcDbLine
 10
120387.9502230323
 20
89471.22748567283
 30
0.0
 11
120413.3226299918
 21
89482.96965141715
 31
0.0
  0
LINE
  5
23BAB
330
1F
100
AcDbEntity
  8
freecads.com
100
AcDbLine
 10
120413.3226299918
 20
89482.96965141715
 30
0.0
 11
120430.4456377661
 21
89504.85992337883
 31
0.0
  0
LINE
  5
23BAC
330
1F
100
AcDbEntity
  8
freecads.com
100
AcDbLine
 10
120430.4456377661
 20
89504.85992337883
 30
0.0
 11
120429.4855008757
 21
89540.38502617299
 31
0.0
  0
LINE
  5
23BAD
330
1F
100
AcDbEntity
  8
freecads.com
100
AcDbLine
 10
120429.4855008757
 20
89540.38502617299
 30
0.0
 11
120412.0267182029
 21
89595.57196058453
 31
0.0
  0
LINE
  5
23BAE
330
1F
100
AcDbEntity
  8
freecads.com
100
AcDbLine
 10
120412.0267182029
 20
89595.57196058453
 30
0.0
 11
120377.0519783735
 21
89676.8654357478
 31
0.0
  0
LINE
  5
23BBB
330
1F
100
AcDbEntity
  8
freecads.com
100
AcDbLine
 10
118858.7246430564
 20
90776.68308903966
 30
0.0
 11
118822.4303379691
 21
90861.22640194117
 31
0.0
  0
LINE
  5
23BBC
330
1F
100
AcDbEntity
  8
freecads.com
100
AcDbLine
 10
118822.4303379691
 20
90861.22640194117
 30
0.0
 11
118805.9744315779
 21
90914.11458189904
 31
0.0
  0
LINE
  5
23BBD
330
1F
100
AcDbEntity
  8
freecads.com
100
AcDbLine
 10
118805.9744315779
 20
90914.11458189904
 30
0.0
 11
118804.763921324
 21
90949.61555577933
 31
0.0
  0
LINE
  5
23BBE
330
1F
100
AcDbEntity
  8
freecads.com
100
AcDbLine
 10
118804.763921324
 20
90949.61555577933
 30
0.0
 11
118822.0088577902
 21
90971.8792541188
 31
0.0
  0
LINE
  5
23BBF
330
1F
100
AcDbEntity
  8
freecads.com
100
AcDbLine
 10
118822.0088577902
 20
90971.8792541188
 30
0.0
 11
118848.0629125273
 21
90983.6469734472
 31
0.0
  0
LINE
  5
23BC0
330
1F
100
AcDbEntity
  8
freecads.com
100
AcDbLine
 10
118848.0629125273
 20
90983.6469734472
 30
0.0
 11
118906.6129465735
 21
90999.41787250459
 31
0.0
  0
ARC
  5
23BC1
330
1F
100
AcDbEntity
  8
freecads.com
100
AcDbCircle
 10
118870.1954282809
 20
91078.04138026505
 30
0.0
 40
86.64809063766902
100
AcDbArc
 50
294.8530378730374
 51
330.4849796568782
  0
LINE
  5
23BC2
330
1F
100
AcDbEntity
  8
freecads.com
100
AcDbLine
 10
118945.5988994277
 20
91035.35405017554
 30
0.0
 11
118932.9422350562
 21
91071.08451397836
 31
0.0
  0
ARC
  5
23BC3
330
1F
100
AcDbEntity
  8
freecads.com
100
AcDbCircle
 10
118946.3861686193
 20
91072.00940440435
 30
0.0
 40
13.4757104432527
100
AcDbArc
 50
44.72159911668431
 51
183.9355261415658
  0
LINE
  5
23BC4
330
1F
100
AcDbEntity
  8
freecads.com
100
AcDbLine
 10
118955.961122576
 20
91081.49175794542
 30
0.0
 11
118962.3121290839
 21
91069.40896876276
 31
0.0
  0
LINE
  5
23BC5
330
1F
100
AcDbEntity
  8
freecads.com
100
AcDbLine
 10
118962.3121290839
 20
91069.40896876276
 30
0.0
 11
118987.9435272849
 21
91118.44995845974
 31
0.0
  0
LINE
  5
23BC6
330
1F
100
AcDbEntity
  8
freecads.com
100
AcDbLine
 10
118987.9435272849
 20
91118.44995845974
 30
0.0
 11
119027.5827761328
 21
91158.10832686841
 31
0.0
  0
ARC
  5
23BC7
330
1F
100
AcDbEntity
  8
freecads.com
100
AcDbCircle
 10
119176.7108153172
 20
90626.29839348574
 30
0.0
 40
552.3232543678142
100
AcDbArc
 50
74.36328067122239
 51
105.6643487861321
  0
LINE
  5
23BC8
330
1F
100
AcDbEntity
  8
freecads.com
100
AcDbLine
 10
119325.5823851264
 20
91158.18017830074
 30
0.0
 11
119349.5980115569
 21
91137.16679449499
 31
0.0
  0
LINE
  5
23BC9
330
1F
100
AcDbEntity
  8
freecads.com
100
AcDbLine
 10
119349.5980115569
 20
91137.16679449499
 30
0.0
 11
119365.0270844138
 21
91117.82370384156
 31
0.0
  0
LINE
  5
23BCA
330
1F
100
AcDbEntity
  8
freecads.com
100
AcDbLine
 10
119365.0270844138
 20
91117.82370384156
 30
0.0
 11
119386.0243950522
 21
91080.03371878087
 31
0.0
  0
LINE
  5
23BCB
330
1F
100
AcDbEntity
  8
freecads.com
100
AcDbLine
 10
119386.0243950522
 20
91080.03371878087
 30
0.0
 11
119390.4655504859
 21
91069.54561235131
 31
0.0
  0
LINE
  5
23BCC
330
1F
100
AcDbEntity
  8
freecads.com
100
AcDbLine
 10
119390.4655504859
 20
91069.54561235131
 30
0.0
 11
119393.50680596
 21
91076.55434049785
 31
0.0
  0
LINE
  5
23BCD
330
1F
100
AcDbEntity
  8
freecads.com
100
AcDbLine
 10
119393.50680596
 20
91076.55434049785
 30
0.0
 11
119396.9481368697
 21
91081.50379826248
 31
0.0
  0
ARC
  5
23BCE
330
1F
100
AcDbEntity
  8
freecads.com
100
AcDbCircle
 10
119406.4513034527
 20
91072.39243708466
 30
0.0
 40
13.16537419210863
100
AcDbArc
 50
351.4331246248507
 51
136.2058045248264
  0
LINE
  5
23BCF
330
1F
100
AcDbEntity
  8
freecads.com
100
AcDbLine
 10
119419.469787184
 20
91070.43127443015
 30
0.0
 11
119407.3192320502
 21
91035.53739173829
 31
0.0
  0
LINE
  5
23BD0
330
1F
100
AcDbEntity
  8
freecads.com
100
AcDbLine
 10
119407.3192320502
 20
91035.53739173829
 30
0.0
 11
119420.9241867697
 21
91017.97370024145
 31
0.0
  0
LINE
  5
23BD1
330
1F
100
AcDbEntity
  8
freecads.com
100
AcDbLine
 10
119420.9241867697
 20
91017.97370024145
 30
0.0
 11
119446.6442809737
 21
90999.13680984199
 31
0.0
  0
LINE
  5
23BD2
330
1F
100
AcDbEntity
  8
freecads.com
100
AcDbLine
 10
119446.6442809737
 20
90999.13680984199
 30
0.0
 11
119505.5132852233
 21
90983.60867013157
 31
0.0
  0
LINE
  5
23BD3
330
1F
100
AcDbEntity
  8
freecads.com
100
AcDbLine
 10
119505.5132852233
 20
90983.60867013157
 30
0.0
 11
119530.8913522399
 21
90971.87874145925
 31
0.0
  0
LINE
  5
23BD4
330
1F
100
AcDbEntity
  8
freecads.com
100
AcDbLine
 10
119530.8913522399
 20
90971.87874145925
 30
0.0
 11
119548.0249143279
 21
90949.99672861517
 31
0.0
  0
LINE
  5
23BD5
330
1F
100
AcDbEntity
  8
freecads.com
100
AcDbLine
 10
119548.0249143279
 20
90949.99672861517
 30
0.0
 11
119547.0819078124
 21
90914.47116734206
 31
0.0
  0
LINE
  5
23BD6
330
1F
100
AcDbEntity
  8
freecads.com
100
AcDbLine
 10
119547.0819078124
 20
90914.47116734206
 30
0.0
 11
119529.6497398055
 21
90859.27581985414
 31
0.0
  0
LINE
  5
23BD7
330
1F
100
AcDbEntity
  8
freecads.com
100
AcDbLine
 10
119529.6497398055
 20
90859.27581985414
 30
0.0
 11
119494.1960076001
 21
90776.75941321754
 31
0.0
  0
LINE
  5
23BE4
330
1F
100
AcDbEntity
  8
freecads.com
100
AcDbLine
 10
119740.8668061
 20
90776.78903995913
 30
0.0
 11
119704.5266805327
 21
90861.43908693015
 31
0.0
  0
LINE
  5
23BE5
330
1F
100
AcDbEntity
  8
freecads.com
100
AcDbLine
 10
119704.5266805327
 20
90861.43908693015
 30
0.0
 11
119688.0707750952
 21
90914.32726641119
 31
0.0
  0
LINE
  5
23BE6
330
1F
100
AcDbEntity
  8
freecads.com
100
AcDbLine
 10
119688.0707750952
 20
90914.32726641119
 30
0.0
 11
119686.8602634108
 21
90949.82824011266
 31
0.0
  0
LINE
  5
23BE7
330
1F
100
AcDbEntity
  8
freecads.com
100
AcDbLine
 10
119686.8602634108
 20
90949.82824011266
 30
0.0
 11
119704.1052008307
 21
90972.09193857134
 31
0.0
  0
LINE
  5
23BE8
330
1F
100
AcDbEntity
  8
freecads.com
100
AcDbLine
 10
119704.1052008307
 20
90972.09193857134
 30
0.0
 11
119730.1592565215
 21
90983.85965789974
 31
0.0
  0
LINE
  5
23BE9
330
1F
100
AcDbEntity
  8
freecads.com
100
AcDbLine
 10
119730.1592565215
 20
90983.85965789974
 30
0.0
 11
119788.7092900908
 21
90999.63055725515
 31
0.0
  0
ARC
  5
23BEA
330
1F
100
AcDbEntity
  8
freecads.com
100
AcDbCircle
 10
119752.2917724076
 20
91078.25406563829
 30
0.0
 40
86.64809094656879
100
AcDbArc
 50
294.8530373343633
 51
330.4849791182026
  0
LINE
  5
23BEB
330
1F
100
AcDbEntity
  8
freecads.com
100
AcDbLine
 10
119827.6952434218
 20
91035.56673468769
 30
0.0
 11
119815.0385790503
 21
91071.29719890773
 31
0.0
  0
ARC
  5
23BEC
330
1F
100
AcDbEntity
  8
freecads.com
100
AcDbCircle
 10
119828.4825119093
 20
91072.22208962943
 30
0.0
 40
13.47570976102719
100
AcDbArc
 50
44.7216005764508
 51
183.9355276013849
  0
LINE
  5
23BED
330
1F
100
AcDbEntity
  8
freecads.com
100
AcDbLine
 10
119838.0574651396
 20
91081.7044429344
 30
0.0
 11
119844.4084711707
 21
91069.6216533941
 31
0.0
  0
LINE
  5
23BEE
330
1F
100
AcDbEntity
  8
freecads.com
100
AcDbLine
 10
119844.4084711707
 20
91069.6216533941
 30
0.0
 11
119870.0398708022
 21
91118.66264332951
 31
0.0
  0
LINE
  5
23BEF
330
1F
100
AcDbEntity
  8
freecads.com
100
AcDbLine
 10
119870.0398708022
 20
91118.66264332951
 30
0.0
 11
119909.6791196502
 21
91158.32101096332
 31
0.0
  0
ARC
  5
23BF0
330
1F
100
AcDbEntity
  8
freecads.com
100
AcDbCircle
 10
120058.8071581962
 20
90626.51107740183
 30
0.0
 40
552.3232543676554
100
AcDbArc
 50
74.36328060246244
 51
105.6643487173721
  0
LINE
  5
23BF1
330
1F
100
AcDbEntity
  8
freecads.com
100
AcDbLine
 10
120207.6787286437
 20
91158.39286203801
 30
0.0
 11
120231.6943545973
 21
91137.37947960316
 31
0.0
  0
LINE
  5
23BF2
330
1F
100
AcDbEntity
  8
freecads.com
100
AcDbLine
 10
120231.6943545973
 20
91137.37947960316
 30
0.0
 11
120247.1234279311
 21
91118.03638781726
 31
0.0
  0
LINE
  5
23BF3
330
1F
100
AcDbEntity
  8
freecads.com
100
AcDbLine
 10
120247.1234279311
 20
91118.03638781726
 30
0.0
 11
120268.1207376159
 21
91080.2464030546
 31
0.0
  0
LINE
  5
23BF4
330
1F
100
AcDbEntity
  8
freecads.com
100
AcDbLine
 10
120268.1207376159
 20
91080.2464030546
 30
0.0
 11
120272.56189448
 21
91069.75829686344
 31
0.0
  0
LINE
  5
23BF5
330
1F
100
AcDbEntity
  8
freecads.com
100
AcDbLine
 10
120272.56189448
 20
91069.75829686344
 30
0.0
 11
120275.6031494773
 21
91076.76702554643
 31
0.0
  0
LINE
  5
23BF6
330
1F
100
AcDbEntity
  8
freecads.com
100
AcDbLine
 10
120275.6031494773
 20
91076.76702554643
 30
0.0
 11
120279.044480387
 21
91081.716482715
 31
0.0
  0
ARC
  5
23BF7
330
1F
100
AcDbEntity
  8
freecads.com
100
AcDbCircle
 10
120288.5476470647
 20
91072.60512183522
 30
0.0
 40
13.16537405415278
100
AcDbArc
 50
351.4331258460392
 51
136.2058057460143
  0
LINE
  5
23BF8
330
1F
100
AcDbEntity
  8
freecads.com
100
AcDbLine
 10
120301.5661307013
 20
91070.64395947874
 30
0.0
 11
120289.4155755675
 21
91035.7500757736
 31
0.0
  0
LINE
  5
23BF9
330
1F
100
AcDbEntity
  8
freecads.com
100
AcDbLine
 10
120289.4155755675
 20
91035.7500757736
 30
0.0
 11
120303.020530287
 21
91018.1863849324
 31
0.0
  0
LINE
  5
23BFA
330
1F
100
AcDbEntity
  8
freecads.com
100
AcDbLine
 10
120303.020530287
 20
91018.1863849324
 30
0.0
 11
120328.740624491
 21
90999.34949435413
 31
0.0
  0
LINE
  5
23BFB
330
1F
100
AcDbEntity
  8
freecads.com
100
AcDbLine
 10
120328.740624491
 20
90999.34949435413
 30
0.0
 11
120387.6096282637
 21
90983.82135523975
 31
0.0
  0
LINE
  5
23BFC
330
1F
100
AcDbEntity
  8
freecads.com
100
AcDbLine
 10
120387.6096282637
 20
90983.82135523975
 30
0.0
 11
120412.9876952803
 21
90972.09142597138
 31
0.0
  0
LINE
  5
23BFD
330
1F
100
AcDbEntity
  8
freecads.com
100
AcDbLine
 10
120412.9876952803
 20
90972.09142597138
 30
0.0
 11
120430.1212578452
 21
90950.20941348494
 31
0.0
  0
LINE
  5
23BFE
330
1F
100
AcDbEntity
  8
freecads.com
100
AcDbLine
 10
120430.1212578452
 20
90950.20941348494
 30
0.0
 11
120429.1782522833
 21
90914.68385233104
 31
0.0
  0
LINE
  5
23BFF
330
1F
100
AcDbEntity
  8
freecads.com
100
AcDbLine
 10
120429.1782522833
 20
90914.68385233104
 30
0.0
 11
120411.7460837996
 21
90859.48850490272
 31
0.0
  0
LINE
  5
23C00
330
1F
100
AcDbEntity
  8
freecads.com
100
AcDbLine
 10
120411.7460837996
 20
90859.48850490272
 30
0.0
 11
120376.2464875842
 21
90776.86535312532
 31
0.0
  0
LINE
  5
23C0D
330
1F
100
AcDbEntity
  8
freecads.com
100
AcDbLine
 10
120582.9062877129
 20
89676.89016018969
 30
0.0
 11
120546.7910199797
 21
89592.65185345829
 31
0.0
  0
LINE
  5
23C0E
330
1F
100
AcDbEntity
  8
freecads.com
100
AcDbLine
 10
120546.7910199797
 20
89592.65185345829
 30
0.0
 11
120530.3606186545
 21
89539.75574447333
 31
0.0
  0
LINE
  5
23C0F
330
1F
100
AcDbEntity
  8
freecads.com
100
AcDbLine
 10
120530.3606186545
 20
89539.75574447333
 30
0.0
 11
120529.1672287619
 21
89504.25419075907
 31
0.0
  0
LINE
  5
23C10
330
1F
100
AcDbEntity
  8
freecads.com
100
AcDbLine
 10
120529.1672287619
 20
89504.25419075907
 30
0.0
 11
120546.4228993094
 21
89481.99881120146
 31
0.0
  0
LINE
  5
23C11
330
1F
100
AcDbEntity
  8
freecads.com
100
AcDbLine
 10
120546.4228993094
 20
89481.99881120146
 30
0.0
 11
120572.4826265013
 21
89470.24365730703
 31
0.0
  0
LINE
  5
23C12
330
1F
100
AcDbEntity
  8
freecads.com
100
AcDbLine
 10
120572.4826265013
 20
89470.24365730703
 30
0.0
 11
120631.040257994
 21
89454.50099374474
 31
0.0
  0
ARC
  5
23C13
330
1F
100
AcDbEntity
  8
freecads.com
100
AcDbCircle
 10
120594.6606590389
 20
89375.85993292294
 30
0.0
 40
86.64809096168403
100
AcDbArc
 50
29.54265054339115
 51
65.17459232723452
  0
LINE
  5
23C14
330
1F
100
AcDbEntity
  8
freecads.com
100
AcDbLine
 10
120670.0435362494
 20
89418.58362062395
 30
0.0
 11
120657.4041038191
 21
89382.84705747783
 31
0.0
  0
ARC
  5
23C15
330
1F
100
AcDbEntity
  8
freecads.com
100
AcDbCircle
 10
120670.8484813513
 20
89381.92864980972
 30
0.0
 40
13.47570999506919
100
AcDbArc
 50
176.0921016927801
 51
315.3060287177185
  0
LINE
  5
23C16
330
1F
100
AcDbEntity
  8
freecads.com
100
AcDbLine
 10
120680.4280062354
 20
89372.45091469705
 30
0.0
 11
120686.7731857932
 21
89384.53676606833
 31
0.0
  0
LINE
  5
23C17
330
1F
100
AcDbEntity
  8
freecads.com
100
AcDbLine
 10
120686.7731857932
 20
89384.53676606833
 30
0.0
 11
120712.428229872
 21
89335.50814183176
 31
0.0
  0
LINE
  5
23C18
330
1F
100
AcDbEntity
  8
freecads.com
100
AcDbLine
 10
120712.428229872
 20
89335.50814183176
 30
0.0
 11
120752.0865979827
 21
89295.8688930434
 31
0.0
  0
ARC
  5
23C19
330
1F
100
AcDbEntity
  8
freecads.com
100
AcDbCircle
 10
120900.9581681367
 20
89827.75067867963
 30
0.0
 40
552.3232552515808
100
AcDbArc
 50
254.3632806597407
 51
285.6643487746501
  0
LINE
  5
23C1A
330
1F
100
AcDbEntity
  8
freecads.com
100
AcDbLine
 10
121050.086207453
 20
89295.94074441611
 30
0.0
 11
121074.0916968024
 21
89316.96570636452
 31
0.0
  0
LINE
  5
23C1B
330
1F
100
AcDbEntity
  8
freecads.com
100
AcDbLine
 10
121074.0916968024
 20
89316.96570636452
 30
0.0
 11
121089.511441294
 21
89336.3162357372
 31
0.0
  0
LINE
  5
23C1C
330
1F
100
AcDbEntity
  8
freecads.com
100
AcDbLine
 10
121089.511441294
 20
89336.3162357372
 30
0.0
 11
121110.490524832
 21
89374.11634136855
 31
0.0
  0
LINE
  5
23C1D
330
1F
100
AcDbEntity
  8
freecads.com
100
AcDbLine
 10
121110.490524832
 20
89374.11634136855
 30
0.0
 11
121114.9266234076
 21
89384.60658879698
 31
0.0
  0
LINE
  5
23C1E
330
1F
100
AcDbEntity
  8
freecads.com
100
AcDbLine
 10
121114.9266234076
 20
89384.60658879698
 30
0.0
 11
121117.9712587035
 21
89377.59932787836
 31
0.0
  0
LINE
  5
23C1F
330
1F
100
AcDbEntity
  8
freecads.com
100
AcDbLine
 10
121117.9712587035
 20
89377.59932787836
 30
0.0
 11
121121.4149757064
 21
89372.65152914941
 31
0.0
  0
ARC
  5
23C20
330
1F
100
AcDbEntity
  8
freecads.com
100
AcDbCircle
 10
121130.9137471684
 20
89381.76747212235
 30
0.0
 40
13.1653741145131
100
AcDbArc
 50
223.8218264037248
 51
8.59450630371362
  0
LINE
  5
23C21
330
1F
100
AcDbEntity
  8
freecads.com
100
AcDbLine
 10
121143.9312835372
 20
89383.7349127096
 30
0.0
 11
121131.7639027274
 21
89418.62293221175
 31
0.0
  0
LINE
  5
23C22
330
1F
100
AcDbEntity
  8
freecads.com
100
AcDbLine
 10
121131.7639027274
 20
89418.62293221175
 30
0.0
 11
121145.3603869117
 21
89436.19318248451
 31
0.0
  0
LINE
  5
23C23
330
1F
100
AcDbEntity
  8
freecads.com
100
AcDbLine
 10
121145.3603869117
 20
89436.19318248451
 30
0.0
 11
121171.0713940299
 21
89455.04247404754
 31
0.0
  0
LINE
  5
23C24
330
1F
100
AcDbEntity
  8
freecads.com
100
AcDbLine
 10
121171.0713940299
 20
89455.04247404754
 30
0.0
 11
121229.9329038298
 21
89470.59899886072
 31
0.0
  0
LINE
  5
23C25
330
1F
100
AcDbEntity
  8
freecads.com
100
AcDbLine
 10
121229.9329038298
 20
89470.59899886072
 30
0.0
 11
121255.3053112662
 21
89482.34116484345
 31
0.0
  0
LINE
  5
23C26
330
1F
100
AcDbEntity
  8
freecads.com
100
AcDbLine
 10
121255.3053112662
 20
89482.34116484345
 30
0.0
 11
121272.4283190406
 21
89504.23143704355
 31
0.0
  0
LINE
  5
23C27
330
1F
100
AcDbEntity
  8
freecads.com
100
AcDbLine
 10
121272.4283190406
 20
89504.23143704355
 30
0.0
 11
121271.4681821501
 21
89539.75653965891
 31
0.0
  0
LINE
  5
23C28
330
1F
100
AcDbEntity
  8
freecads.com
100
AcDbLine
 10
121271.4681821501
 20
89539.75653965891
 30
0.0
 11
121254.0093994773
 21
89594.94347424925
 31
0.0
  0
LINE
  5
23C29
330
1F
100
AcDbEntity
  8
freecads.com
100
AcDbLine
 10
121254.0093994773
 20
89594.94347424925
 30
0.0
 11
121218.7207754288
 21
89676.96652564644
 31
0.0
  0
LINE
  5
23C36
330
1F
100
AcDbEntity
  8
freecads.com
100
AcDbLine
 10
121464.9568666954
 20
89676.99610020307
 30
0.0
 11
121428.8873625434
 21
89592.86453797043
 31
0.0
  0
LINE
  5
23C37
330
1F
100
AcDbEntity
  8
freecads.com
100
AcDbLine
 10
121428.8873625434
 20
89592.86453797043
 30
0.0
 11
121412.4569631255
 21
89539.96842886628
 31
0.0
  0
LINE
  5
23C38
330
1F
100
AcDbEntity
  8
freecads.com
100
AcDbLine
 10
121412.4569631255
 20
89539.96842886628
 30
0.0
 11
121411.2635713256
 21
89504.46687521159
 31
0.0
  0
LINE
  5
23C39
330
1F
100
AcDbEntity
  8
freecads.com
100
AcDbLine
 10
121411.2635713256
 20
89504.46687521159
 30
0.0
 11
121428.5192428267
 21
89482.21149625004
 31
0.0
  0
LINE
  5
23C3A
330
1F
100
AcDbEntity
  8
freecads.com
100
AcDbLine
 10
121428.5192428267
 20
89482.21149625004
 30
0.0
 11
121454.5789700187
 21
89470.45634169995
 31
0.0
  0
LINE
  5
23C3B
330
1F
100
AcDbEntity
  8
freecads.com
100
AcDbLine
 10
121454.5789700187
 20
89470.45634169995
 30
0.0
 11
121513.1366010344
 21
89454.71367861451
 31
0.0
  0
ARC
  5
23C3C
330
1F
100
AcDbEntity
  8
freecads.com
100
AcDbCircle
 10
121476.757001523
 20
89376.07261761391
 30
0.0
 40
86.64809135758405
100
AcDbArc
 50
29.54265025911155
 51
65.17459204295498
  0
LINE
  5
23C3D
330
1F
100
AcDbEntity
  8
freecads.com
100
AcDbLine
 10
121552.1398792899
 20
89418.79630513609
 30
0.0
 11
121539.5004463828
 21
89383.059742288
 31
0.0
  0
ARC
  5
23C3E
330
1F
100
AcDbEntity
  8
freecads.com
100
AcDbCircle
 10
121552.9448248575
 20
89382.14133500423
 30
0.0
 40
13.47571090926913
100
AcDbArc
 50
176.0921035962662
 51
315.3060306211879
  0
LINE
  5
23C3F
330
1F
100
AcDbEntity
  8
freecads.com
100
AcDbLine
 10
121562.5243507064
 20
89372.66359956682
 30
0.0
 11
121568.86952788
 21
89384.74945010364
 31
0.0
  0
LINE
  5
23C40
330
1F
100
AcDbEntity
  8
freecads.com
100
AcDbLine
 10
121568.86952788
 20
89384.74945010364
 30
0.0
 11
121594.5245733893
 21
89335.7208262843
 31
0.0
  0
LINE
  5
23C41
330
1F
100
AcDbEntity
  8
freecads.com
100
AcDbLine
 10
121594.5245733893
 20
89335.7208262843
 30
0.0
 11
121634.1829410231
 21
89296.08157797277
 31
0.0
  0
ARC
  5
23C42
330
1F
100
AcDbEntity
  8
freecads.com
100
AcDbCircle
 10
121783.0545113899
 20
89827.9633635494
 30
0.0
 40
552.3232552515259
100
AcDbArc
 50
254.3632806368211
 51
285.6643487517306
  0
LINE
  5
23C43
330
1F
100
AcDbEntity
  8
freecads.com
100
AcDbLine
 10
121932.1825504935
 20
89296.15342922629
 30
0.0
 11
121956.1880403197
 21
89317.17839087665
 31
0.0
  0
LINE
  5
23C44
330
1F
100
AcDbEntity
  8
freecads.com
100
AcDbLine
 10
121956.1880403197
 20
89317.17839087665
 30
0.0
 11
121971.6077833808
 21
89336.52892024934
 31
0.0
  0
LINE
  5
23C45
330
1F
100
AcDbEntity
  8
freecads.com
100
AcDbLine
 10
121971.6077833808
 20
89336.52892024934
 30
0.0
 11
121992.5868678725
 21
89374.3290259403
 31
0.0
  0
LINE
  5
23C46
330
1F
100
AcDbEntity
  8
freecads.com
100
AcDbLine
 10
121992.5868678725
 20
89374.3290259403
 30
0.0
 11
121997.0229674018
 21
89384.8192731899
 31
0.0
  0
LINE
  5
23C47
330
1F
100
AcDbEntity
  8
freecads.com
100
AcDbLine
 10
121997.0229674018
 20
89384.8192731899
 30
0.0
 11
122000.0676012671
 21
89377.81201185405
 31
0.0
  0
LINE
  5
23C48
330
1F
100
AcDbEntity
  8
freecads.com
100
AcDbLine
 10
122000.0676012671
 20
89377.81201185405
 30
0.0
 11
122003.51131827
 21
89372.8642143172
 31
0.0
  0
ARC
  5
23C49
330
1F
100
AcDbEntity
  8
freecads.com
100
AcDbCircle
 10
122013.0100900746
 20
89381.980157038
 30
0.0
 40
13.16537418704473
100
AcDbArc
 50
223.8218245798955
 51
8.59450447999233
  0
LINE
  5
23C4A
330
1F
100
AcDbEntity
  8
freecads.com
100
AcDbLine
 10
122026.0276265776
 20
89383.94759722173
 30
0.0
 11
122013.8602467215
 21
89418.83561731994
 31
0.0
  0
LINE
  5
23C4B
330
1F
100
AcDbEntity
  8
freecads.com
100
AcDbLine
 10
122013.8602467215
 20
89418.83561731994
 30
0.0
 11
122027.4567299521
 21
89436.40586675822
 31
0.0
  0
LINE
  5
23C4C
330
1F
100
AcDbEntity
  8
freecads.com
100
AcDbLine
 10
122027.4567299521
 20
89436.40586675822
 30
0.0
 11
122053.1677375472
 21
89455.25515796363
 31
0.0
  0
LINE
  5
23C4D
330
1F
100
AcDbEntity
  8
freecads.com
100
AcDbLine
 10
122053.1677375472
 20
89455.25515796363
 30
0.0
 11
122112.0292473471
 21
89470.81168373049
 31
0.0
  0
LINE
  5
23C4E
330
1F
100
AcDbEntity
  8
freecads.com
100
AcDbLine
 10
122112.0292473471
 20
89470.81168373049
 30
0.0
 11
122137.4016547835
 21
89482.55384947479
 31
0.0
  0
LINE
  5
23C4F
330
1F
100
AcDbEntity
  8
freecads.com
100
AcDbLine
 10
122137.4016547835
 20
89482.55384947479
 30
0.0
 11
122154.524662081
 21
89504.44412149607
 31
0.0
  0
LINE
  5
23C50
330
1F
100
AcDbEntity
  8
freecads.com
100
AcDbLine
 10
122154.524662081
 20
89504.44412149607
 30
0.0
 11
122153.5645256675
 21
89539.96922423065
 31
0.0
  0
LINE
  5
23C51
330
1F
100
AcDbEntity
  8
freecads.com
100
AcDbLine
 10
122153.5645256675
 20
89539.96922423065
 30
0.0
 11
122136.1057425177
 21
89595.15615864217
 31
0.0
  0
LINE
  5
23C52
330
1F
100
AcDbEntity
  8
freecads.com
100
AcDbLine
 10
122136.1057425177
 20
89595.15615864217
 30
0.0
 11
122100.8630381665
 21
89677.07247667163
 31
0.0
  0
LINE
  5
23C5F
330
1F
100
AcDbEntity
  8
freecads.com
100
AcDbLine
 10
120582.5362820027
 20
90776.89012984984
 30
0.0
 11
120546.509362284
 21
90860.81059999884
 31
0.0
  0
LINE
  5
23C60
330
1F
100
AcDbEntity
  8
freecads.com
100
AcDbLine
 10
120546.509362284
 20
90860.81059999884
 30
0.0
 11
120530.0534558928
 21
90913.69877995671
 31
0.0
  0
LINE
  5
23C61
330
1F
100
AcDbEntity
  8
freecads.com
100
AcDbLine
 10
120530.0534558928
 20
90913.69877995671
 30
0.0
 11
120528.8429456389
 21
90949.199753837
 31
0.0
  0
LINE
  5
23C62
330
1F
100
AcDbEntity
  8
freecads.com
100
AcDbLine
 10
120528.8429456389
 20
90949.199753837
 30
0.0
 11
120546.087882582
 21
90971.46345223606
 31
0.0
  0
LINE
  5
23C63
330
1F
100
AcDbEntity
  8
freecads.com
100
AcDbLine
 10
120546.087882582
 20
90971.46345223606
 30
0.0
 11
120572.1419377959
 21
90983.23117150485
 31
0.0
  0
LINE
  5
23C64
330
1F
100
AcDbEntity
  8
freecads.com
100
AcDbLine
 10
120572.1419377959
 20
90983.23117150485
 30
0.0
 11
120630.6919718421
 21
90999.00207062185
 31
0.0
  0
ARC
  5
23C65
330
1F
100
AcDbEntity
  8
freecads.com
100
AcDbCircle
 10
120594.274453311
 20
91077.62557764043
 30
0.0
 40
86.64809006470889
100
AcDbArc
 50
294.853038222269
 51
330.4849800061083
  0
LINE
  5
23C66
330
1F
100
AcDbEntity
  8
freecads.com
100
AcDbLine
 10
120669.6779242194
 20
91034.9382482928
 30
0.0
 11
120657.0212598479
 21
91070.66871203601
 31
0.0
  0
ARC
  5
23C67
330
1F
100
AcDbEntity
  8
freecads.com
100
AcDbCircle
 10
120670.4651931726
 20
91071.59360255064
 30
0.0
 40
13.47571021147975
100
AcDbArc
 50
44.72159956221801
 51
183.9355265871113
  0
LINE
  5
23C68
330
1F
100
AcDbEntity
  8
freecads.com
100
AcDbLine
 10
120680.0401468909
 20
91081.07595600307
 30
0.0
 11
120686.3911533988
 21
91068.99316688002
 31
0.0
  0
LINE
  5
23C69
330
1F
100
AcDbEntity
  8
freecads.com
100
AcDbLine
 10
120686.3911533988
 20
91068.99316688002
 30
0.0
 11
120712.0225520766
 21
91118.034156577
 31
0.0
  0
LINE
  5
23C6A
330
1F
100
AcDbEntity
  8
freecads.com
100
AcDbLine
 10
120712.0225520766
 20
91118.034156577
 30
0.0
 11
120751.6618009246
 21
91157.69252492606
 31
0.0
  0
ARC
  5
23C6B
330
1F
100
AcDbEntity
  8
freecads.com
100
AcDbCircle
 10
120900.7898401089
 20
90625.88259154338
 30
0.0
 40
552.3232543678142
100
AcDbArc
 50
74.36328067122239
 51
105.6643487861321
  0
LINE
  5
23C6C
330
1F
100
AcDbEntity
  8
freecads.com
100
AcDbLine
 10
121049.6614099181
 20
91157.76437635839
 30
0.0
 11
121073.6770363486
 21
91136.75099261225
 31
0.0
  0
LINE
  5
23C6D
330
1F
100
AcDbEntity
  8
freecads.com
100
AcDbLine
 10
121073.6770363486
 20
91136.75099261225
 30
0.0
 11
121089.1061092055
 21
91117.40790189921
 31
0.0
  0
LINE
  5
23C6E
330
1F
100
AcDbEntity
  8
freecads.com
100
AcDbLine
 10
121089.1061092055
 20
91117.40790189921
 30
0.0
 11
121110.1034198439
 21
91079.61791683854
 31
0.0
  0
LINE
  5
23C6F
330
1F
100
AcDbEntity
  8
freecads.com
100
AcDbLine
 10
121110.1034198439
 20
91079.61791683854
 30
0.0
 11
121114.5445757544
 21
91069.12981046855
 31
0.0
  0
LINE
  5
23C70
330
1F
100
AcDbEntity
  8
freecads.com
100
AcDbLine
 10
121114.5445757544
 20
91069.12981046855
 30
0.0
 11
121117.5858307517
 21
91076.1385385555
 31
0.0
  0
LINE
  5
23C71
330
1F
100
AcDbEntity
  8
freecads.com
100
AcDbLine
 10
121117.5858307517
 20
91076.1385385555
 30
0.0
 11
121121.0271616614
 21
91081.08799632013
 31
0.0
  0
ARC
  5
23C72
330
1F
100
AcDbEntity
  8
freecads.com
100
AcDbCircle
 10
121130.5303282445
 20
91071.97663514231
 30
0.0
 40
13.16537419210863
100
AcDbArc
 50
351.4331246248507
 51
136.2058045248264
  0
LINE
  5
23C73
330
1F
100
AcDbEntity
  8
freecads.com
100
AcDbLine
 10
121143.5488119757
 20
91070.01547248781
 30
0.0
 11
121131.3982568419
 21
91035.12158979595
 31
0.0
  0
LINE
  5
23C74
330
1F
100
AcDbEntity
  8
freecads.com
100
AcDbLine
 10
121131.3982568419
 20
91035.12158979595
 30
0.0
 11
121145.0032115615
 21
91017.5578982991
 31
0.0
  0
LINE
  5
23C75
330
1F
100
AcDbEntity
  8
freecads.com
100
AcDbLine
 10
121145.0032115615
 20
91017.5578982991
 30
0.0
 11
121170.7233057654
 21
90998.72100789964
 31
0.0
  0
LINE
  5
23C76
330
1F
100
AcDbEntity
  8
freecads.com
100
AcDbLine
 10
121170.7233057654
 20
90998.72100789964
 30
0.0
 11
121229.5923095381
 21
90983.19286818922
 31
0.0
  0
LINE
  5
23C77
330
1F
100
AcDbEntity
  8
freecads.com
100
AcDbLine
 10
121229.5923095381
 20
90983.19286818922
 30
0.0
 11
121254.9703770316
 21
90971.4629395169
 31
0.0
  0
LINE
  5
23C78
330
1F
100
AcDbEntity
  8
freecads.com
100
AcDbLine
 10
121254.9703770316
 20
90971.4629395169
 30
0.0
 11
121272.1039391196
 21
90949.58092673243
 31
0.0
  0
LINE
  5
23C79
330
1F
100
AcDbEntity
  8
freecads.com
100
AcDbLine
 10
121272.1039391196
 20
90949.58092673243
 30
0.0
 11
121271.1609326041
 21
90914.05536539971
 31
0.0
  0
LINE
  5
23C7A
330
1F
100
AcDbEntity
  8
freecads.com
100
AcDbLine
 10
121271.1609326041
 20
90914.05536539971
 30
0.0
 11
121253.728765074
 21
90858.8600179714
 31
0.0
  0
LINE
  5
23C7B
330
1F
100
AcDbEntity
  8
freecads.com
100
AcDbLine
 10
121253.728765074
 20
90858.8600179714
 30
0.0
 11
121218.5426685812
 21
90776.96651828732
 31
0.0
  0
LINE
  5
23C88
330
1F
100
AcDbEntity
  8
freecads.com
100
AcDbLine
 10
121464.6784455278
 20
90776.9960807694
 30
0.0
 11
121428.6057048476
 21
90861.0232849878
 31
0.0
  0
LINE
  5
23C89
330
1F
100
AcDbEntity
  8
freecads.com
100
AcDbLine
 10
121428.6057048476
 20
90861.0232849878
 30
0.0
 11
121412.149799887
 21
90913.91146446884
 31
0.0
  0
LINE
  5
23C8A
330
1F
100
AcDbEntity
  8
freecads.com
100
AcDbLine
 10
121412.149799887
 20
90913.91146446884
 30
0.0
 11
121410.9392886794
 21
90949.41243822992
 31
0.0
  0
LINE
  5
23C8B
330
1F
100
AcDbEntity
  8
freecads.com
100
AcDbLine
 10
121410.9392886794
 20
90949.41243822992
 30
0.0
 11
121428.1842251456
 21
90971.6761366886
 31
0.0
  0
LINE
  5
23C8C
330
1F
100
AcDbEntity
  8
freecads.com
100
AcDbLine
 10
121428.1842251456
 20
90971.6761366886
 30
0.0
 11
121454.2382808364
 21
90983.443856017
 31
0.0
  0
LINE
  5
23C8D
330
1F
100
AcDbEntity
  8
freecads.com
100
AcDbLine
 10
121454.2382808364
 20
90983.443856017
 30
0.0
 11
121512.7883148825
 21
90999.2147553128
 31
0.0
  0
ARC
  5
23C8E
330
1F
100
AcDbEntity
  8
freecads.com
100
AcDbCircle
 10
121476.3707969608
 20
91077.83826295406
 30
0.0
 40
86.64809037359544
100
AcDbArc
 50
294.853037683599
 51
330.4849794674411
  0
LINE
  5
23C8F
330
1F
100
AcDbEntity
  8
freecads.com
100
AcDbLine
 10
121551.7742677367
 20
91035.15093274534
 30
0.0
 11
121539.1176033652
 21
91070.88139696539
 31
0.0
  0
ARC
  5
23C90
330
1F
100
AcDbEntity
  8
freecads.com
100
AcDbCircle
 10
121552.5615367121
 20
91071.80628753962
 30
0.0
 40
13.47571023768095
100
AcDbArc
 50
44.72159980859223
 51
183.9355268334722
  0
LINE
  5
23C91
330
1F
100
AcDbEntity
  8
freecads.com
100
AcDbLine
 10
121562.1364904082
 20
91081.28864105164
 30
0.0
 11
121568.4874964392
 21
91069.20585145175
 31
0.0
  0
LINE
  5
23C92
330
1F
100
AcDbEntity
  8
freecads.com
100
AcDbLine
 10
121568.4874964392
 20
91069.20585145175
 30
0.0
 11
121594.1188951171
 21
91118.24684138715
 31
0.0
  0
LINE
  5
23C93
330
1F
100
AcDbEntity
  8
freecads.com
100
AcDbLine
 10
121594.1188951171
 20
91118.24684138715
 30
0.0
 11
121633.758143965
 21
91157.90520902097
 31
0.0
  0
ARC
  5
23C94
330
1F
100
AcDbEntity
  8
freecads.com
100
AcDbCircle
 10
121782.8861830943
 20
90626.09527378723
 30
0.0
 40
552.3232561352499
100
AcDbArc
 50
74.3632806138778
 51
105.6643487287878
  0
LINE
  5
23C95
330
1F
100
AcDbEntity
  8
freecads.com
100
AcDbLine
 10
121931.7577539122
 20
91157.97706015527
 30
0.0
 11
121955.7733793891
 21
91136.96367772043
 31
0.0
  0
LINE
  5
23C96
330
1F
100
AcDbEntity
  8
freecads.com
100
AcDbLine
 10
121955.7733793891
 20
91136.96367772043
 30
0.0
 11
121971.202452246
 21
91117.62058587492
 31
0.0
  0
LINE
  5
23C97
330
1F
100
AcDbEntity
  8
freecads.com
100
AcDbLine
 10
121971.202452246
 20
91117.62058587492
 30
0.0
 11
121992.1997624076
 21
91079.83060111225
 31
0.0
  0
LINE
  5
23C98
330
1F
100
AcDbEntity
  8
freecads.com
100
AcDbLine
 10
121992.1997624076
 20
91079.83060111225
 30
0.0
 11
121996.6409187949
 21
91069.34249492109
 31
0.0
  0
LINE
  5
23C99
330
1F
100
AcDbEntity
  8
freecads.com
100
AcDbLine
 10
121996.6409187949
 20
91069.34249492109
 30
0.0
 11
121999.682174269
 21
91076.35122366369
 31
0.0
  0
LINE
  5
23C9A
330
1F
100
AcDbEntity
  8
freecads.com
100
AcDbLine
 10
121999.682174269
 20
91076.35122366369
 30
0.0
 11
122003.1235047019
 21
91081.30068083227
 31
0.0
  0
ARC
  5
23C9B
330
1F
100
AcDbEntity
  8
freecads.com
100
AcDbCircle
 10
122012.6266716085
 20
91072.18931984698
 30
0.0
 40
13.16537429242722
100
AcDbArc
 50
351.4331262041874
 51
136.2058061042393
  0
LINE
  5
23C9C
330
1F
100
AcDbEntity
  8
freecads.com
100
AcDbLine
 10
122025.645155493
 20
91070.22815753639
 30
0.0
 11
122013.4945998824
 21
91035.33427383124
 31
0.0
  0
LINE
  5
23C9D
330
1F
100
AcDbEntity
  8
freecads.com
100
AcDbLine
 10
122013.4945998824
 20
91035.33427383124
 30
0.0
 11
122027.0995550787
 21
91017.77058299004
 31
0.0
  0
LINE
  5
23C9E
330
1F
100
AcDbEntity
  8
freecads.com
100
AcDbLine
 10
122027.0995550787
 20
91017.77058299004
 30
0.0
 11
122052.8196492827
 21
90998.93369241177
 31
0.0
  0
LINE
  5
23C9F
330
1F
100
AcDbEntity
  8
freecads.com
100
AcDbLine
 10
122052.8196492827
 20
90998.93369241177
 30
0.0
 11
122111.6886530555
 21
90983.40555335701
 31
0.0
  0
LINE
  5
23CA0
330
1F
100
AcDbEntity
  8
freecads.com
100
AcDbLine
 10
122111.6886530555
 20
90983.40555335701
 30
0.0
 11
122137.066720072
 21
90971.67562402905
 31
0.0
  0
LINE
  5
23CA1
330
1F
100
AcDbEntity
  8
freecads.com
100
AcDbLine
 10
122137.066720072
 20
90971.67562402905
 30
0.0
 11
122154.2002821601
 21
90949.79361154258
 31
0.0
  0
LINE
  5
23CA2
330
1F
100
AcDbEntity
  8
freecads.com
100
AcDbLine
 10
122154.2002821601
 20
90949.79361154258
 30
0.0
 11
122153.2572765982
 21
90914.26805038869
 31
0.0
  0
LINE
  5
23CA3
330
1F
100
AcDbEntity
  8
freecads.com
100
AcDbLine
 10
122153.2572765982
 20
90914.26805038869
 30
0.0
 11
122135.8251081145
 21
90859.07270296038
 31
0.0
  0
LINE
  5
23CA4
330
1F
100
AcDbEntity
  8
freecads.com
100
AcDbLine
 10
122135.8251081145
 20
90859.07270296038
 30
0.0
 11
122100.5931481115
 21
90777.07245819503
 31
0.0
  0
LINE
  5
23CAF
330
1F
100
AcDbEntity
  8
freecads.com
100
AcDbLine
 10
118717.8402653372
 20
89676.66615362585
 30
0.0
 11
118717.721714083
 21
90776.66615368546
 31
0.0
  0
LINE
  5
23CB0
330
1F
100
AcDbEntity
  8
freecads.com
100
AcDbLine
 10
118717.721714083
 20
90776.66615368546
 30
0.0
 11
124888.2319908774
 21
90777.40727146089
 31
0.0
  0
LINE
  5
23CB1
330
1F
100
AcDbEntity
  8
freecads.com
100
AcDbLine
 10
124888.2319908774
 20
90777.40727146089
 30
0.0
 11
124888.3505421317
 21
89677.40727205693
 31
0.0
  0
LINE
  5
23CB2
330
1F
100
AcDbEntity
  8
freecads.com
100
AcDbLine
 10
124888.3505421317
 20
89677.40727205693
 30
0.0
 11
118717.8402653372
 21
89676.66615362585
 31
0.0
  0
LINE
  5
23CB6
330
1F
100
AcDbEntity
  8
freecads.com
100
AcDbLine
 10
122307.3324420001
 20
89677.09727499036
 30
0.0
 11
122271.3066435492
 21
89593.06765510261
 31
0.0
  0
LINE
  5
23CB7
330
1F
100
AcDbEntity
  8
freecads.com
100
AcDbLine
 10
122271.3066435492
 20
89593.06765510261
 30
0.0
 11
122254.8762427008
 21
89540.17154611767
 31
0.0
  0
LINE
  5
23CB8
330
1F
100
AcDbEntity
  8
freecads.com
100
AcDbLine
 10
122254.8762427008
 20
89540.17154611767
 30
0.0
 11
122253.6828528083
 21
89504.66999240338
 31
0.0
  0
LINE
  5
23CB9
330
1F
100
AcDbEntity
  8
freecads.com
100
AcDbLine
 10
122253.6828528083
 20
89504.66999240338
 30
0.0
 11
122270.9385233557
 21
89482.41461290539
 31
0.0
  0
LINE
  5
23CBA
330
1F
100
AcDbEntity
  8
freecads.com
100
AcDbLine
 10
122270.9385233557
 20
89482.41461290539
 30
0.0
 11
122296.9982510245
 21
89470.65945895136
 31
0.0
  0
LINE
  5
23CBB
330
1F
100
AcDbEntity
  8
freecads.com
100
AcDbLine
 10
122296.9982510245
 20
89470.65945895136
 30
0.0
 11
122355.5558825171
 21
89454.91679538905
 31
0.0
  0
ARC
  5
23CBC
330
1F
100
AcDbEntity
  8
freecads.com
100
AcDbCircle
 10
122319.1762832309
 20
89376.27573527935
 30
0.0
 40
86.64809045445464
100
AcDbArc
 50
29.54265014696231
 51
65.17459193080282
  0
LINE
  5
23CBD
330
1F
100
AcDbEntity
  8
freecads.com
100
AcDbLine
 10
122394.5591602958
 20
89418.99942220867
 30
0.0
 11
122381.9197273886
 21
89383.26285912216
 31
0.0
  0
ARC
  5
23CBE
330
1F
100
AcDbEntity
  8
freecads.com
100
AcDbCircle
 10
122395.3641051592
 20
89382.34445154268
 30
0.0
 40
13.47571022689264
100
AcDbArc
 50
176.0921021378503
 51
315.3060291627769
  0
LINE
  5
23CBF
330
1F
100
AcDbEntity
  8
freecads.com
100
AcDbLine
 10
122404.9436302817
 20
89372.86671634138
 30
0.0
 11
122411.2888093627
 21
89384.95256771266
 31
0.0
  0
LINE
  5
23CC0
330
1F
100
AcDbEntity
  8
freecads.com
100
AcDbLine
 10
122411.2888093627
 20
89384.95256771266
 30
0.0
 11
122436.9438543952
 21
89335.92394341648
 31
0.0
  0
LINE
  5
23CC1
330
1F
100
AcDbEntity
  8
freecads.com
100
AcDbLine
 10
122436.9438543952
 20
89335.92394341648
 30
0.0
 11
122476.602222029
 21
89296.28469468772
 31
0.0
  0
ARC
  5
23CC2
330
1F
100
AcDbEntity
  8
freecads.com
100
AcDbCircle
 10
122625.473792183
 20
89828.16648032395
 30
0.0
 40
552.3232552515808
100
AcDbArc
 50
254.3632806597407
 51
285.6643487746501
  0
LINE
  5
23CC3
330
1F
100
AcDbEntity
  8
freecads.com
100
AcDbLine
 10
122774.6018314993
 20
89296.35654606045
 30
0.0
 11
122798.6073213256
 21
89317.38150800883
 31
0.0
  0
LINE
  5
23CC4
330
1F
100
AcDbEntity
  8
freecads.com
100
AcDbLine
 10
122798.6073213256
 20
89317.38150800883
 30
0.0
 11
122814.0270653403
 21
89336.73203738154
 31
0.0
  0
LINE
  5
23CC5
330
1F
100
AcDbEntity
  8
freecads.com
100
AcDbLine
 10
122814.0270653403
 20
89336.73203738154
 30
0.0
 11
122835.0061488783
 21
89374.53214301289
 31
0.0
  0
LINE
  5
23CC6
330
1F
100
AcDbEntity
  8
freecads.com
100
AcDbLine
 10
122835.0061488783
 20
89374.53214301289
 30
0.0
 11
122839.442247454
 21
89385.02239044129
 31
0.0
  0
LINE
  5
23CC7
330
1F
100
AcDbEntity
  8
freecads.com
100
AcDbLine
 10
122839.442247454
 20
89385.02239044129
 30
0.0
 11
122842.4868827498
 21
89378.01512946307
 31
0.0
  0
LINE
  5
23CC8
330
1F
100
AcDbEntity
  8
freecads.com
100
AcDbLine
 10
122842.4868827498
 20
89378.01512946307
 30
0.0
 11
122845.9305997527
 21
89373.06733079374
 31
0.0
  0
ARC
  5
23CC9
330
1F
100
AcDbEntity
  8
freecads.com
100
AcDbCircle
 10
122855.4293712053
 20
89382.18327379649
 30
0.0
 40
13.16537412832431
100
AcDbArc
 50
223.8218265258058
 51
8.594506425805406
  0
LINE
  5
23CCA
330
1F
100
AcDbEntity
  8
freecads.com
100
AcDbLine
 10
122868.4469075835
 20
89384.15071441353
 30
0.0
 11
122856.2795272506
 21
89419.03873385609
 31
0.0
  0
LINE
  5
23CCB
330
1F
100
AcDbEntity
  8
freecads.com
100
AcDbLine
 10
122856.2795272506
 20
89419.03873385609
 30
0.0
 11
122869.876010958
 21
89436.60898412883
 31
0.0
  0
LINE
  5
23CCC
330
1F
100
AcDbEntity
  8
freecads.com
100
AcDbLine
 10
122869.876010958
 20
89436.60898412883
 30
0.0
 11
122895.5870175994
 21
89455.45827569187
 31
0.0
  0
LINE
  5
23CCD
330
1F
100
AcDbEntity
  8
freecads.com
100
AcDbLine
 10
122895.5870175994
 20
89455.45827569187
 30
0.0
 11
122954.4485273993
 21
89471.01480050504
 31
0.0
  0
LINE
  5
23CCE
330
1F
100
AcDbEntity
  8
freecads.com
100
AcDbLine
 10
122954.4485273993
 20
89471.01480050504
 30
0.0
 11
122979.8209348357
 21
89482.75696648776
 31
0.0
  0
LINE
  5
23CCF
330
1F
100
AcDbEntity
  8
freecads.com
100
AcDbLine
 10
122979.8209348357
 20
89482.75696648776
 30
0.0
 11
122996.9439430869
 21
89504.64723868787
 31
0.0
  0
LINE
  5
23CD0
330
1F
100
AcDbEntity
  8
freecads.com
100
AcDbLine
 10
122996.9439430869
 20
89504.64723868787
 30
0.0
 11
122995.9838061965
 21
89540.17234130324
 31
0.0
  0
LINE
  5
23CD1
330
1F
100
AcDbEntity
  8
freecads.com
100
AcDbLine
 10
122995.9838061965
 20
89540.17234130324
 30
0.0
 11
122978.5250230468
 21
89595.35927589357
 31
0.0
  0
LINE
  5
23CD2
330
1F
100
AcDbEntity
  8
freecads.com
100
AcDbLine
 10
122978.5250230468
 20
89595.35927589357
 30
0.0
 11
122943.3261726868
 21
89677.17366197534
 31
0.0
  0
LINE
  5
23CDF
330
1F
100
AcDbEntity
  8
freecads.com
100
AcDbLine
 10
123189.3830209763
 20
89677.20321500374
 30
0.0
 11
123153.4029870665
 21
89593.28033961474
 31
0.0
  0
LINE
  5
23CE0
330
1F
100
AcDbEntity
  8
freecads.com
100
AcDbLine
 10
123153.4029870665
 20
89593.28033961474
 30
0.0
 11
123136.9725871718
 21
89540.38423051059
 31
0.0
  0
LINE
  5
23CE1
330
1F
100
AcDbEntity
  8
freecads.com
100
AcDbLine
 10
123136.9725871718
 20
89540.38423051059
 30
0.0
 11
123135.7791953719
 21
89504.88267685592
 31
0.0
  0
LINE
  5
23CE2
330
1F
100
AcDbEntity
  8
freecads.com
100
AcDbLine
 10
123135.7791953719
 20
89504.88267685592
 30
0.0
 11
123153.034866873
 21
89482.62729789435
 31
0.0
  0
LINE
  5
23CE3
330
1F
100
AcDbEntity
  8
freecads.com
100
AcDbLine
 10
123153.034866873
 20
89482.62729789435
 30
0.0
 11
123179.0945935882
 21
89470.87214334429
 31
0.0
  0
LINE
  5
23CE4
330
1F
100
AcDbEntity
  8
freecads.com
100
AcDbLine
 10
123179.0945935882
 20
89470.87214334429
 30
0.0
 11
123237.6522250807
 21
89455.12948025882
 31
0.0
  0
ARC
  5
23CE5
330
1F
100
AcDbEntity
  8
freecads.com
100
AcDbCircle
 10
123201.2726258077
 20
89376.48841851634
 30
0.0
 40
86.64809193081202
100
AcDbArc
 50
29.54265060816723
 51
65.17459239200788
  0
LINE
  5
23CE6
330
1F
100
AcDbEntity
  8
freecads.com
100
AcDbLine
 10
123276.6555038131
 20
89419.21210678041
 30
0.0
 11
123264.0160704291
 21
89383.47554393232
 31
0.0
  0
ARC
  5
23CE7
330
1F
100
AcDbEntity
  8
freecads.com
100
AcDbCircle
 10
123277.4604489038
 20
89382.55713664855
 30
0.0
 40
13.47571090926913
100
AcDbArc
 50
176.0921035962662
 51
315.3060306211879
  0
LINE
  5
23CE8
330
1F
100
AcDbEntity
  8
freecads.com
100
AcDbLine
 10
123287.0399747527
 20
89373.07940121113
 30
0.0
 11
123293.3851524032
 21
89385.16525174797
 31
0.0
  0
LINE
  5
23CE9
330
1F
100
AcDbEntity
  8
freecads.com
100
AcDbLine
 10
123293.3851524032
 20
89385.16525174797
 30
0.0
 11
123319.0401974356
 21
89336.13662798823
 31
0.0
  0
LINE
  5
23CEA
330
1F
100
AcDbEntity
  8
freecads.com
100
AcDbLine
 10
123319.0401974356
 20
89336.13662798823
 30
0.0
 11
123358.6985650695
 21
89296.4973796767
 31
0.0
  0
ARC
  5
23CEB
330
1F
100
AcDbEntity
  8
freecads.com
100
AcDbCircle
 10
123507.5701355426
 20
89828.37916522353
 30
0.0
 40
552.3232552514984
100
AcDbArc
 50
254.3632806253614
 51
285.6643487402708
  0
LINE
  5
23CEC
330
1F
100
AcDbEntity
  8
freecads.com
100
AcDbLine
 10
123656.6981745398
 20
89296.5692308706
 30
0.0
 11
123680.7036638892
 21
89317.59419252097
 31
0.0
  0
LINE
  5
23CED
330
1F
100
AcDbEntity
  8
freecads.com
100
AcDbLine
 10
123680.7036638892
 20
89317.59419252097
 30
0.0
 11
123696.1234079039
 21
89336.94472189367
 31
0.0
  0
LINE
  5
23CEE
330
1F
100
AcDbEntity
  8
freecads.com
100
AcDbLine
 10
123696.1234079039
 20
89336.94472189367
 30
0.0
 11
123717.1024923957
 21
89374.74482758462
 31
0.0
  0
LINE
  5
23CEF
330
1F
100
AcDbEntity
  8
freecads.com
100
AcDbLine
 10
123717.1024923957
 20
89374.74482758462
 30
0.0
 11
123721.5385909713
 21
89385.23507483424
 31
0.0
  0
LINE
  5
23CF0
330
1F
100
AcDbEntity
  8
freecads.com
100
AcDbLine
 10
123721.5385909713
 20
89385.23507483424
 30
0.0
 11
123724.5832253134
 21
89378.22781355798
 31
0.0
  0
LINE
  5
23CF1
330
1F
100
AcDbEntity
  8
freecads.com
100
AcDbLine
 10
123724.5832253134
 20
89378.22781355798
 30
0.0
 11
123728.0269423163
 21
89373.28001590193
 31
0.0
  0
ARC
  5
23CF2
330
1F
100
AcDbEntity
  8
freecads.com
100
AcDbCircle
 10
123737.5257141114
 20
89382.39595865253
 30
0.0
 40
13.16537420084545
100
AcDbArc
 50
223.8218247020203
 51
8.594504602074653
  0
LINE
  5
23CF3
330
1F
100
AcDbEntity
  8
freecads.com
100
AcDbLine
 10
123750.543250624
 20
89384.36339886607
 30
0.0
 11
123738.375870291
 21
89419.25141896426
 31
0.0
  0
LINE
  5
23CF4
330
1F
100
AcDbEntity
  8
freecads.com
100
AcDbLine
 10
123738.375870291
 20
89419.25141896426
 30
0.0
 11
123751.9723539984
 21
89436.82166840256
 31
0.0
  0
LINE
  5
23CF5
330
1F
100
AcDbEntity
  8
freecads.com
100
AcDbLine
 10
123751.9723539984
 20
89436.82166840256
 30
0.0
 11
123777.6833615935
 21
89455.67095960797
 31
0.0
  0
LINE
  5
23CF6
330
1F
100
AcDbEntity
  8
freecads.com
100
AcDbLine
 10
123777.6833615935
 20
89455.67095960797
 30
0.0
 11
123836.5448718703
 21
89471.22748537481
 31
0.0
  0
LINE
  5
23CF7
330
1F
100
AcDbEntity
  8
freecads.com
100
AcDbLine
 10
123836.5448718703
 20
89471.22748537481
 30
0.0
 11
123861.9172788298
 21
89482.96965117872
 31
0.0
  0
LINE
  5
23CF8
330
1F
100
AcDbEntity
  8
freecads.com
100
AcDbLine
 10
123861.9172788298
 20
89482.96965117872
 30
0.0
 11
123879.0402866042
 21
89504.85992314041
 31
0.0
  0
LINE
  5
23CF9
330
1F
100
AcDbEntity
  8
freecads.com
100
AcDbLine
 10
123879.0402866042
 20
89504.85992314041
 30
0.0
 11
123878.0801492369
 21
89540.38502587497
 31
0.0
  0
LINE
  5
23CFA
330
1F
100
AcDbEntity
  8
freecads.com
100
AcDbLine
 10
123878.0801492369
 20
89540.38502587497
 30
0.0
 11
123860.6213670409
 21
89595.57196028649
 31
0.0
  0
LINE
  5
23CFB
330
1F
100
AcDbEntity
  8
freecads.com
100
AcDbLine
 10
123860.6213670409
 20
89595.57196028649
 30
0.0
 11
123825.4684363782
 21
89677.27961300065
 31
0.0
  0
LINE
  5
23D08
330
1F
100
AcDbEntity
  8
freecads.com
100
AcDbLine
 10
124031.7585959832
 20
89677.30438979099
 30
0.0
 11
123995.8222685492
 21
89593.48345799863
 31
0.0
  0
LINE
  5
23D09
330
1F
100
AcDbEntity
  8
freecads.com
100
AcDbLine
 10
123995.8222685492
 20
89593.48345799863
 30
0.0
 11
123979.391867224
 21
89540.58734835804
 31
0.0
  0
LINE
  5
23D0A
330
1F
100
AcDbEntity
  8
freecads.com
100
AcDbLine
 10
123979.391867224
 20
89540.58734835804
 30
0.0
 11
123978.1984773314
 21
89505.0857951802
 31
0.0
  0
LINE
  5
23D0B
330
1F
100
AcDbEntity
  8
freecads.com
100
AcDbLine
 10
123978.1984773314
 20
89505.0857951802
 30
0.0
 11
123995.4541483557
 21
89482.83041532457
 31
0.0
  0
LINE
  5
23D0C
330
1F
100
AcDbEntity
  8
freecads.com
100
AcDbLine
 10
123995.4541483557
 20
89482.83041532457
 30
0.0
 11
124021.5138755477
 21
89471.07526125133
 31
0.0
  0
LINE
  5
23D0D
330
1F
100
AcDbEntity
  8
freecads.com
100
AcDbLine
 10
124021.5138755477
 20
89471.07526125133
 30
0.0
 11
124080.0715075171
 21
89455.33259810627
 31
0.0
  0
ARC
  5
23D0E
330
1F
100
AcDbEntity
  8
freecads.com
100
AcDbCircle
 10
124043.6919084562
 20
89376.69153888743
 30
0.0
 40
86.6480895513191
100
AcDbArc
 50
29.54265003481781
 51
65.17459181865937
  0
LINE
  5
23D0F
330
1F
100
AcDbEntity
  8
freecads.com
100
AcDbLine
 10
124119.0747848189
 20
89419.41522522389
 30
0.0
 11
124106.435351435
 21
89383.67866154134
 31
0.0
  0
ARC
  5
23D10
330
1F
100
AcDbEntity
  8
freecads.com
100
AcDbCircle
 10
124119.8797297045
 20
89382.76025407953
 30
0.0
 40
13.47571071671282
100
AcDbArc
 50
176.0921027815762
 51
315.3060298064659
  0
LINE
  5
23D11
330
1F
100
AcDbEntity
  8
freecads.com
100
AcDbLine
 10
124129.4592552817
 20
89373.28251864135
 30
0.0
 11
124135.8044338858
 21
89385.368369357
 31
0.0
  0
LINE
  5
23D12
330
1F
100
AcDbEntity
  8
freecads.com
100
AcDbLine
 10
124135.8044338858
 20
89385.368369357
 30
0.0
 11
124161.4594779647
 21
89336.33974535883
 31
0.0
  0
LINE
  5
23D13
330
1F
100
AcDbEntity
  8
freecads.com
100
AcDbLine
 10
124161.4594779647
 20
89336.33974535883
 30
0.0
 11
124201.1178465522
 21
89296.70049740494
 31
0.0
  0
ARC
  5
23D14
330
1F
100
AcDbEntity
  8
freecads.com
100
AcDbCircle
 10
124349.989417183
 20
89828.5822847432
 30
0.0
 40
552.3232570191494
100
AcDbArc
 50
254.3632806596963
 51
285.6643487746061
  0
LINE
  5
23D15
330
1F
100
AcDbEntity
  8
freecads.com
100
AcDbLine
 10
124499.1174569762
 20
89296.77234877765
 30
0.0
 11
124523.1229458487
 21
89317.79731042803
 31
0.0
  0
LINE
  5
23D16
330
1F
100
AcDbEntity
  8
freecads.com
100
AcDbLine
 10
124523.1229458487
 20
89317.79731042803
 30
0.0
 11
124538.5426893866
 21
89337.14783938349
 31
0.0
  0
LINE
  5
23D17
330
1F
100
AcDbEntity
  8
freecads.com
100
AcDbLine
 10
124538.5426893866
 20
89337.14783938349
 30
0.0
 11
124559.521774832
 21
89374.94794537247
 31
0.0
  0
LINE
  5
23D18
330
1F
100
AcDbEntity
  8
freecads.com
100
AcDbLine
 10
124559.521774832
 20
89374.94794537247
 30
0.0
 11
124563.9578719771
 21
89385.43819262207
 31
0.0
  0
LINE
  5
23D19
330
1F
100
AcDbEntity
  8
freecads.com
100
AcDbLine
 10
124563.9578719771
 20
89385.43819262207
 30
0.0
 11
124567.0025077498
 21
89378.43093140543
 31
0.0
  0
LINE
  5
23D1A
330
1F
100
AcDbEntity
  8
freecads.com
100
AcDbLine
 10
124567.0025077498
 20
89378.43093140543
 30
0.0
 11
124570.4462242758
 21
89373.48313380898
 31
0.0
  0
ARC
  5
23D1B
330
1F
100
AcDbEntity
  8
freecads.com
100
AcDbCircle
 10
124579.9449960899
 20
89382.59907649998
 30
0.0
 40
13.16537417323352
100
AcDbArc
 50
223.8218244578144
 51
8.594504357900543
  0
LINE
  5
23D1C
330
1F
100
AcDbEntity
  8
freecads.com
100
AcDbLine
 10
124592.9625325835
 20
89384.5665166539
 30
0.0
 11
124580.7951522506
 21
89419.45453627527
 31
0.0
  0
LINE
  5
23D1D
330
1F
100
AcDbEntity
  8
freecads.com
100
AcDbLine
 10
124580.7951522506
 20
89419.45453627527
 30
0.0
 11
124594.3916350043
 21
89437.02478702485
 31
0.0
  0
LINE
  5
23D1E
330
1F
100
AcDbEntity
  8
freecads.com
100
AcDbLine
 10
124594.3916350043
 20
89437.02478702485
 30
0.0
 11
124620.102643553
 21
89455.87407691895
 31
0.0
  0
LINE
  5
23D1F
330
1F
100
AcDbEntity
  8
freecads.com
100
AcDbLine
 10
124620.102643553
 20
89455.87407691895
 30
0.0
 11
124678.9641523993
 21
89471.43060340106
 31
0.0
  0
LINE
  5
23D20
330
1F
100
AcDbEntity
  8
freecads.com
100
AcDbLine
 10
124678.9641523993
 20
89471.43060340106
 30
0.0
 11
124704.3365603125
 21
89483.17276890696
 31
0.0
  0
LINE
  5
23D21
330
1F
100
AcDbEntity
  8
freecads.com
100
AcDbLine
 10
124704.3365603125
 20
89483.17276890696
 30
0.0
 11
124721.4595685637
 21
89505.06304140509
 31
0.0
  0
LINE
  5
23D22
330
1F
100
AcDbEntity
  8
freecads.com
100
AcDbLine
 10
124721.4595685637
 20
89505.06304140509
 30
0.0
 11
124720.4994311965
 21
89540.58814413965
 31
0.0
  0
LINE
  5
23D23
330
1F
100
AcDbEntity
  8
freecads.com
100
AcDbLine
 10
124720.4994311965
 20
89540.58814413965
 30
0.0
 11
124703.0406485236
 21
89595.77507861078
 31
0.0
  0
LINE
  5
23D24
330
1F
100
AcDbEntity
  8
freecads.com
100
AcDbLine
 10
124703.0406485236
 20
89595.77507861078
 30
0.0
 11
124667.9315724478
 21
89677.38079830457
 31
0.0
  0
LINE
  5
23D31
330
1F
100
AcDbEntity
  8
freecads.com
100
AcDbLine
 10
122307.1414860542
 20
90777.09726597234
 30
0.0
 11
122271.0249863303
 21
90861.22640164315
 31
0.0
  0
LINE
  5
23D32
330
1F
100
AcDbEntity
  8
freecads.com
100
AcDbLine
 10
122271.0249863303
 20
90861.22640164315
 30
0.0
 11
122254.569080416
 21
90914.11458160102
 31
0.0
  0
LINE
  5
23D33
330
1F
100
AcDbEntity
  8
freecads.com
100
AcDbLine
 10
122254.569080416
 20
90914.11458160102
 30
0.0
 11
122253.3585701621
 21
90949.61555548131
 31
0.0
  0
LINE
  5
23D34
330
1F
100
AcDbEntity
  8
freecads.com
100
AcDbLine
 10
122253.3585701621
 20
90949.61555548131
 30
0.0
 11
122270.6035061515
 21
90971.87925388038
 31
0.0
  0
LINE
  5
23D35
330
1F
100
AcDbEntity
  8
freecads.com
100
AcDbLine
 10
122270.6035061515
 20
90971.87925388038
 30
0.0
 11
122296.6575613654
 21
90983.64697320878
 31
0.0
  0
LINE
  5
23D36
330
1F
100
AcDbEntity
  8
freecads.com
100
AcDbLine
 10
122296.6575613654
 20
90983.64697320878
 30
0.0
 11
122355.2075954116
 21
90999.41787226617
 31
0.0
  0
ARC
  5
23D37
330
1F
100
AcDbEntity
  8
freecads.com
100
AcDbCircle
 10
122318.7900771189
 20
91078.04138002665
 30
0.0
 40
86.64809063766902
100
AcDbArc
 50
294.8530378730374
 51
330.4849796568782
  0
LINE
  5
23D38
330
1F
100
AcDbEntity
  8
freecads.com
100
AcDbLine
 10
122394.1935482657
 20
91035.35404993714
 30
0.0
 11
122381.5368838942
 21
91071.08451368034
 31
0.0
  0
ARC
  5
23D39
330
1F
100
AcDbEntity
  8
freecads.com
100
AcDbCircle
 10
122394.9808174574
 20
91072.00940410633
 30
0.0
 40
13.4757104432527
100
AcDbArc
 50
44.72159911668431
 51
183.9355261415658
  0
LINE
  5
23D3A
330
1F
100
AcDbEntity
  8
freecads.com
100
AcDbLine
 10
122404.5557714141
 20
91081.4917576474
 30
0.0
 11
122410.9067779219
 21
91069.40896852433
 31
0.0
  0
LINE
  5
23D3B
330
1F
100
AcDbEntity
  8
freecads.com
100
AcDbLine
 10
122410.9067779219
 20
91069.40896852433
 30
0.0
 11
122436.5381756461
 21
91118.44995822131
 31
0.0
  0
LINE
  5
23D3C
330
1F
100
AcDbEntity
  8
freecads.com
100
AcDbLine
 10
122436.5381756461
 20
91118.44995822131
 30
0.0
 11
122476.1774249709
 21
91158.10832657039
 31
0.0
  0
ARC
  5
23D3D
330
1F
100
AcDbEntity
  8
freecads.com
100
AcDbCircle
 10
122625.3054641552
 20
90626.29839318772
 30
0.0
 40
552.3232543678142
100
AcDbArc
 50
74.36328067122239
 51
105.6643487861321
  0
LINE
  5
23D3E
330
1F
100
AcDbEntity
  8
freecads.com
100
AcDbLine
 10
122774.1770339644
 20
91158.18017800272
 30
0.0
 11
122798.1926603949
 21
91137.16679425657
 31
0.0
  0
LINE
  5
23D3F
330
1F
100
AcDbEntity
  8
freecads.com
100
AcDbLine
 10
122798.1926603949
 20
91137.16679425657
 30
0.0
 11
122813.6217332518
 21
91117.82370354355
 31
0.0
  0
LINE
  5
23D40
330
1F
100
AcDbEntity
  8
freecads.com
100
AcDbLine
 10
122813.6217332518
 20
91117.82370354355
 30
0.0
 11
122834.6190438903
 21
91080.03371848285
 31
0.0
  0
LINE
  5
23D41
330
1F
100
AcDbEntity
  8
freecads.com
100
AcDbLine
 10
122834.6190438903
 20
91080.03371848285
 30
0.0
 11
122839.0601993239
 21
91069.54561211288
 31
0.0
  0
LINE
  5
23D42
330
1F
100
AcDbEntity
  8
freecads.com
100
AcDbLine
 10
122839.0601993239
 20
91069.54561211288
 30
0.0
 11
122842.101454798
 21
91076.55434019983
 31
0.0
  0
LINE
  5
23D43
330
1F
100
AcDbEntity
  8
freecads.com
100
AcDbLine
 10
122842.101454798
 20
91076.55434019983
 30
0.0
 11
122845.5427857077
 21
91081.50379796445
 31
0.0
  0
ARC
  5
23D44
330
1F
100
AcDbEntity
  8
freecads.com
100
AcDbCircle
 10
122855.0459523003
 20
91072.39243681645
 30
0.0
 40
13.16537417832145
100
AcDbArc
 50
351.433124746962
 51
136.2058046469802
  0
LINE
  5
23D45
330
1F
100
AcDbEntity
  8
freecads.com
100
AcDbLine
 10
122868.0644360221
 20
91070.43127419174
 30
0.0
 11
122855.9138808883
 21
91035.53739149988
 31
0.0
  0
LINE
  5
23D46
330
1F
100
AcDbEntity
  8
freecads.com
100
AcDbLine
 10
122855.9138808883
 20
91035.53739149988
 30
0.0
 11
122869.5188356078
 21
91017.97369994342
 31
0.0
  0
LINE
  5
23D47
330
1F
100
AcDbEntity
  8
freecads.com
100
AcDbLine
 10
122869.5188356078
 20
91017.97369994342
 30
0.0
 11
122895.2389293349
 21
90999.13680954397
 31
0.0
  0
LINE
  5
23D48
330
1F
100
AcDbEntity
  8
freecads.com
100
AcDbLine
 10
122895.2389293349
 20
90999.13680954397
 30
0.0
 11
122954.1079335845
 21
90983.60866983354
 31
0.0
  0
LINE
  5
23D49
330
1F
100
AcDbEntity
  8
freecads.com
100
AcDbLine
 10
122954.1079335845
 20
90983.60866983354
 30
0.0
 11
122979.4860010779
 21
90971.87874116123
 31
0.0
  0
LINE
  5
23D4A
330
1F
100
AcDbEntity
  8
freecads.com
100
AcDbLine
 10
122979.4860010779
 20
90971.87874116123
 30
0.0
 11
122996.6195626891
 21
90949.99672837674
 31
0.0
  0
LINE
  5
23D4B
330
1F
100
AcDbEntity
  8
freecads.com
100
AcDbLine
 10
122996.6195626891
 20
90949.99672837674
 30
0.0
 11
122995.6765566504
 21
90914.47116704404
 31
0.0
  0
LINE
  5
23D4C
330
1F
100
AcDbEntity
  8
freecads.com
100
AcDbLine
 10
122995.6765566504
 20
90914.47116704404
 30
0.0
 11
122978.2443886435
 21
90859.27581961572
 31
0.0
  0
LINE
  5
23D4D
330
1F
100
AcDbEntity
  8
freecads.com
100
AcDbLine
 10
122978.2443886435
 20
90859.27581961572
 30
0.0
 11
122942.9686285838
 21
90777.17363288144
 31
0.0
  0
LINE
  5
23D5A
330
1F
100
AcDbEntity
  8
freecads.com
100
AcDbLine
 10
123189.2836493359
 20
90777.20321689184
 30
0.0
 11
123153.1213293707
 21
90861.43908663213
 31
0.0
  0
LINE
  5
23D5B
330
1F
100
AcDbEntity
  8
freecads.com
100
AcDbLine
 10
123153.1213293707
 20
90861.43908663213
 30
0.0
 11
123136.6654239333
 21
90914.32726611316
 31
0.0
  0
LINE
  5
23D5C
330
1F
100
AcDbEntity
  8
freecads.com
100
AcDbLine
 10
123136.6654239333
 20
90914.32726611316
 30
0.0
 11
123135.4549122489
 21
90949.82823981464
 31
0.0
  0
LINE
  5
23D5D
330
1F
100
AcDbEntity
  8
freecads.com
100
AcDbLine
 10
123135.4549122489
 20
90949.82823981464
 30
0.0
 11
123152.6998496688
 21
90972.09193833291
 31
0.0
  0
LINE
  5
23D5E
330
1F
100
AcDbEntity
  8
freecads.com
100
AcDbLine
 10
123152.6998496688
 20
90972.09193833291
 30
0.0
 11
123178.7539053595
 21
90983.85965760172
 31
0.0
  0
LINE
  5
23D5F
330
1F
100
AcDbEntity
  8
freecads.com
100
AcDbLine
 10
123178.7539053595
 20
90983.85965760172
 30
0.0
 11
123237.3039389289
 21
90999.63055695713
 31
0.0
  0
ARC
  5
23D60
330
1F
100
AcDbEntity
  8
freecads.com
100
AcDbCircle
 10
123200.8864212456
 20
91078.25406534027
 30
0.0
 40
86.64809094656879
100
AcDbArc
 50
294.8530373343633
 51
330.4849791182026
  0
LINE
  5
23D61
330
1F
100
AcDbEntity
  8
freecads.com
100
AcDbLine
 10
123276.2898922598
 20
91035.56673438966
 30
0.0
 11
123263.6332278884
 21
91071.29719860971
 31
0.0
  0
ARC
  5
23D62
330
1F
100
AcDbEntity
  8
freecads.com
100
AcDbCircle
 10
123277.0771607584
 20
91072.22208936121
 30
0.0
 40
13.47570977413505
100
AcDbArc
 50
44.72160069965968
 51
183.9355277245633
  0
LINE
  5
23D63
330
1F
100
AcDbEntity
  8
freecads.com
100
AcDbLine
 10
123286.6521139777
 20
91081.70444269598
 30
0.0
 11
123293.0031200087
 21
91069.62165309608
 31
0.0
  0
LINE
  5
23D64
330
1F
100
AcDbEntity
  8
freecads.com
100
AcDbLine
 10
123293.0031200087
 20
91069.62165309608
 30
0.0
 11
123318.6345196402
 21
91118.66264297187
 31
0.0
  0
LINE
  5
23D65
330
1F
100
AcDbEntity
  8
freecads.com
100
AcDbLine
 10
123318.6345196402
 20
91118.66264297187
 30
0.0
 11
123358.2737684882
 21
91158.3210106653
 31
0.0
  0
ARC
  5
23D66
330
1F
100
AcDbEntity
  8
freecads.com
100
AcDbCircle
 10
123507.4018071406
 20
90626.5110771336
 30
0.0
 40
552.3232543676812
100
AcDbArc
 50
74.36328061392218
 51
105.6643487288319
  0
LINE
  5
23D67
330
1F
100
AcDbEntity
  8
freecads.com
100
AcDbLine
 10
123656.2733774817
 20
91158.3928617996
 30
0.0
 11
123680.2890029586
 21
91137.37947936476
 31
0.0
  0
LINE
  5
23D68
330
1F
100
AcDbEntity
  8
freecads.com
100
AcDbLine
 10
123680.2890029586
 20
91137.37947936476
 30
0.0
 11
123695.7180767691
 21
91118.03638751924
 31
0.0
  0
LINE
  5
23D69
330
1F
100
AcDbEntity
  8
freecads.com
100
AcDbLine
 10
123695.7180767691
 20
91118.03638751924
 30
0.0
 11
123716.7153864539
 21
91080.24640281618
 31
0.0
  0
LINE
  5
23D6A
330
1F
100
AcDbEntity
  8
freecads.com
100
AcDbLine
 10
123716.7153864539
 20
91080.24640281618
 30
0.0
 11
123721.1565433181
 21
91069.75829656541
 31
0.0
  0
LINE
  5
23D6B
330
1F
100
AcDbEntity
  8
freecads.com
100
AcDbLine
 10
123721.1565433181
 20
91069.75829656541
 30
0.0
 11
123724.1977983153
 21
91076.76702530801
 31
0.0
  0
LINE
  5
23D6C
330
1F
100
AcDbEntity
  8
freecads.com
100
AcDbLine
 10
123724.1977983153
 20
91076.76702530801
 30
0.0
 11
123727.639129225
 21
91081.71648241699
 31
0.0
  0
ARC
  5
23D6D
330
1F
100
AcDbEntity
  8
freecads.com
100
AcDbCircle
 10
123737.1422959027
 20
91072.6051215372
 30
0.0
 40
13.16537405415278
100
AcDbArc
 50
351.4331258460392
 51
136.2058057460143
  0
LINE
  5
23D6E
330
1F
100
AcDbEntity
  8
freecads.com
100
AcDbLine
 10
123750.1607795394
 20
91070.64395918071
 30
0.0
 11
123738.0102244056
 21
91035.75007553518
 31
0.0
  0
LINE
  5
23D6F
330
1F
100
AcDbEntity
  8
freecads.com
100
AcDbLine
 10
123738.0102244056
 20
91035.75007553518
 30
0.0
 11
123751.6151791251
 21
91018.18638463438
 31
0.0
  0
LINE
  5
23D70
330
1F
100
AcDbEntity
  8
freecads.com
100
AcDbLine
 10
123751.6151791251
 20
91018.18638463438
 30
0.0
 11
123777.335273329
 21
90999.34949399651
 31
0.0
  0
LINE
  5
23D71
330
1F
100
AcDbEntity
  8
freecads.com
100
AcDbLine
 10
123777.335273329
 20
90999.34949399651
 30
0.0
 11
123836.2042771018
 21
90983.82135500132
 31
0.0
  0
LINE
  5
23D72
330
1F
100
AcDbEntity
  8
freecads.com
100
AcDbLine
 10
123836.2042771018
 20
90983.82135500132
 30
0.0
 11
123861.5823441184
 21
90972.09142567336
 31
0.0
  0
LINE
  5
23D73
330
1F
100
AcDbEntity
  8
freecads.com
100
AcDbLine
 10
123861.5823441184
 20
90972.09142567336
 30
0.0
 11
123878.7159066832
 21
90950.20941318692
 31
0.0
  0
LINE
  5
23D74
330
1F
100
AcDbEntity
  8
freecads.com
100
AcDbLine
 10
123878.7159066832
 20
90950.20941318692
 30
0.0
 11
123877.7729011214
 21
90914.68385203302
 31
0.0
  0
LINE
  5
23D75
330
1F
100
AcDbEntity
  8
freecads.com
100
AcDbLine
 10
123877.7729011214
 20
90914.68385203302
 30
0.0
 11
123860.3407326377
 21
90859.4885046047
 31
0.0
  0
LINE
  5
23D76
330
1F
100
AcDbEntity
  8
freecads.com
100
AcDbLine
 10
123860.3407326377
 20
90859.4885046047
 30
0.0
 11
123825.0191088188
 21
90777.2795727892
 31
0.0
  0
LINE
  5
23D83
330
1F
100
AcDbEntity
  8
freecads.com
100
AcDbLine
 10
124031.7466910354
 20
90777.3044020949
 30
0.0
 11
123995.5406118071
 21
90861.64220436037
 31
0.0
  0
LINE
  5
23D84
330
1F
100
AcDbEntity
  8
freecads.com
100
AcDbLine
 10
123995.5406118071
 20
90861.64220436037
 30
0.0
 11
123979.0847044623
 21
90914.53038390101
 31
0.0
  0
LINE
  5
23D85
330
1F
100
AcDbEntity
  8
freecads.com
100
AcDbLine
 10
123979.0847044623
 20
90914.53038390101
 30
0.0
 11
123977.8741942084
 21
90950.03135766209
 31
0.0
  0
LINE
  5
23D86
330
1F
100
AcDbEntity
  8
freecads.com
100
AcDbLine
 10
123977.8741942084
 20
90950.03135766209
 30
0.0
 11
123995.1191311515
 21
90972.29505606115
 31
0.0
  0
LINE
  5
23D87
330
1F
100
AcDbEntity
  8
freecads.com
100
AcDbLine
 10
123995.1191311515
 20
90972.29505606115
 30
0.0
 11
124021.1731868422
 21
90984.06277556836
 31
0.0
  0
LINE
  5
23D88
330
1F
100
AcDbEntity
  8
freecads.com
100
AcDbLine
 10
124021.1731868422
 20
90984.06277556836
 30
0.0
 11
124079.7232199347
 21
90999.83367468537
 31
0.0
  0
ARC
  5
23D89
330
1F
100
AcDbEntity
  8
freecads.com
100
AcDbCircle
 10
124043.3057018276
 20
91078.45718238621
 30
0.0
 40
86.64809050562919
100
AcDbArc
 50
294.8530377783138
 51
330.4849795621573
  0
LINE
  5
23D8A
330
1F
100
AcDbEntity
  8
freecads.com
100
AcDbLine
 10
124118.7091727889
 20
91035.7698522371
 30
0.0
 11
124106.0525093711
 21
91071.50031645716
 31
0.0
  0
ARC
  5
23D8B
330
1F
100
AcDbEntity
  8
freecads.com
100
AcDbCircle
 10
124119.496442718
 20
91072.42520703138
 30
0.0
 40
13.47571023768095
100
AcDbArc
 50
44.72159980859223
 51
183.9355268334722
  0
LINE
  5
23D8C
330
1F
100
AcDbEntity
  8
freecads.com
100
AcDbLine
 10
124129.0713964141
 20
91081.90756054343
 30
0.0
 11
124135.4224024451
 21
91069.82477094351
 31
0.0
  0
LINE
  5
23D8D
330
1F
100
AcDbEntity
  8
freecads.com
100
AcDbLine
 10
124135.4224024451
 20
91069.82477094351
 30
0.0
 11
124161.0538020766
 21
91118.86576099813
 31
0.0
  0
LINE
  5
23D8E
330
1F
100
AcDbEntity
  8
freecads.com
100
AcDbLine
 10
124161.0538020766
 20
91118.86576099813
 30
0.0
 11
124200.6930490172
 21
91158.52412863196
 31
0.0
  0
ARC
  5
23D8F
330
1F
100
AcDbEntity
  8
freecads.com
100
AcDbCircle
 10
124349.8210897421
 20
90626.71419384525
 30
0.0
 40
552.3232561356486
100
AcDbArc
 50
74.36328078577847
 51
105.6643489006885
  0
LINE
  5
23D90
330
1F
100
AcDbEntity
  8
freecads.com
100
AcDbLine
 10
124498.6926589644
 20
91158.59598066032
 30
0.0
 11
124522.7082844413
 21
91137.58259721219
 31
0.0
  0
LINE
  5
23D91
330
1F
100
AcDbEntity
  8
freecads.com
100
AcDbLine
 10
124522.7082844413
 20
91137.58259721219
 30
0.0
 11
124538.1373572981
 21
91118.23950596273
 31
0.0
  0
LINE
  5
23D92
330
1F
100
AcDbEntity
  8
freecads.com
100
AcDbLine
 10
124538.1373572981
 20
91118.23950596273
 30
0.0
 11
124559.1346674597
 21
91080.44952131928
 31
0.0
  0
LINE
  5
23D93
330
1F
100
AcDbEntity
  8
freecads.com
100
AcDbLine
 10
124559.1346674597
 20
91080.44952131928
 30
0.0
 11
124563.5758248007
 21
91069.96141506851
 31
0.0
  0
LINE
  5
23D94
330
1F
100
AcDbEntity
  8
freecads.com
100
AcDbLine
 10
124563.5758248007
 20
91069.96141506851
 30
0.0
 11
124566.6170802748
 21
91076.97014309586
 31
0.0
  0
LINE
  5
23D95
330
1F
100
AcDbEntity
  8
freecads.com
100
AcDbLine
 10
124566.6170802748
 20
91076.97014309586
 30
0.0
 11
124570.0584111846
 21
91081.91960097968
 31
0.0
  0
ARC
  5
23D96
330
1F
100
AcDbEntity
  8
freecads.com
100
AcDbCircle
 10
124579.5615774441
 20
91072.80823960936
 30
0.0
 40
13.16537409179048
100
AcDbArc
 50
351.4331230454417
 51
136.2058029455029
  0
LINE
  5
23D97
330
1F
100
AcDbEntity
  8
freecads.com
100
AcDbLine
 10
124592.5800610221
 20
91070.84707661092
 30
0.0
 11
124580.4295054114
 21
91035.95319397866
 31
0.0
  0
LINE
  5
23D98
330
1F
100
AcDbEntity
  8
freecads.com
100
AcDbLine
 10
124580.4295054114
 20
91035.95319397866
 30
0.0
 11
124594.0344606078
 21
91018.38950188577
 31
0.0
  0
LINE
  5
23D99
330
1F
100
AcDbEntity
  8
freecads.com
100
AcDbLine
 10
124594.0344606078
 20
91018.38950188577
 30
0.0
 11
124619.7545548117
 21
90999.55261255921
 31
0.0
  0
LINE
  5
23D9A
330
1F
100
AcDbEntity
  8
freecads.com
100
AcDbLine
 10
124619.7545548117
 20
90999.55261255921
 30
0.0
 11
124678.6235585845
 21
90984.02447231233
 31
0.0
  0
LINE
  5
23D9B
330
1F
100
AcDbEntity
  8
freecads.com
100
AcDbLine
 10
124678.6235585845
 20
90984.02447231233
 30
0.0
 11
124704.0016260779
 21
90972.29454364002
 31
0.0
  0
LINE
  5
23D9C
330
1F
100
AcDbEntity
  8
freecads.com
100
AcDbLine
 10
124704.0016260779
 20
90972.29454364002
 30
0.0
 11
124721.1351876891
 21
90950.41253127277
 31
0.0
  0
LINE
  5
23D9D
330
1F
100
AcDbEntity
  8
freecads.com
100
AcDbLine
 10
124721.1351876891
 20
90950.41253127277
 30
0.0
 11
124720.1921821273
 21
90914.88696999967
 31
0.0
  0
LINE
  5
23D9E
330
1F
100
AcDbEntity
  8
freecads.com
100
AcDbLine
 10
124720.1921821273
 20
90914.88696999967
 30
0.0
 11
124702.7600141204
 21
90859.69162185609
 31
0.0
  0
LINE
  5
23D9F
330
1F
100
AcDbEntity
  8
freecads.com
100
AcDbLine
 10
124702.7600141204
 20
90859.69162185609
 30
0.0
 11
124667.3945897257
 21
90777.38074747568
 31
0.0
  0
ENDSEC
  0
SECTION
  2
OBJECTS
  0
DICTIONARY
  5
C
330
0
100
AcDbDictionary
281
     1
  3
ACAD_CIP_PREVIOUS_PRODUCT_INFO
350
1A5
  3
ACAD_COLOR
350
73
  3
ACAD_DETAILVIEWSTYLE
350
1AB
  3
ACAD_GROUP
350
D
  3
ACAD_LAYOUT
350
1A
  3
ACAD_MATERIAL
350
72
  3
ACAD_MLEADERSTYLE
350
D7
  3
ACAD_MLINESTYLE
350
17
  3
ACAD_PLOTSETTINGS
350
19
  3
ACAD_PLOTSTYLENAME
350
E
  3
ACAD_SCALELIST
350
B6
  3
ACAD_SECTIONVIEWSTYLE
350
1A8
  3
ACAD_TABLESTYLE
350
86
  3
ACAD_VISUALSTYLE
350
99
  3
ACAD_WIPEOUT_VARS
350
53BC
  3
ACDB_RECOMPOSE_DATA
350
23E53
  3
AcDbVariableDictionary
350
66
  3
AEC_PROPERTY_SET_DEFS
350
2281
  0
DICTIONARY
  5
18E
330
2
100
AcDbDictionary
280
     1
281
     1
  3
ACAD_LAYERSTATES
360
18F
  0
DICTIONARY
  5
E6
330
10
100
AcDbDictionary
280
     1
281
     1
  0
DICTIONARY
  5
15D
330
1F
100
AcDbDictionary
280
     1
281
     1
  3
ACAD_SORTENTS
360
28E
  0
XRECORD
  5
1A5
102
{ACAD_REACTORS
330
C
102
}
330
C
100
AcDbXrecord
280
     1
300
ACD
300
2022
300

  0
DICTIONARY
  5
73
102
{ACAD_REACTORS
330
C
102
}
330
C
100
AcDbDictionary
281
     1
  0
DICTIONARY
  5
1AB
102
{ACAD_REACTORS
330
C
102
}
330
C
100
AcDbDictionary
281
     1
  3
Imperial24
350
1AC
  3
Metric50
350
224
  0
DICTIONARY
  5
D
102
{ACAD_REACTORS
330
C
102
}
330
C
100
AcDbDictionary
281
     1
  0
DICTIONARY
  5
1A
102
{ACAD_REACTORS
330
C
102
}
330
C
100
AcDbDictionary
281
     1
  3
Layout1
350
59
  3
Layout2
350
5E
  3
Model
350
22
  0
DICTIONARY
  5
72
102
{ACAD_REACTORS
330
C
102
}
330
C
100
AcDbDictionary
281
     1
  3
ByBlock
350
97
  3
ByLayer
350
96
  3
Global
350
98
  0
DICTIONARY
  5
D7
102
{ACAD_REACTORS
330
C
102
}
330
C
100
AcDbDictionary
281
     1
  3
Standard
350
D8
  0
DICTIONARY
  5
17
102
{ACAD_REACTORS
330
C
102
}
330
C
100
AcDbDictionary
281
     1
  3
Standard
350
18
  0
DICTIONARY
  5
19
102
{ACAD_REACTORS
330
C
102
}
330
C
100
AcDbDictionary
281
     1
  0
ACDBDICTIONARYWDFLT
  5
E
102
{ACAD_REACTORS
330
C
102
}
330
C
100
AcDbDictionary
281
     1
  3
Normal
350
F
100
AcDbDictionaryWithDefault
340
F
  0
DICTIONARY
  5
B6
102
{ACAD_REACTORS
330
C
102
}
330
C
100
AcDbDictionary
281
     1
  3
*A1
350
16976
  3
*A2
350
176E8
  3
A0
350
B7
  3
A1
350
124
  3
A2
350
125
  3
A3
350
126
  3
A4
350
127
  3
A5
350
128
  3
A6
350
129
  3
A7
350
12A
  3
A8
350
12B
  3
A9
350
12C
  3
B0
350
12D
  3
B1
350
12E
  3
B2
350
12F
  3
B3
350
130
  3
B4
350
131
  3
B5
350
132
  3
B6
350
133
  3
B7
350
134
  3
B8
350
135
  3
B9
350
136
  3
C0
350
137
  3
C1
350
138
  3
C2
350
139
  3
C3
350
13A
  3
C4
350
13B
  3
C5
350
13C
  3
C6
350
13D
  3
C7
350
13E
  3
C8
350
13F
  3
C9
350
140
  3
D0
350
141
  3
D1
350
142
  3
D2
350
143
  0
DICTIONARY
  5
1A8
102
{ACAD_REACTORS
330
C
102
}
330
C
100
AcDbDictionary
281
     1
  3
Imperial24
350
1AA
  3
Metric50
350
223
  0
DICTIONARY
  5
86
102
{ACAD_REACTORS
330
C
102
}
330
C
100
AcDbDictionary
281
     1
  3
Standard
350
87
  0
DICTIONARY
  5
99
102
{ACAD_REACTORS
330
C
102
}
330
C
100
AcDbDictionary
281
     1
  3
2dWireframe
350
9F
  3
3dWireframe
350
23EE
  3
Basic
350
9E
  3
Brighten
350
A5
  3
ColorChange
350
A9
  3
Conceptual
350
A2
  3
Dim
350
A4
  3
EdgeColorOff
350
175
  3
Facepattern
350
A8
  3
Flat
350
9A
  3
FlatWithEdges
350
9B
  3
Gouraud
350
9C
  3
GouraudWithEdges
350
9D
  3
Hidden
350
A1
  3
JitterOff
350
173
  3
Linepattern
350
A7
  3
OverhangOff
350
174
  3
Realistic
350
A3
  3
Shaded
350
182
  3
Shaded with edges
350
181
  3
Shades of Gray
350
17E
  3
Sketchy
350
17F
  3
Thicken
350
A6
  3
Wireframe
350
A0
  3
X-Ray
350
180
  0
WIPEOUTVARIABLES
  5
53BC
102
{ACAD_REACTORS
330
C
102
}
330
C
100
AcDbWipeoutVariables
 70
     1
  0
XRECORD
  5
23E53
102
{ACAD_REACTORS
330
C
102
}
330
C
100
AcDbXrecord
280
     1
 90
        1
330
87
  0
DICTIONARY
  5
66
102
{ACAD_REACTORS
330
C
102
}
330
C
100
AcDbDictionary
281
     1
  3
CANNOSCALE
350
F0
  3
CMLEADERSTYLE
350
EF
  3
CTABLESTYLE
350
89
  3
CVIEWDETAILSTYLE
350
1B7
  3
CVIEWSECTIONSTYLE
350
1B8
  3
DIMASSOC
350
67
  3
HIDETEXT
350
6B
  3
LAYEREVAL
350
14D
  3
LAYERNOTIFY
350
14E
  0
DICTIONARY
  5
2281
102
{ACAD_REACTORS
330
C
102
}
330
C
100
AcDbDictionary
281
     1
  0
DICTIONARY
  5
18F
102
{ACAD_REACTORS
330
18E
102
}
330
18E
100
AcDbDictionary
281
     1
  0
SORTENTSTABLE
  5
28E
102
{ACAD_REACTORS
330
15D
102
}
330
15D
100
AcDbSortentsTable
330
1F
331
23B5C
  5
23C5F
331
23B69
  5
23D83
331
23B6A
  5
23D84
331
23B6B
  5
23D85
331
23B6C
  5
23D86
331
23B6D
  5
23D87
331
23B6E
  5
23D88
331
23B6F
  5
23D89
331
23B70
  5
23D8A
331
23B71
  5
23D8B
331
23B72
  5
23D8C
331
23B73
  5
23D8D
331
23B74
  5
23D8E
331
23B75
  5
23D8F
331
23B76
  5
23D90
331
23B77
  5
23D91
331
23B78
  5
23D92
331
23B79
  5
23D93
331
23B7A
  5
23D94
331
23B7B
  5
23D95
331
23B7C
  5
23D96
331
23B7D
  5
23D97
331
23B7E
  5
23D98
331
23B7F
  5
23D99
331
23B80
  5
23D9A
331
23B81
  5
23D9B
331
23B82
  5
23D9C
331
23B83
  5
23D9D
331
23B84
  5
23D9E
331
23B85
  5
23D9F
331
23B92
  5
23D5A
331
23B93
  5
23D5B
331
23B94
  5
23D5C
331
23B95
  5
23D5D
331
23B96
  5
23D5E
331
23B97
  5
23D5F
331
23B98
  5
23D60
331
23B99
  5
23D61
331
23B9A
  5
23D62
331
23B9B
  5
23D63
331
23B9C
  5
23D64
331
23B9D
  5
23D65
331
23B9E
  5
23D66
331
23B9F
  5
23D67
331
23BA0
  5
23D68
331
23BA1
  5
23D69
331
23BA2
  5
23D6A
331
23BA3
  5
23D6B
331
23BA4
  5
23D6C
331
23BA5
  5
23D6D
331
23BA6
  5
23D6E
331
23BA7
  5
23D6F
331
23BA8
  5
23D70
331
23BA9
  5
23D71
331
23BAA
  5
23D72
331
23BAB
  5
23D73
331
23BAC
  5
23D74
331
23BAD
  5
23D75
331
23BAE
  5
23D76
331
23BBB
  5
23D31
331
23BBC
  5
23D32
331
23BBD
  5
23D33
331
23BBE
  5
23D34
331
23BBF
  5
23D35
331
23BC0
  5
23D36
331
23BC1
  5
23D37
331
23BC2
  5
23D38
331
23BC3
  5
23D39
331
23BC4
  5
23D3A
331
23BC5
  5
23D3B
331
23BC6
  5
23D3C
331
23BC7
  5
23D3D
331
23BC8
  5
23D3E
331
23BC9
  5
23D3F
331
23BCA
  5
23D40
331
23BCB
  5
23D41
331
23BCC
  5
23D42
331
23BCD
  5
23D43
331
23BCE
  5
23D44
331
23BCF
  5
23D45
331
23BD0
  5
23D46
331
23BD1
  5
23D47
331
23BD2
  5
23D48
331
23BD3
  5
23D49
331
23BD4
  5
23D4A
331
23BD5
  5
23D4B
331
23BD6
  5
23D4C
331
23BD7
  5
23D4D
331
23BE4
  5
23D08
331
23BE5
  5
23D09
331
23BE6
  5
23D0A
331
23BE7
  5
23D0B
331
23BE8
  5
23D0C
331
23BE9
  5
23D0D
331
23BEA
  5
23D0E
331
23BEB
  5
23D0F
331
23BEC
  5
23D10
331
23BED
  5
23D11
331
23BEE
  5
23D12
331
23BEF
  5
23D13
331
23BF0
  5
23D14
331
23BF1
  5
23D15
331
23BF2
  5
23D16
331
23BF3
  5
23D17
331
23BF4
  5
23D18
331
23BF5
  5
23D19
331
23BF6
  5
23D1A
331
23BF7
  5
23D1B
331
23BF8
  5
23D1C
331
23BF9
  5
23D1D
331
23BFA
  5
23D1E
331
23BFB
  5
23D1F
331
23BFC
  5
23D20
331
23BFD
  5
23D21
331
23BFE
  5
23D22
331
23BFF
  5
23D23
331
23C00
  5
23D24
331
23C0D
  5
23CDF
331
23C0E
  5
23CE0
331
23C0F
  5
23CE1
331
23C10
  5
23CE2
331
23C11
  5
23CE3
331
23C12
  5
23CE4
331
23C13
  5
23CE5
331
23C14
  5
23CE6
331
23C15
  5
23CE7
331
23C16
  5
23CE8
331
23C17
  5
23CE9
331
23C18
  5
23CEA
331
23C19
  5
23CEB
331
23C1A
  5
23CEC
331
23C1B
  5
23CED
331
23C1C
  5
23CEE
331
23C1D
  5
23CEF
331
23C1E
  5
23CF0
331
23C1F
  5
23CF1
331
23C20
  5
23CF2
331
23C21
  5
23CF3
331
23C22
  5
23CF4
331
23C23
  5
23CF5
331
23C24
  5
23CF6
331
23C25
  5
23CF7
331
23C26
  5
23CF8
331
23C27
  5
23CF9
331
23C28
  5
23CFA
331
23C29
  5
23CFB
331
23C36
  5
23CB6
331
23C37
  5
23CB7
331
23C38
  5
23CB8
331
23C39
  5
23CB9
331
23C3A
  5
23CBA
331
23C3B
  5
23CBB
331
23C3C
  5
23CBC
331
23C3D
  5
23CBD
331
23C3E
  5
23CBE
331
23C3F
  5
23CBF
331
23C40
  5
23CC0
331
23C41
  5
23CC1
331
23C42
  5
23CC2
331
23C43
  5
23CC3
331
23C44
  5
23CC4
331
23C45
  5
23CC5
331
23C46
  5
23CC6
331
23C47
  5
23CC7
331
23C48
  5
23CC8
331
23C49
  5
23CC9
331
23C4A
  5
23CCA
331
23C4B
  5
23CCB
331
23C4C
  5
23CCC
331
23C4D
  5
23CCD
331
23C4E
  5
23CCE
331
23C4F
  5
23CCF
331
23C50
  5
23CD0
331
23C51
  5
23CD1
331
23C52
  5
23CD2
331
23C5F
  5
23C8D
331
23C60
  5
23C8E
331
23C61
  5
23C8F
331
23C62
  5
23C90
331
23C63
  5
23C91
331
23C64
  5
23C92
331
23C65
  5
23C93
331
23C66
  5
23C94
331
23C67
  5
23C95
331
23C68
  5
23C96
331
23C69
  5
23C97
331
23C6A
  5
23C98
331
23C6B
  5
23C99
331
23C6C
  5
23C9A
331
23C6D
  5
23C9B
331
23C6E
  5
23C9C
331
23C6F
  5
23C9D
331
23C70
  5
23C9E
331
23C71
  5
23C9F
331
23C72
  5
23CA0
331
23C73
  5
23CA1
331
23C74
  5
23CA2
331
23C75
  5
23CA3
331
23C76
  5
23CA4
331
23C77
  5
23CA5
331
23C78
  5
23CA6
331
23C79
  5
23CA7
331
23C7A
  5
23CA8
331
23C7B
  5
23CA9
331
23C88
  5
23C64
331
23C89
  5
23C65
331
23C8A
  5
23C66
331
23C8B
  5
23C67
331
23C8C
  5
23C68
331
23C8D
  5
23C69
331
23C8E
  5
23C6A
331
23C8F
  5
23C6B
331
23C90
  5
23C6C
331
23C91
  5
23C6D
331
23C92
  5
23C6E
331
23C93
  5
23C6F
331
23C94
  5
23C70
331
23C95
  5
23C71
331
23C96
  5
23C72
331
23C97
  5
23C73
331
23C98
  5
23C74
331
23C99
  5
23C75
331
23C9A
  5
23C76
331
23C9B
  5
23C77
331
23C9C
  5
23C78
331
23C9D
  5
23C79
331
23C9E
  5
23C7A
331
23C9F
  5
23C7B
331
23CA0
  5
23C7C
331
23CA1
  5
23C7D
331
23CA2
  5
23C7E
331
23CA3
  5
23C7F
331
23CA4
  5
23C80
331
23CAF
  5
23C5B
331
23CB0
  5
23C5C
331
23CB1
  5
23C5D
331
23CB2
  5
23C5E
331
23CB6
  5
23C35
331
23CB7
  5
23C36
331
23CB8
  5
23C37
331
23CB9
  5
23C38
331
23CBA
  5
23C39
331
23CBB
  5
23C3A
331
23CBC
  5
23C3B
331
23CBD
  5
23C3C
331
23CBE
  5
23C3D
331
23CBF
  5
23C3E
331
23CC0
  5
23C3F
331
23CC1
  5
23C40
331
23CC2
  5
23C41
331
23CC3
  5
23C42
331
23CC4
  5
23C43
331
23CC5
  5
23C44
331
23CC6
  5
23C45
331
23CC7
  5
23C46
331
23CC8
  5
23C47
331
23CC9
  5
23C48
331
23CCA
  5
23C49
331
23CCB
  5
23C4A
331
23CCC
  5
23C4B
331
23CCD
  5
23C4C
331
23CCE
  5
23C4D
331
23CCF
  5
23C4E
331
23CD0
  5
23C4F
331
23CD1
  5
23C50
331
23CD2
  5
23C51
331
23CDF
  5
23C0C
331
23CE0
  5
23C0D
331
23CE1
  5
23C0E
331
23CE2
  5
23C0F
331
23CE3
  5
23C10
331
23CE4
  5
23C11
331
23CE5
  5
23C12
331
23CE6
  5
23C13
331
23CE7
  5
23C14
331
23CE8
  5
23C15
331
23CE9
  5
23C16
331
23CEA
  5
23C17
331
23CEB
  5
23C18
331
23CEC
  5
23C19
331
23CED
  5
23C1A
331
23CEE
  5
23C1B
331
23CEF
  5
23C1C
331
23CF0
  5
23C1D
331
23CF1
  5
23C1E
331
23CF2
  5
23C1F
331
23CF3
  5
23C20
331
23CF4
  5
23C21
331
23CF5
  5
23C22
331
23CF6
  5
23C23
331
23CF7
  5
23C24
331
23CF8
  5
23C25
331
23CF9
  5
23C26
331
23CFA
  5
23C27
331
23CFB
  5
23C28
331
23D08
  5
23BE3
331
23D09
  5
23BE4
331
23D0A
  5
23BE5
331
23D0B
  5
23BE6
331
23D0C
  5
23BE7
331
23D0D
  5
23BE8
331
23D0E
  5
23BE9
331
23D0F
  5
23BEA
331
23D10
  5
23BEB
331
23D11
  5
23BEC
331
23D12
  5
23BED
331
23D13
  5
23BEE
331
23D14
  5
23BEF
331
23D15
  5
23BF0
331
23D16
  5
23BF1
331
23D17
  5
23BF2
331
23D18
  5
23BF3
331
23D19
  5
23BF4
331
23D1A
  5
23BF5
331
23D1B
  5
23BF6
331
23D1C
  5
23BF7
331
23D1D
  5
23BF8
331
23D1E
  5
23BF9
331
23D1F
  5
23BFA
331
23D20
  5
23BFB
331
23D21
  5
23BFC
331
23D22
  5
23BFD
331
23D23
  5
23BFE
331
23D24
  5
23BFF
331
23D31
  5
23BBA
331
23D32
  5
23BBB
331
23D33
  5
23BBC
331
23D34
  5
23BBD
331
23D35
  5
23BBE
331
23D36
  5
23BBF
331
23D37
  5
23BC0
331
23D38
  5
23BC1
331
23D39
  5
23BC2
331
23D3A
  5
23BC3
331
23D3B
  5
23BC4
331
23D3C
  5
23BC5
331
23D3D
  5
23BC6
331
23D3E
  5
23BC7
331
23D3F
  5
23BC8
331
23D40
  5
23BC9
331
23D41
  5
23BCA
331
23D42
  5
23BCB
331
23D43
  5
23BCC
331
23D44
  5
23BCD
331
23D45
  5
23BCE
331
23D46
  5
23BCF
331
23D47
  5
23BD0
331
23D48
  5
23BD1
331
23D49
  5
23BD2
331
23D4A
  5
23BD3
331
23D4B
  5
23BD4
331
23D4C
  5
23BD5
331
23D4D
  5
23BD6
331
23D5A
  5
23B91
331
23D5B
  5
23B92
331
23D5C
  5
23B93
331
23D5D
  5
23B94
331
23D5E
  5
23B95
331
23D5F
  5
23B96
331
23D60
  5
23B97
331
23D61
  5
23B98
331
23D62
  5
23B99
331
23D63
  5
23B9A
331
23D64
  5
23B9B
331
23D65
  5
23B9C
331
23D66
  5
23B9D
331
23D67
  5
23B9E
331
23D68
  5
23B9F
331
23D69
  5
23BA0
331
23D6A
  5
23BA1
331
23D6B
  5
23BA2
331
23D6C
  5
23BA3
331
23D6D
  5
23BA4
331
23D6E
  5
23BA5
331
23D6F
  5
23BA6
331
23D70
  5
23BA7
331
23D71
  5
23BA8
331
23D72
  5
23BA9
331
23D73
  5
23BAA
331
23D74
  5
23BAB
331
23D75
  5
23BAC
331
23D76
  5
23BAD
331
23D83
  5
23B68
331
23D84
  5
23B69
331
23D85
  5
23B6A
331
23D86
  5
23B6B
331
23D87
  5
23B6C
331
23D88
  5
23B6D
331
23D89
  5
23B6E
331
23D8A
  5
23B6F
331
23D8B
  5
23B70
331
23D8C
  5
23B71
331
23D8D
  5
23B72
331
23D8E
  5
23B73
331
23D8F
  5
23B74
331
23D90
  5
23B75
331
23D91
  5
23B76
331
23D92
  5
23B77
331
23D93
  5
23B78
331
23D94
  5
23B79
331
23D95
  5
23B7A
331
23D96
  5
23B7B
331
23D97
  5
23B7C
331
23D98
  5
23B7D
331
23D99
  5
23B7E
331
23D9A
  5
23B7F
331
23D9B
  5
23B80
331
23D9C
  5
23B81
331
23D9D
  5
23B82
331
23D9E
  5
23B83
331
23D9F
  5
23B84
  0
ACDBDETAILVIEWSTYLE
  5
1AC
102
{ACAD_REACTORS
330
1AB
102
}
330
1AB
100
AcDbModelDocViewStyle
 70
     0
  3
Imperial24
290
     0
300
Imperial24
 90
        0
100
AcDbDetailViewStyle
 70
     0
 71
     0
 90
        3
 71
     1
340
11
 62
   256
 40
0.24
340
0
 62
   256
 40
0.24
300

 40
0.36
280
     3
 71
     2
340
16
 90
       25
 62
   256
 71
     3
340
11
 62
   256
 40
0.24
 90
        1
 40
0.75
 90
        1
300
%<\AcVar ViewType \f "%tc1">% %<\AcVar ViewDetailId>%\PSCALE %<\AcVar ViewScale \f "%sn">%
 71
     4
340
16
 90
       25
 62
   256
340
16
 90
       25
 62
   256
280
     0
  0
ACDBDETAILVIEWSTYLE
  5
224
102
{ACAD_REACTORS
330
1AB
102
}
330
1AB
100
AcDbModelDocViewStyle
 70
     0
  3
Metric50
290
     0
300
Metric50
 90
        0
100
AcDbDetailViewStyle
 70
     0
 71
     0
 90
        3
 71
     1
340
11
 62
   256
 40
5.0
340
0
 62
   256
 40
5.0
300

 40
0.0
280
     1
 71
     2
340
16
 90
       25
 62
   256
 71
     3
340
11
 62
   256
 40
5.0
 90
        0
 40
15.0
 90
        1
300
%<\AcVar ViewDetailId>% (%<\AcVar ViewScale \f "%sn">%)
 71
     4
340
16
 90
       25
 62
   256
340
16
 90
       25
 62
   256
280
     0
  0
LAYOUT
  5
59
102
{ACAD_REACTORS
330
1A
102
}
330
1A
100
AcDbPlotSettings
  1

  2
None
  4

  6

 40
0.0
 41
0.0
 42
0.0
 43
0.0
 44
0.0
 45
0.0
 46
0.0
 47
0.0
 48
0.0
 49
0.0
140
0.0
141
0.0
142
1.0
143
1.0
 70
   688
 72
     0
 73
     0
 74
     5
  7

 75
    16
147
1.0
 76
     0
 77
     2
 78
   300
148
0.0
149
0.0
100
AcDbLayout
  1
Layout1
 70
     1
 71
     1
 10
0.0
 20
0.0
 11
12.0
 21
9.0
 12
0.0
 22
0.0
 32
0.0
 14
0.0
 24
0.0
 34
0.0
 15
0.0
 25
0.0
 35
0.0
146
0.0
 13
0.0
 23
0.0
 33
0.0
 16
1.0
 26
0.0
 36
0.0
 17
0.0
 27
1.0
 37
0.0
 76
     0
330
58
  0
LAYOUT
  5
5E
102
{ACAD_REACTORS
330
1A
102
}
330
1A
100
AcDbPlotSettings
  1

  2
None
  4

  6

 40
0.0
 41
0.0
 42
0.0
 43
0.0
 44
0.0
 45
0.0
 46
0.0
 47
0.0
 48
0.0
 49
0.0
140
0.0
141
0.0
142
1.0
143
1.0
 70
   688
 72
     0
 73
     0
 74
     5
  7

 75
    16
147
1.0
 76
     0
 77
     2
 78
   300
148
0.0
149
0.0
100
AcDbLayout
  1
Layout2
 70
     1
 71
     2
 10
0.0
 20
0.0
 11
12.0
 21
9.0
 12
0.0
 22
0.0
 32
0.0
 14
0.0
 24
0.0
 34
0.0
 15
0.0
 25
0.0
 35
0.0
146
0.0
 13
0.0
 23
0.0
 33
0.0
 16
1.0
 26
0.0
 36
0.0
 17
0.0
 27
1.0
 37
0.0
 76
     0
330
5D
  0
LAYOUT
  5
22
102
{ACAD_XDICTIONARY
360
194
102
}
102
{ACAD_REACTORS
330
1A
102
}
330
1A
100
AcDbPlotSettings
  1

  2
none_device
  4
ANSI_A_(8.50_x_11.00_Inches)
  6

 40
6.349999904632568
 41
19.04999923706055
 42
6.350006103515625
 43
19.04998779296875
 44
215.8999938964844
 45
279.3999938964844
 46
0.0
 47
0.0
 48
0.0
 49
0.0
140
0.0
141
0.0
142
1.0
143
2.584895464708373
 70
 11952
 72
     0
 73
     1
 74
     0
  7

 75
     0
147
0.3868628397755418
 76
     0
 77
     2
 78
   300
148
0.0
149
0.0
100
AcDbLayout
  1
Model
 70
     1
 71
     0
 10
0.0
 20
0.0
 11
12.0
 21
9.0
 12
0.0
 22
0.0
 32
0.0
 14
0.0
 24
0.0
 34
0.0
 15
0.0
 25
0.0
 35
0.0
146
0.0
 13
0.0
 23
0.0
 33
0.0
 16
1.0
 26
0.0
 36
0.0
 17
0.0
 27
1.0
 37
0.0
 76
     0
330
1F
331
94
  0
MATERIAL
  5
97
102
{ACAD_XDICTIONARY
360
188
102
}
102
{ACAD_REACTORS
330
72
102
}
330
72
100
AcDbMaterial
  1
ByBlock
 94
       63
  0
MATERIAL
  5
96
102
{ACAD_XDICTIONARY
360
186
102
}
102
{ACAD_REACTORS
330
72
102
}
330
72
100
AcDbMaterial
  1
ByLayer
 94
       63
  0
MATERIAL
  5
98
102
{ACAD_XDICTIONARY
360
110
102
}
102
{ACAD_REACTORS
330
72
102
}
330
72
100
AcDbMaterial
  1
Global
 43
0.0208000000566244
 43
0.0
 43
0.0
 43
0.0
 43
0.0
 43
0.0208000000566244
 43
0.0
 43
0.0
 43
0.0
 43
0.0
 43
1.0
 43
0.0
 43
0.0
 43
0.0
 43
0.0
 43
1.0
 49
0.0208000000566244
 49
0.0
 49
0.0
 49
0.0
 49
0.0
 49
0.0208000000566244
 49
0.0
 49
0.0
 49
0.0
 49
0.0
 49
1.0
 49
0.0
 49
0.0
 49
0.0
 49
0.0
 49
1.0
142
0.0208000000566244
142
0.0
142
0.0
142
0.0
142
0.0
142
0.0208000000566244
142
0.0
142
0.0
142
0.0
142
0.0
142
1.0
142
0.0
142
0.0
142
0.0
142
0.0
142
1.0
144
0.0208000000566244
144
0.0
144
0.0
144
0.0
144
0.0
144
0.0208000000566244
144
0.0
144
0.0
144
0.0
144
0.0
144
1.0
144
0.0
144
0.0
144
0.0
144
0.0
144
1.0
 94
       63
1001
ACAD
1070
    -1
1070
     3
1070
     0
1000

1071
        0
1070
     0
  0
MLEADERSTYLE
  5
D8
102
{ACAD_REACTORS
330
D7
102
}
330
D7
100
AcDbMLeaderStyle
179
     2
170
     2
171
     1
172
     0
 90
        2
 40
0.0
 41
0.0
173
     1
 91
-1056964608
340
14
 92
       -2
290
     1
 42
0.09
291
     1
 43
0.36
  3
Standard
 44
0.18
300

342
11
174
     1
178
     1
175
     1
176
     0
 93
-1056964608
 45
0.18
292
     0
297
     0
 46
0.18
 94
-1056964608
 47
1.0
 49
1.0
140
1.0
293
     1
141
0.0
294
     1
177
     0
142
1.0
295
     0
296
     0
143
0.125
271
     0
272
     9
273
     9
298
     0
  0
MLINESTYLE
  5
18
102
{ACAD_REACTORS
330
17
102
}
330
17
100
AcDbMlineStyle
  2
STANDARD
 70
     0
  3

 62
   256
 51
90.0
 52
90.0
 71
     2
 49
0.5
 62
   256
  6
BYLAYER
 49
-0.5
 62
   256
  6
BYLAYER
  0
ACDBPLACEHOLDER
  5
F
102
{ACAD_REACTORS
330
E
102
}
330
E
  0
SCALE
  5
16976
102
{ACAD_REACTORS
330
B6
102
}
330
B6
100
AcDbScale
 70
     0
300
1:1_1
140
1.0
141
1.0
290
     0
  0
SCALE
  5
176E8
102
{ACAD_REACTORS
330
B6
102
}
330
B6
100
AcDbScale
 70
     0
300
1:1 mm
140
1.0
141
1.0
290
     0
  0
SCALE
  5
B7
102
{ACAD_REACTORS
330
B6
102
}
330
B6
100
AcDbScale
 70
     0
300
1:1
140
1.0
141
1.0
290
     1
  0
SCALE
  5
124
102
{ACAD_REACTORS
330
B6
102
}
330
B6
100
AcDbScale
 70
     0
300
1:2
140
1.0
141
2.0
290
     0
  0
SCALE
  5
125
102
{ACAD_REACTORS
330
B6
102
}
330
B6
100
AcDbScale
 70
     0
300
1:4
140
1.0
141
4.0
290
     0
  0
SCALE
  5
126
102
{ACAD_REACTORS
330
B6
102
}
330
B6
100
AcDbScale
 70
     0
300
1:5
140
1.0
141
5.0
290
     0
  0
SCALE
  5
127
102
{ACAD_REACTORS
330
B6
102
}
330
B6
100
AcDbScale
 70
     0
300
1:8
140
1.0
141
8.0
290
     0
  0
SCALE
  5
128
102
{ACAD_REACTORS
330
B6
102
}
330
B6
100
AcDbScale
 70
     0
300
1:10
140
1.0
141
10.0
290
     0
  0
SCALE
  5
129
102
{ACAD_REACTORS
330
B6
102
}
330
B6
100
AcDbScale
 70
     0
300
1:16
140
1.0
141
16.0
290
     0
  0
SCALE
  5
12A
102
{ACAD_REACTORS
330
B6
102
}
330
B6
100
AcDbScale
 70
     0
300
1:20
140
1.0
141
20.0
290
     0
  0
SCALE
  5
12B
102
{ACAD_REACTORS
330
B6
102
}
330
B6
100
AcDbScale
 70
     0
300
1:30
140
1.0
141
30.0
290
     0
  0
SCALE
  5
12C
102
{ACAD_REACTORS
330
B6
102
}
330
B6
100
AcDbScale
 70
     0
300
1:40
140
1.0
141
40.0
290
     0
  0
SCALE
  5
12D
102
{ACAD_REACTORS
330
B6
102
}
330
B6
100
AcDbScale
 70
     0
300
1:50
140
1.0
141
50.0
290
     0
  0
SCALE
  5
12E
102
{ACAD_REACTORS
330
B6
102
}
330
B6
100
AcDbScale
 70
     0
300
1:100
140
1.0
141
100.0
290
     0
  0
SCALE
  5
12F
102
{ACAD_REACTORS
330
B6
102
}
330
B6
100
AcDbScale
 70
     0
300
2:1
140
2.0
141
1.0
290
     0
  0
SCALE
  5
130
102
{ACAD_REACTORS
330
B6
102
}
330
B6
100
AcDbScale
 70
     0
300
4:1
140
4.0
141
1.0
290
     0
  0
SCALE
  5
131
102
{ACAD_REACTORS
330
B6
102
}
330
B6
100
AcDbScale
 70
     0
300
8:1
140
8.0
141
1.0
290
     0
  0
SCALE
  5
132
102
{ACAD_REACTORS
330
B6
102
}
330
B6
100
AcDbScale
 70
     0
300
10:1
140
10.0
141
1.0
290
     0
  0
SCALE
  5
133
102
{ACAD_REACTORS
330
B6
102
}
330
B6
100
AcDbScale
 70
     0
300
100:1
140
100.0
141
1.0
290
     0
  0
SCALE
  5
134
102
{ACAD_REACTORS
330
B6
102
}
330
B6
100
AcDbScale
 70
     0
300
1/128" = 1'-0"
140
0.0078125
141
12.0
290
     0
  0
SCALE
  5
135
102
{ACAD_REACTORS
330
B6
102
}
330
B6
100
AcDbScale
 70
     0
300
1/64" = 1'-0"
140
0.015625
141
12.0
290
     0
  0
SCALE
  5
136
102
{ACAD_REACTORS
330
B6
102
}
330
B6
100
AcDbScale
 70
     0
300
1/32" = 1'-0"
140
0.03125
141
12.0
290
     0
  0
SCALE
  5
137
102
{ACAD_REACTORS
330
B6
102
}
330
B6
100
AcDbScale
 70
     0
300
1/16" = 1'-0"
140
0.0625
141
12.0
290
     0
  0
SCALE
  5
138
102
{ACAD_REACTORS
330
B6
102
}
330
B6
100
AcDbScale
 70
     0
300
3/32" = 1'-0"
140
0.09375
141
12.0
290
     0
  0
SCALE
  5
139
102
{ACAD_REACTORS
330
B6
102
}
330
B6
100
AcDbScale
 70
     0
300
1/8" = 1'-0"
140
0.125
141
12.0
290
     0
  0
SCALE
  5
13A
102
{ACAD_REACTORS
330
B6
102
}
330
B6
100
AcDbScale
 70
     0
300
3/16" = 1'-0"
140
0.1875
141
12.0
290
     0
  0
SCALE
  5
13B
102
{ACAD_REACTORS
330
B6
102
}
330
B6
100
AcDbScale
 70
     0
300
1/4" = 1'-0"
140
0.25
141
12.0
290
     0
  0
SCALE
  5
13C
102
{ACAD_REACTORS
330
B6
102
}
330
B6
100
AcDbScale
 70
     0
300
3/8" = 1'-0"
140
0.375
141
12.0
290
     0
  0
SCALE
  5
13D
102
{ACAD_REACTORS
330
B6
102
}
330
B6
100
AcDbScale
 70
     0
300
1/2" = 1'-0"
140
0.5
141
12.0
290
     0
  0
SCALE
  5
13E
102
{ACAD_REACTORS
330
B6
102
}
330
B6
100
AcDbScale
 70
     0
300
3/4" = 1'-0"
140
0.75
141
12.0
290
     0
  0
SCALE
  5
13F
102
{ACAD_REACTORS
330
B6
102
}
330
B6
100
AcDbScale
 70
     0
300
1" = 1'-0"
140
1.0
141
12.0
290
     0
  0
SCALE
  5
140
102
{ACAD_REACTORS
330
B6
102
}
330
B6
100
AcDbScale
 70
     0
300
1-1/2" = 1'-0"
140
1.5
141
12.0
290
     0
  0
SCALE
  5
141
102
{ACAD_REACTORS
330
B6
102
}
330
B6
100
AcDbScale
 70
     0
300
3" = 1'-0"
140
3.0
141
12.0
290
     0
  0
SCALE
  5
142
102
{ACAD_REACTORS
330
B6
102
}
330
B6
100
AcDbScale
 70
     0
300
6" = 1'-0"
140
6.0
141
12.0
290
     0
  0
SCALE
  5
143
102
{ACAD_REACTORS
330
B6
102
}
330
B6
100
AcDbScale
 70
     0
300
1'-0" = 1'-0"
140
12.0
141
12.0
290
     0
  0
ACDBSECTIONVIEWSTYLE
  5
1AA
102
{ACAD_REACTORS
330
1A8
102
}
330
1A8
100
AcDbModelDocViewStyle
 70
     0
  3
Imperial24
290
     0
300
Imperial24
 90
        0
100
AcDbSectionViewStyle
 70
     0
 71
     0
 90
       78
 71
     1
340
11
 62
   256
 40
0.24
340
0
340
0
 62
   256
 40
0.24
300
I, O, Q, S, X, Z
 40
0.48
 90
        3
 40
0.18
 90
        1
 71
     2
340
16
 90
       25
 62
   256
340
16
 90
       50
 62
   256
 40
0.24
 40
0.0
 40
0.24
 71
     3
340
11
 62
   256
 40
0.24
 90
        1
 40
0.75
 90
        1
300
%<\AcVar ViewType \f "%tc1">% %<\AcVar ViewSectionStartId>%-%<\AcVar ViewSectionEndId>%\PSCALE %<\AcVar ViewScale \f "%sn">%
 71
     4
 62
   256
 62
   257
300
ANSI31
 40
1.0
 90
        0
290
     0
290
     0
 90
        6
 40
0.0
 40
1.570796326794896
 40
0.2617993877991494
 40
1.308996938995747
 40
-0.2617993877991494
 40
1.832595714594046
  0
ACDBSECTIONVIEWSTYLE
  5
223
102
{ACAD_REACTORS
330
1A8
102
}
330
1A8
100
AcDbModelDocViewStyle
 70
     0
  3
Metric50
290
     0
300
Metric50
 90
        0
100
AcDbSectionViewStyle
 70
     0
 71
     0
 90
      102
 71
     1
340
11
 62
   256
 40
5.0
340
0
340
0
 62
   256
 40
5.0
300
I, O, Q, S, X, Z
 40
10.0
 90
        0
 40
2.5
 90
        0
 71
     2
340
16
 90
       25
 62
   256
340
16
 90
       50
 62
   256
 40
5.0
 40
2.5
 40
5.0
 71
     3
340
11
 62
   256
 40
5.0
 90
        0
 40
15.0
 90
        1
300
%<\AcVar ViewSectionStartId>%-%<\AcVar ViewSectionEndId>% (%<\AcVar ViewScale \f "%sn">%)
 71
     4
 62
   256
 62
   257
300
ANSI31
 40
1.0
 90
        0
290
     0
290
     0
 90
        6
 40
0.0
 40
1.570796326794896
 40
0.2617993877991494
 40
1.308996938995747
 40
-0.2617993877991494
 40
1.832595714594046
  0
TABLESTYLE
  5
87
102
{ACAD_XDICTIONARY
360
104
102
}
102
{ACAD_REACTORS
330
86
102
}
330
86
100
AcDbTableStyle
280
     0
  3
Standard
 70
     0
 71
     0
 40
0.06
 41
0.06
280
     0
281
     0
  7
Standard
140
0.18
170
     2
 62
     0
 63
     7
283
     0
 90
      512
 91
        0
  1

274
    -2
284
     1
 64
     0
275
    -2
285
     1
 65
     0
276
    -2
286
     1
 66
     0
277
    -2
287
     1
 67
     0
278
    -2
288
     1
 68
     0
279
    -2
289
     1
 69
     0
  7
Standard
140
0.25
170
     5
 62
     0
 63
     7
283
     0
 90
      512
 91
        0
  1

274
    -2
284
     1
 64
     0
275
    -2
285
     1
 65
     0
276
    -2
286
     1
 66
     0
277
    -2
287
     1
 67
     0
278
    -2
288
     1
 68
     0
279
    -2
289
     1
 69
     0
  7
Standard
140
0.18
170
     5
 62
     0
 63
     7
283
     0
 90
      512
 91
        0
  1

274
    -2
284
     1
 64
     0
275
    -2
285
     1
 65
     0
276
    -2
286
     1
 66
     0
277
    -2
287
     1
 67
     0
278
    -2
288
     1
 68
     0
279
    -2
289
     1
 69
     0
  0
VISUALSTYLE
  5
9F
102
{ACAD_REACTORS
330
99
102
}
330
99
100
AcDbVisualStyle
  2
2dWireframe
 70
     4
177
     3
291
     0
 70
    58
 90
        0
176
     1
 90
        2
176
     1
 90
        1
176
     1
 90
        0
176
     1
 40
0.6
176
     1
 40
30.0
176
     1
 62
     7
420
 16777215
176
     1
 90
        1
176
     1
 90
        4
176
     1
 62
     7
176
     1
 62
   257
176
     1
 90
        1
176
     1
 90
        1
176
     1
 40
1.0
176
     1
 90
        0
176
     1
 62
   257
176
     1
 40
1.0
176
     1
 90
        1
176
     1
 90
        6
176
     1
 90
        2
176
     1
 62
     7
176
     1
 90
        5
176
     1
 90
        0
176
     1
 90
        0
176
     1
290
     0
176
     1
 90
        1
176
     1
 40
0.0
176
     1
 90
        0
176
     1
290
     1
176
     1
290
     1
176
     1
290
     0
176
     1
290
     0
176
     1
290
     0
176
     1
290
     0
176
     1
290
     0
176
     1
290
     0
176
     1
290
     0
176
     1
 90
       50
176
     1
 40
0.0
176
     1
 40
1.0
176
     1
 90
        0
176
     1
 62
    18
420
        0
176
     1
 90
       50
176
     1
 90
        3
176
     1
 62
     5
420
      255
176
     1
290
     0
176
     1
 90
       50
176
     1
 90
       50
176
     1
 90
       50
176
     1
290
     0
176
     1
 90
       50
176
     1
 62
   256
176
     0
 40
1.0
176
     0
 90
        2
176
     1
  1
strokes_ogs.tif
176
     1
290
     0
176
     1
 40
1.0
176
     1
 40
1.0
176
     1
  0
VISUALSTYLE
  5
23EE
102
{ACAD_REACTORS
330
99
102
}
330
99
100
AcDbVisualStyle
  2
3dWireframe
 70
     5
177
     3
291
     0
 70
    58
 90
        0
176
     1
 90
        2
176
     1
 90
        0
176
     1
 90
        0
176
     1
 40
0.6
176
     1
 40
30.0
176
     1
 62
     7
420
 16777215
176
     1
 90
        1
176
     1
 90
        4
176
     1
 62
     7
176
     1
 62
   257
176
     1
 90
        1
176
     1
 90
        1
176
     1
 40
1.0
176
     1
 90
        0
176
     1
 62
   257
176
     1
 40
1.0
176
     1
 90
        1
176
     1
 90
        6
176
     1
 90
        2
176
     1
 62
     7
176
     1
 90
        5
176
     1
 90
        0
176
     1
 90
        0
176
     1
290
     0
176
     1
 90
        1
176
     1
 40
0.0
176
     1
 90
        0
176
     1
290
     0
176
     1
290
     1
176
     1
290
     1
176
     1
290
     0
176
     1
290
     0
176
     1
290
     0
176
     1
290
     0
176
     1
290
     0
176
     1
290
     0
176
     1
 90
       50
176
     1
 40
0.0
176
     1
 40
1.0
176
     1
 90
        0
176
     1
 62
    18
420
        0
176
     1
 90
       50
176
     1
 90
        3
176
     1
 62
     5
420
      255
176
     1
290
     0
176
     1
 90
       50
176
     1
 90
       50
176
     1
 90
       50
176
     1
290
     0
176
     1
 90
       50
176
     1
 62
   256
176
     0
 40
1.0
176
     0
 90
        2
176
     1
  1
strokes_ogs.tif
176
     1
290
     0
176
     1
 40
1.0
176
     1
 40
1.0
176
     1
  0
VISUALSTYLE
  5
9E
102
{ACAD_REACTORS
330
99
102
}
330
99
100
AcDbVisualStyle
  2
Basic
 70
     7
177
     3
291
     1
 70
    58
 90
        1
176
     1
 90
        0
176
     1
 90
        1
176
     1
 90
        0
176
     1
 40
0.6
176
     1
 40
30.0
176
     1
 62
     7
420
 16777215
176
     1
 90
        0
176
     1
 90
        4
176
     1
 62
     7
176
     1
 62
   257
176
     1
 90
        1
176
     1
 90
        1
176
     1
 40
1.0
176
     1
 90
        8
176
     1
 62
     7
176
     1
 40
1.0
176
     1
 90
        1
176
     1
 90
        6
176
     1
 90
        2
176
     1
 62
     7
176
     1
 90
        5
176
     1
 90
        0
176
     1
 90
        0
176
     1
290
     0
176
     1
 90
        1
176
     1
 40
0.0
176
     1
 90
        0
176
     1
290
     0
176
     1
290
     1
176
     1
290
     1
176
     1
290
     0
176
     1
290
     0
176
     1
290
     0
176
     1
290
     0
176
     1
290
     0
176
     1
290
     0
176
     1
 90
       50
176
     1
 40
0.0
176
     1
 40
1.0
176
     1
 90
        0
176
     1
 62
    18
420
        0
176
     1
 90
       50
176
     1
 90
        3
176
     1
 62
     5
420
      255
176
     1
290
     0
176
     1
 90
       50
176
     1
 90
       50
176
     1
 90
       50
176
     1
290
     0
176
     1
 90
       50
176
     1
 62
   256
176
     0
 40
1.0
176
     0
 90
        2
176
     1
  1
strokes_ogs.tif
176
     1
290
     0
176
     1
 40
1.0
176
     1
 40
1.0
176
     1
  0
VISUALSTYLE
  5
A5
102
{ACAD_REACTORS
330
99
102
}
330
99
100
AcDbVisualStyle
  2
Brighten
 70
    12
177
     3
291
     1
 70
    58
 90
        2
176
     1
 90
        2
176
     1
 90
        1
176
     1
 90
        0
176
     1
 40
0.6
176
     1
 40
30.0
176
     1
 62
     7
420
 16777215
176
     1
 90
        1
176
     1
 90
        4
176
     1
 62
     7
176
     1
 62
   257
176
     1
 90
        1
176
     1
 90
        1
176
     1
 40
1.0
176
     1
 90
        8
176
     1
 62
     7
176
     1
 40
1.0
176
     1
 90
        1
176
     1
 90
        6
176
     1
 90
        2
176
     1
 62
     7
176
     1
 90
        5
176
     1
 90
        0
176
     1
 90
        0
176
     1
290
     0
176
     1
 90
        1
176
     1
 40
50.0
176
     1
 90
        0
176
     1
290
     0
176
     1
290
     1
176
     1
290
     1
176
     1
290
     0
176
     1
290
     0
176
     1
290
     0
176
     1
290
     0
176
     1
290
     0
176
     1
290
     0
176
     1
 90
       50
176
     1
 40
0.0
176
     1
 40
1.0
176
     1
 90
        0
176
     1
 62
    18
420
        0
176
     1
 90
       50
176
     1
 90
        3
176
     1
 62
     5
420
      255
176
     1
290
     0
176
     1
 90
       50
176
     1
 90
       50
176
     1
 90
       50
176
     1
290
     0
176
     1
 90
       50
176
     1
 62
   256
176
     0
 40
1.0
176
     0
 90
        2
176
     1
  1
strokes_ogs.tif
176
     1
290
     0
176
     1
 40
1.0
176
     1
 40
1.0
176
     1
  0
VISUALSTYLE
  5
A9
102
{ACAD_REACTORS
330
99
102
}
330
99
100
AcDbVisualStyle
  2
ColorChange
 70
    16
177
     3
291
     1
 70
    58
 90
        2
176
     1
 90
        2
176
     1
 90
        3
176
     1
 90
        0
176
     1
 40
0.6
176
     1
 40
30.0
176
     1
 62
     8
420
  8421504
176
     1
 90
        1
176
     1
 90
        4
176
     1
 62
     7
176
     1
 62
   257
176
     1
 90
        1
176
     1
 90
        1
176
     1
 40
1.0
176
     1
 90
        8
176
     1
 62
     8
420
  8421504
176
     1
 40
1.0
176
     1
 90
        1
176
     1
 90
        6
176
     1
 90
        2
176
     1
 62
     7
176
     1
 90
        5
176
     1
 90
        0
176
     1
 90
        0
176
     1
290
     0
176
     1
 90
        1
176
     1
 40
0.0
176
     1
 90
        0
176
     1
290
     0
176
     1
290
     1
176
     1
290
     1
176
     1
290
     0
176
     1
290
     0
176
     1
290
     0
176
     1
290
     0
176
     1
290
     0
176
     1
290
     0
176
     1
 90
       50
176
     1
 40
0.0
176
     1
 40
1.0
176
     1
 90
        0
176
     1
 62
    18
420
        0
176
     1
 90
       50
176
     1
 90
        3
176
     1
 62
     5
420
      255
176
     1
290
     0
176
     1
 90
       50
176
     1
 90
       50
176
     1
 90
       50
176
     1
290
     0
176
     1
 90
       50
176
     1
 62
   256
176
     0
 40
1.0
176
     0
 90
        2
176
     1
  1
strokes_ogs.tif
176
     1
290
     0
176
     1
 40
1.0
176
     1
 40
1.0
176
     1
  0
VISUALSTYLE
  5
A2
102
{ACAD_REACTORS
330
99
102
}
330
99
100
AcDbVisualStyle
  2
Conceptual
 70
     9
177
     3
291
     0
 70
    58
 90
        3
176
     1
 90
        2
176
     1
 90
        1
176
     1
 90
        0
176
     1
 40
0.6
176
     1
 40
30.0
176
     1
 62
     7
420
 16777215
176
     1
 90
        2
176
     1
 90
        2
176
     1
 62
     7
176
     1
 62
   257
176
     1
 90
        1
176
     1
 90
        1
176
     1
 40
40.0
176
     1
 90
        8
176
     1
 62
     7
176
     1
 40
1.0
176
     1
 90
        1
176
     1
 90
        6
176
     1
 90
        2
176
     1
 62
     7
176
     1
 90
        3
176
     1
 90
        0
176
     1
 90
        0
176
     1
290
     0
176
     1
 90
        1
176
     1
 40
0.0
176
     1
 90
        0
176
     1
290
     0
176
     1
290
     1
176
     1
290
     1
176
     1
290
     0
176
     1
290
     0
176
     1
290
     0
176
     1
290
     0
176
     1
290
     0
176
     1
290
     0
176
     1
 90
       50
176
     1
 40
0.0
176
     1
 40
1.0
176
     1
 90
        0
176
     1
 62
    18
420
        0
176
     1
 90
       50
176
     1
 90
        3
176
     1
 62
     5
420
      255
176
     1
290
     0
176
     1
 90
       50
176
     1
 90
       50
176
     1
 90
       50
176
     1
290
     0
176
     1
 90
       50
176
     1
 62
   256
176
     0
 40
1.0
176
     0
 90
        2
176
     1
  1
strokes_ogs.tif
176
     1
290
     0
176
     1
 40
1.0
176
     1
 40
1.0
176
     1
  0
VISUALSTYLE
  5
A4
102
{ACAD_REACTORS
330
99
102
}
330
99
100
AcDbVisualStyle
  2
Dim
 70
    11
177
     3
291
     1
 70
    58
 90
        2
176
     1
 90
        2
176
     1
 90
        1
176
     1
 90
        0
176
     1
 40
0.6
176
     1
 40
30.0
176
     1
 62
     7
420
 16777215
176
     1
 90
        1
176
     1
 90
        4
176
     1
 62
     7
176
     1
 62
   257
176
     1
 90
        1
176
     1
 90
        1
176
     1
 40
1.0
176
     1
 90
        8
176
     1
 62
     7
176
     1
 40
1.0
176
     1
 90
        1
176
     1
 90
        6
176
     1
 90
        2
176
     1
 62
     7
176
     1
 90
        5
176
     1
 90
        0
176
     1
 90
        0
176
     1
290
     0
176
     1
 90
        1
176
     1
 40
-50.0
176
     1
 90
        0
176
     1
290
     0
176
     1
290
     1
176
     1
290
     1
176
     1
290
     0
176
     1
290
     0
176
     1
290
     0
176
     1
290
     0
176
     1
290
     0
176
     1
290
     0
176
     1
 90
       50
176
     1
 40
0.0
176
     1
 40
1.0
176
     1
 90
        0
176
     1
 62
    18
420
        0
176
     1
 90
       50
176
     1
 90
        3
176
     1
 62
     5
420
      255
176
     1
290
     0
176
     1
 90
       50
176
     1
 90
       50
176
     1
 90
       50
176
     1
290
     0
176
     1
 90
       50
176
     1
 62
   256
176
     0
 40
1.0
176
     0
 90
        2
176
     1
  1
strokes_ogs.tif
176
     1
290
     0
176
     1
 40
1.0
176
     1
 40
1.0
176
     1
  0
VISUALSTYLE
  5
175
102
{ACAD_REACTORS
330
99
102
}
330
99
100
AcDbVisualStyle
  2
EdgeColorOff
 70
    22
177
     3
291
     1
 70
    58
 90
        2
176
     0
 90
        2
176
     0
 90
        0
176
     0
 90
        0
176
     0
 40
0.6
176
     0
 40
30.0
176
     0
 62
     7
420
 16777215
176
     0
 90
        1
176
     0
 90
        4
176
     0
 62
     7
176
     0
 62
   257
176
     0
 90
        1
176
     0
 90
        1
176
     0
 40
1.0
176
     0
 90
        8
176
     2
 62
     7
176
     0
 40
1.0
176
     0
 90
        1
176
     0
 90
        6
176
     0
 90
        2
176
     0
 62
     7
176
     0
 90
        5
176
     0
 90
        0
176
     0
 90
        0
176
     0
290
     0
176
     0
 90
        1
176
     0
 40
0.0
176
     0
 90
        0
176
     0
290
     0
176
     1
290
     1
176
     1
290
     1
176
     1
290
     0
176
     1
290
     0
176
     1
290
     0
176
     1
290
     0
176
     1
290
     0
176
     1
290
     0
176
     1
 90
       50
176
     1
 40
0.0
176
     1
 40
1.0
176
     1
 90
        0
176
     1
 62
    18
420
        0
176
     1
 90
       50
176
     1
 90
        3
176
     1
 62
     5
420
      255
176
     1
290
     0
176
     1
 90
       50
176
     1
 90
       50
176
     1
 90
       50
176
     1
290
     0
176
     1
 90
       50
176
     1
 62
   256
176
     0
 40
1.0
176
     0
 90
        2
176
     1
  1
strokes_ogs.tif
176
     1
290
     0
176
     1
 40
1.0
176
     1
 40
1.0
176
     1
  0
VISUALSTYLE
  5
A8
102
{ACAD_REACTORS
330
99
102
}
330
99
100
AcDbVisualStyle
  2
Facepattern
 70
    15
177
     3
291
     1
 70
    58
 90
        2
176
     1
 90
        2
176
     1
 90
        1
176
     1
 90
        0
176
     1
 40
0.6
176
     1
 40
30.0
176
     1
 62
     7
420
 16777215
176
     1
 90
        1
176
     1
 90
        4
176
     1
 62
     7
176
     1
 62
   257
176
     1
 90
        1
176
     1
 90
        1
176
     1
 40
1.0
176
     1
 90
        8
176
     1
 62
     7
176
     1
 40
1.0
176
     1
 90
        1
176
     1
 90
        6
176
     1
 90
        2
176
     1
 62
     7
176
     1
 90
        5
176
     1
 90
        0
176
     1
 90
        0
176
     1
290
     0
176
     1
 90
        1
176
     1
 40
0.0
176
     1
 90
        0
176
     1
290
     0
176
     1
290
     1
176
     1
290
     1
176
     1
290
     0
176
     1
290
     0
176
     1
290
     0
176
     1
290
     0
176
     1
290
     0
176
     1
290
     0
176
     1
 90
       50
176
     1
 40
0.0
176
     1
 40
1.0
176
     1
 90
        0
176
     1
 62
    18
420
        0
176
     1
 90
       50
176
     1
 90
        3
176
     1
 62
     5
420
      255
176
     1
290
     0
176
     1
 90
       50
176
     1
 90
       50
176
     1
 90
       50
176
     1
290
     0
176
     1
 90
       50
176
     1
 62
   256
176
     0
 40
1.0
176
     0
 90
        2
176
     1
  1
strokes_ogs.tif
176
     1
290
     0
176
     1
 40
1.0
176
     1
 40
1.0
176
     1
  0
VISUALSTYLE
  5
9A
102
{ACAD_REACTORS
330
99
102
}
330
99
100
AcDbVisualStyle
  2
Flat
 70
     0
177
     3
291
     1
 70
    58
 90
        2
176
     1
 90
        1
176
     1
 90
        1
176
     1
 90
        2
176
     1
 40
0.6
176
     1
 40
30.0
176
     1
 62
     7
420
 16777215
176
     1
 90
        0
176
     1
 90
        0
176
     1
 62
     7
176
     1
 62
   257
176
     1
 90
        1
176
     1
 90
        1
176
     1
 40
1.0
176
     1
 90
        8
176
     1
 62
     7
176
     1
 40
1.0
176
     1
 90
        1
176
     1
 90
        6
176
     1
 90
        2
176
     1
 62
     7
176
     1
 90
        5
176
     1
 90
        0
176
     1
 90
        0
176
     1
290
     0
176
     1
 90
       13
176
     1
 40
0.0
176
     1
 90
        0
176
     1
290
     0
176
     1
290
     1
176
     1
290
     1
176
     1
290
     0
176
     1
290
     0
176
     1
290
     0
176
     1
290
     0
176
     1
290
     0
176
     1
290
     0
176
     1
 90
       50
176
     1
 40
0.0
176
     1
 40
1.0
176
     1
 90
        0
176
     1
 62
    18
420
        0
176
     1
 90
       50
176
     1
 90
        3
176
     1
 62
     5
420
      255
176
     1
290
     0
176
     1
 90
       50
176
     1
 90
       50
176
     1
 90
       50
176
     1
290
     0
176
     1
 90
       50
176
     1
 62
   256
176
     0
 40
1.0
176
     0
 90
        2
176
     1
  1
strokes_ogs.tif
176
     1
290
     0
176
     1
 40
1.0
176
     1
 40
1.0
176
     1
  0
VISUALSTYLE
  5
9B
102
{ACAD_REACTORS
330
99
102
}
330
99
100
AcDbVisualStyle
  2
FlatWithEdges
 70
     1
177
     3
291
     1
 70
    58
 90
        2
176
     1
 90
        1
176
     1
 90
        1
176
     1
 90
        2
176
     1
 40
0.6
176
     1
 40
30.0
176
     1
 62
     7
420
 16777215
176
     1
 90
        1
176
     1
 90
        0
176
     1
 62
     7
176
     1
 62
   257
176
     1
 90
        1
176
     1
 90
        1
176
     1
 40
1.0
176
     1
 90
        0
176
     1
 62
   257
176
     1
 40
1.0
176
     1
 90
        1
176
     1
 90
        6
176
     1
 90
        2
176
     1
 62
     7
176
     1
 90
        5
176
     1
 90
        0
176
     1
 90
        0
176
     1
290
     0
176
     1
 90
       13
176
     1
 40
0.0
176
     1
 90
        0
176
     1
290
     0
176
     1
290
     1
176
     1
290
     1
176
     1
290
     0
176
     1
290
     0
176
     1
290
     0
176
     1
290
     0
176
     1
290
     0
176
     1
290
     0
176
     1
 90
       50
176
     1
 40
0.0
176
     1
 40
1.0
176
     1
 90
        0
176
     1
 62
    18
420
        0
176
     1
 90
       50
176
     1
 90
        3
176
     1
 62
     5
420
      255
176
     1
290
     0
176
     1
 90
       50
176
     1
 90
       50
176
     1
 90
       50
176
     1
290
     0
176
     1
 90
       50
176
     1
 62
   256
176
     0
 40
1.0
176
     0
 90
        2
176
     1
  1
strokes_ogs.tif
176
     1
290
     0
176
     1
 40
1.0
176
     1
 40
1.0
176
     1
  0
VISUALSTYLE
  5
9C
102
{ACAD_REACTORS
330
99
102
}
330
99
100
AcDbVisualStyle
  2
Gouraud
 70
     2
177
     3
291
     1
 70
    58
 90
        2
176
     1
 90
        2
176
     1
 90
        1
176
     1
 90
        2
176
     1
 40
0.6
176
     1
 40
30.0
176
     1
 62
     7
420
 16777215
176
     1
 90
        0
176
     1
 90
        0
176
     1
 62
     7
176
     1
 62
   257
176
     1
 90
        1
176
     1
 90
        1
176
     1
 40
1.0
176
     1
 90
        0
176
     1
 62
     7
176
     1
 40
1.0
176
     1
 90
        1
176
     1
 90
        6
176
     1
 90
        2
176
     1
 62
     7
176
     1
 90
        5
176
     1
 90
        0
176
     1
 90
        0
176
     1
290
     0
176
     1
 90
       13
176
     1
 40
0.0
176
     1
 90
        0
176
     1
290
     0
176
     1
290
     1
176
     1
290
     1
176
     1
290
     0
176
     1
290
     0
176
     1
290
     0
176
     1
290
     0
176
     1
290
     0
176
     1
290
     0
176
     1
 90
       50
176
     1
 40
0.0
176
     1
 40
1.0
176
     1
 90
        0
176
     1
 62
    18
420
        0
176
     1
 90
       50
176
     1
 90
        3
176
     1
 62
     5
420
      255
176
     1
290
     0
176
     1
 90
       50
176
     1
 90
       50
176
     1
 90
       50
176
     1
290
     0
176
     1
 90
       50
176
     1
 62
   256
176
     0
 40
1.0
176
     0
 90
        2
176
     1
  1
strokes_ogs.tif
176
     1
290
     0
176
     1
 40
1.0
176
     1
 40
1.0
176
     1
  0
VISUALSTYLE
  5
9D
102
{ACAD_REACTORS
330
99
102
}
330
99
100
AcDbVisualStyle
  2
GouraudWithEdges
 70
     3
177
     3
291
     1
 70
    58
 90
        2
176
     1
 90
        2
176
     1
 90
        1
176
     1
 90
        2
176
     1
 40
0.6
176
     1
 40
30.0
176
     1
 62
     7
420
 16777215
176
     1
 90
        1
176
     1
 90
        0
176
     1
 62
     7
176
     1
 62
   257
176
     1
 90
        1
176
     1
 90
        1
176
     1
 40
1.0
176
     1
 90
        0
176
     1
 62
   257
176
     1
 40
1.0
176
     1
 90
        1
176
     1
 90
        6
176
     1
 90
        2
176
     1
 62
     7
176
     1
 90
        5
176
     1
 90
        0
176
     1
 90
        0
176
     1
290
     0
176
     1
 90
       13
176
     1
 40
0.0
176
     1
 90
        0
176
     1
290
     0
176
     1
290
     1
176
     1
290
     1
176
     1
290
     0
176
     1
290
     0
176
     1
290
     0
176
     1
290
     0
176
     1
290
     0
176
     1
290
     0
176
     1
 90
       50
176
     1
 40
0.0
176
     1
 40
1.0
176
     1
 90
        0
176
     1
 62
    18
420
        0
176
     1
 90
       50
176
     1
 90
        3
176
     1
 62
     5
420
      255
176
     1
290
     0
176
     1
 90
       50
176
     1
 90
       50
176
     1
 90
       50
176
     1
290
     0
176
     1
 90
       50
176
     1
 62
   256
176
     0
 40
1.0
176
     0
 90
        2
176
     1
  1
strokes_ogs.tif
176
     1
290
     0
176
     1
 40
1.0
176
     1
 40
1.0
176
     1
  0
VISUALSTYLE
  5
A1
102
{ACAD_REACTORS
330
99
102
}
330
99
100
AcDbVisualStyle
  2
Hidden
 70
     6
177
     3
291
     0
 70
    58
 90
        1
176
     1
 90
        2
176
     1
 90
        2
176
     1
 90
        0
176
     1
 40
0.6
176
     1
 40
30.0
176
     1
 62
     7
420
 16777215
176
     1
 90
        2
176
     1
 90
        2
176
     1
 62
     7
176
     1
 62
   257
176
     1
 90
        2
176
     1
 90
        1
176
     1
 40
40.0
176
     1
 90
        0
176
     1
 62
   257
176
     1
 40
1.0
176
     1
 90
        1
176
     1
 90
        6
176
     1
 90
        2
176
     1
 62
     7
176
     1
 90
        3
176
     1
 90
        0
176
     1
 90
        0
176
     1
290
     0
176
     1
 90
        1
176
     1
 40
0.0
176
     1
 90
        0
176
     1
290
     0
176
     1
290
     1
176
     1
290
     1
176
     1
290
     0
176
     1
290
     0
176
     1
290
     0
176
     1
290
     0
176
     1
290
     0
176
     1
290
     0
176
     1
 90
       50
176
     1
 40
0.0
176
     1
 40
1.0
176
     1
 90
        0
176
     1
 62
    18
420
        0
176
     1
 90
       50
176
     1
 90
        3
176
     1
 62
     5
420
      255
176
     1
290
     0
176
     1
 90
       50
176
     1
 90
       50
176
     1
 90
       50
176
     1
290
     0
176
     1
 90
       50
176
     1
 62
   256
176
     0
 40
1.0
176
     0
 90
        2
176
     1
  1
strokes_ogs.tif
176
     1
290
     0
176
     1
 40
1.0
176
     1
 40
1.0
176
     1
  0
VISUALSTYLE
  5
173
102
{ACAD_REACTORS
330
99
102
}
330
99
100
AcDbVisualStyle
  2
JitterOff
 70
    20
177
     3
291
     1
 70
    58
 90
        2
176
     0
 90
        2
176
     0
 90
        0
176
     0
 90
        0
176
     0
 40
0.6
176
     0
 40
30.0
176
     0
 62
     7
420
 16777215
176
     0
 90
        1
176
     0
 90
        4
176
     0
 62
     7
176
     0
 62
   257
176
     0
 90
        1
176
     0
 90
        1
176
     0
 40
1.0
176
     0
 90
       10
176
     2
 62
     7
176
     0
 40
1.0
176
     0
 90
        1
176
     0
 90
        6
176
     0
 90
        2
176
     0
 62
     7
176
     0
 90
        5
176
     0
 90
        0
176
     0
 90
        0
176
     0
290
     0
176
     0
 90
        1
176
     0
 40
0.0
176
     0
 90
        0
176
     0
290
     0
176
     1
290
     1
176
     1
290
     1
176
     1
290
     0
176
     1
290
     0
176
     1
290
     0
176
     1
290
     0
176
     1
290
     0
176
     1
290
     0
176
     1
 90
       50
176
     1
 40
0.0
176
     1
 40
1.0
176
     1
 90
        0
176
     1
 62
    18
420
        0
176
     1
 90
       50
176
     1
 90
        3
176
     1
 62
     5
420
      255
176
     1
290
     0
176
     1
 90
       50
176
     1
 90
       50
176
     1
 90
       50
176
     1
290
     0
176
     1
 90
       50
176
     1
 62
   256
176
     0
 40
1.0
176
     0
 90
        2
176
     1
  1
strokes_ogs.tif
176
     1
290
     0
176
     1
 40
1.0
176
     1
 40
1.0
176
     1
  0
VISUALSTYLE
  5
A7
102
{ACAD_REACTORS
330
99
102
}
330
99
100
AcDbVisualStyle
  2
Linepattern
 70
    14
177
     3
291
     1
 70
    58
 90
        2
176
     1
 90
        2
176
     1
 90
        1
176
     1
 90
        0
176
     1
 40
0.6
176
     1
 40
30.0
176
     1
 62
     7
420
 16777215
176
     1
 90
        1
176
     1
 90
        4
176
     1
 62
     7
176
     1
 62
   257
176
     1
 90
        7
176
     1
 90
        7
176
     1
 40
1.0
176
     1
 90
        8
176
     1
 62
     7
176
     1
 40
1.0
176
     1
 90
        1
176
     1
 90
        6
176
     1
 90
        2
176
     1
 62
     7
176
     1
 90
        5
176
     1
 90
        0
176
     1
 90
        0
176
     1
290
     0
176
     1
 90
        1
176
     1
 40
0.0
176
     1
 90
        0
176
     1
290
     0
176
     1
290
     1
176
     1
290
     1
176
     1
290
     0
176
     1
290
     0
176
     1
290
     0
176
     1
290
     0
176
     1
290
     0
176
     1
290
     0
176
     1
 90
       50
176
     1
 40
0.0
176
     1
 40
1.0
176
     1
 90
        0
176
     1
 62
    18
420
        0
176
     1
 90
       50
176
     1
 90
        3
176
     1
 62
     5
420
      255
176
     1
290
     0
176
     1
 90
       50
176
     1
 90
       50
176
     1
 90
       50
176
     1
290
     0
176
     1
 90
       50
176
     1
 62
   256
176
     0
 40
1.0
176
     0
 90
        2
176
     1
  1
strokes_ogs.tif
176
     1
290
     0
176
     1
 40
1.0
176
     1
 40
1.0
176
     1
  0
VISUALSTYLE
  5
174
102
{ACAD_REACTORS
330
99
102
}
330
99
100
AcDbVisualStyle
  2
OverhangOff
 70
    21
177
     3
291
     1
 70
    58
 90
        2
176
     0
 90
        2
176
     0
 90
        0
176
     0
 90
        0
176
     0
 40
0.6
176
     0
 40
30.0
176
     0
 62
     7
420
 16777215
176
     0
 90
        1
176
     0
 90
        4
176
     0
 62
     7
176
     0
 62
   257
176
     0
 90
        1
176
     0
 90
        1
176
     0
 40
1.0
176
     0
 90
        9
176
     2
 62
     7
176
     0
 40
1.0
176
     0
 90
        1
176
     0
 90
        6
176
     0
 90
        2
176
     0
 62
     7
176
     0
 90
        5
176
     0
 90
        0
176
     0
 90
        0
176
     0
290
     0
176
     0
 90
        1
176
     0
 40
0.0
176
     0
 90
        0
176
     0
290
     0
176
     1
290
     1
176
     1
290
     1
176
     1
290
     0
176
     1
290
     0
176
     1
290
     0
176
     1
290
     0
176
     1
290
     0
176
     1
290
     0
176
     1
 90
       50
176
     1
 40
0.0
176
     1
 40
1.0
176
     1
 90
        0
176
     1
 62
    18
420
        0
176
     1
 90
       50
176
     1
 90
        3
176
     1
 62
     5
420
      255
176
     1
290
     0
176
     1
 90
       50
176
     1
 90
       50
176
     1
 90
       50
176
     1
290
     0
176
     1
 90
       50
176
     1
 62
   256
176
     0
 40
1.0
176
     0
 90
        2
176
     1
  1
strokes_ogs.tif
176
     1
290
     0
176
     1
 40
1.0
176
     1
 40
1.0
176
     1
  0
VISUALSTYLE
  5
A3
102
{ACAD_REACTORS
330
99
102
}
330
99
100
AcDbVisualStyle
  2
Realistic
 70
     8
177
     3
291
     0
 70
    58
 90
        2
176
     1
 90
        2
176
     1
 90
        0
176
     1
 90
        2
176
     1
 40
0.6
176
     1
 40
30.0
176
     1
 62
     7
420
 16777215
176
     1
 90
        0
176
     1
 90
        0
176
     1
 62
     7
176
     1
 62
   257
176
     1
 90
        1
176
     1
 90
        1
176
     1
 40
1.0
176
     1
 90
        8
176
     1
 62
   257
176
     1
 40
1.0
176
     1
 90
        1
176
     1
 90
        6
176
     1
 90
        2
176
     1
 62
     7
176
     1
 90
        3
176
     1
 90
        0
176
     1
 90
        0
176
     1
290
     0
176
     1
 90
       13
176
     1
 40
0.0
176
     1
 90
        0
176
     1
290
     0
176
     1
290
     1
176
     1
290
     1
176
     1
290
     0
176
     1
290
     0
176
     1
290
     0
176
     1
290
     0
176
     1
290
     0
176
     1
290
     0
176
     1
 90
       50
176
     1
 40
0.0
176
     1
 40
1.0
176
     1
 90
        0
176
     1
 62
    18
420
        0
176
     1
 90
       50
176
     1
 90
        3
176
     1
 62
     5
420
      255
176
     1
290
     0
176
     1
 90
       50
176
     1
 90
       50
176
     1
 90
       50
176
     1
290
     0
176
     1
 90
       50
176
     1
 62
   256
176
     0
 40
1.0
176
     0
 90
        2
176
     1
  1
strokes_ogs.tif
176
     1
290
     0
176
     1
 40
1.0
176
     1
 40
1.0
176
     1
  0
VISUALSTYLE
  5
182
102
{ACAD_REACTORS
330
99
102
}
330
99
100
AcDbVisualStyle
  2
Shaded
 70
    27
177
     3
291
     0
 70
    58
 90
        2
176
     1
 90
        2
176
     1
 90
        1
176
     1
 90
        2
176
     1
 40
0.6
176
     1
 40
30.0
176
     1
 62
     7
420
 16777215
176
     1
 90
        0
176
     1
 90
        4
176
     1
 62
     7
176
     1
 62
   257
176
     1
 90
        1
176
     1
 90
        1
176
     1
 40
1.0
176
     1
 90
        8
176
     1
 62
   257
176
     1
 40
1.0
176
     1
 90
        1
176
     1
 90
        6
176
     1
 90
        2
176
     1
 62
     8
420
  7895160
176
     1
 90
        3
176
     1
 90
        0
176
     1
 90
        0
176
     1
290
     0
176
     1
 90
        5
176
     1
 40
0.0
176
     1
 90
        0
176
     1
290
     0
176
     1
290
     1
176
     1
290
     1
176
     1
290
     0
176
     1
290
     0
176
     1
290
     0
176
     1
290
     0
176
     1
290
     0
176
     1
290
     0
176
     1
 90
       50
176
     1
 40
0.0
176
     1
 40
1.0
176
     1
 90
        0
176
     1
 62
    18
420
        0
176
     1
 90
       50
176
     1
 90
        3
176
     1
 62
     5
420
      255
176
     1
290
     0
176
     1
 90
       50
176
     1
 90
       50
176
     1
 90
       50
176
     1
290
     0
176
     1
 90
       50
176
     1
 62
   256
176
     0
 40
1.0
176
     0
 90
        2
176
     1
  1
strokes_ogs.tif
176
     1
290
     0
176
     1
 40
1.0
176
     1
 40
1.0
176
     1
  0
VISUALSTYLE
  5
181
102
{ACAD_REACTORS
330
99
102
}
330
99
100
AcDbVisualStyle
  2
Shaded with edges
 70
    26
177
     3
291
     0
 70
    58
 90
        2
176
     1
 90
        2
176
     1
 90
        1
176
     1
 90
        2
176
     1
 40
0.6
176
     1
 40
30.0
176
     1
 62
     7
420
 16777215
176
     1
 90
        1
176
     1
 90
        2
176
     1
 62
     7
176
     1
 62
   257
176
     1
 90
        2
176
     1
 90
        1
176
     1
 40
1.0
176
     1
 90
        8
176
     1
 62
   257
176
     1
 40
1.0
176
     1
 90
        1
176
     1
 90
        6
176
     1
 90
        2
176
     1
 62
     7
176
     1
 90
        3
176
     1
 90
        0
176
     1
 90
        0
176
     1
290
     0
176
     1
 90
        5
176
     1
 40
0.0
176
     1
 90
        0
176
     1
290
     0
176
     1
290
     1
176
     1
290
     1
176
     1
290
     0
176
     1
290
     0
176
     1
290
     0
176
     1
290
     0
176
     1
290
     0
176
     1
290
     0
176
     1
 90
       50
176
     1
 40
0.0
176
     1
 40
1.0
176
     1
 90
        0
176
     1
 62
    18
420
        0
176
     1
 90
       50
176
     1
 90
        3
176
     1
 62
     5
420
      255
176
     1
290
     0
176
     1
 90
       50
176
     1
 90
       50
176
     1
 90
       50
176
     1
290
     0
176
     1
 90
       50
176
     1
 62
   256
176
     0
 40
1.0
176
     0
 90
        2
176
     1
  1
strokes_ogs.tif
176
     1
290
     0
176
     1
 40
1.0
176
     1
 40
1.0
176
     1
  0
VISUALSTYLE
  5
17E
102
{ACAD_REACTORS
330
99
102
}
330
99
100
AcDbVisualStyle
  2
Shades of Gray
 70
    23
177
     3
291
     0
 70
    58
 90
        2
176
     1
 90
        2
176
     1
 90
        3
176
     1
 90
        0
176
     1
 40
0.6
176
     1
 40
30.0
176
     1
 62
     7
420
 16777215
176
     1
 90
        2
176
     1
 90
        2
176
     1
 62
     7
176
     1
 62
     7
176
     1
 90
        1
176
     1
 90
        1
176
     1
 40
40.0
176
     1
 90
        8
176
     1
 62
     7
176
     1
 40
1.0
176
     1
 90
        1
176
     1
 90
        6
176
     1
 90
        2
176
     1
 62
     7
176
     1
 90
        3
176
     1
 90
        0
176
     1
 90
        0
176
     1
290
     0
176
     1
 90
        1
176
     1
 40
0.0
176
     1
 90
        0
176
     1
290
     0
176
     1
290
     1
176
     1
290
     1
176
     1
290
     0
176
     1
290
     0
176
     1
290
     0
176
     1
290
     0
176
     1
290
     0
176
     1
290
     0
176
     1
 90
       50
176
     1
 40
0.0
176
     1
 40
1.0
176
     1
 90
        0
176
     1
 62
    18
420
        0
176
     1
 90
       50
176
     1
 90
        3
176
     1
 62
     5
420
      255
176
     1
290
     0
176
     1
 90
       50
176
     1
 90
       50
176
     1
 90
       50
176
     1
290
     0
176
     1
 90
       50
176
     1
 62
   256
176
     0
 40
1.0
176
     0
 90
        2
176
     1
  1
strokes_ogs.tif
176
     1
290
     0
176
     1
 40
1.0
176
     1
 40
1.0
176
     1
  0
VISUALSTYLE
  5
17F
102
{ACAD_REACTORS
330
99
102
}
330
99
100
AcDbVisualStyle
  2
Sketchy
 70
    24
177
     3
291
     0
 70
    58
 90
        1
176
     1
 90
        2
176
     1
 90
        2
176
     1
 90
        0
176
     1
 40
0.6
176
     1
 40
30.0
176
     1
 62
     7
420
 16777215
176
     1
 90
        2
176
     1
 90
        2
176
     1
 62
     7
176
     1
 62
     7
176
     1
 90
        1
176
     1
 90
        1
176
     1
 40
40.0
176
     1
 90
       11
176
     1
 62
     7
176
     1
 40
1.0
176
     1
 90
        1
176
     1
 90
        6
176
     1
 90
        2
176
     1
 62
     7
176
     1
 90
        6
176
     1
 90
        0
176
     1
 90
        0
176
     1
290
     0
176
     1
 90
        1
176
     1
 40
0.0
176
     1
 90
        0
176
     1
290
     0
176
     1
290
     1
176
     1
290
     1
176
     1
290
     0
176
     1
290
     0
176
     1
290
     0
176
     1
290
     0
176
     1
290
     0
176
     1
290
     0
176
     1
 90
       50
176
     1
 40
0.0
176
     1
 40
1.0
176
     1
 90
        0
176
     1
 62
    18
420
        0
176
     1
 90
       50
176
     1
 90
        3
176
     1
 62
     5
420
      255
176
     1
290
     0
176
     1
 90
       50
176
     1
 90
       50
176
     1
 90
       50
176
     1
290
     0
176
     1
 90
       50
176
     1
 62
   256
176
     0
 40
1.0
176
     0
 90
        2
176
     1
  1
strokes_ogs.tif
176
     1
290
     0
176
     1
 40
1.0
176
     1
 40
1.0
176
     1
  0
VISUALSTYLE
  5
A6
102
{ACAD_REACTORS
330
99
102
}
330
99
100
AcDbVisualStyle
  2
Thicken
 70
    13
177
     3
291
     1
 70
    58
 90
        2
176
     1
 90
        2
176
     1
 90
        1
176
     1
 90
        0
176
     1
 40
0.6
176
     1
 40
30.0
176
     1
 62
     7
420
 16777215
176
     1
 90
        1
176
     1
 90
        4
176
     1
 62
     7
176
     1
 62
   257
176
     1
 90
        1
176
     1
 90
        1
176
     1
 40
1.0
176
     1
 90
       12
176
     1
 62
     7
176
     1
 40
1.0
176
     1
 90
        1
176
     1
 90
        6
176
     1
 90
        2
176
     1
 62
     7
176
     1
 90
        5
176
     1
 90
        0
176
     1
 90
        0
176
     1
290
     0
176
     1
 90
        1
176
     1
 40
0.0
176
     1
 90
        0
176
     1
290
     0
176
     1
290
     1
176
     1
290
     1
176
     1
290
     0
176
     1
290
     0
176
     1
290
     0
176
     1
290
     0
176
     1
290
     0
176
     1
290
     0
176
     1
 90
       50
176
     1
 40
0.0
176
     1
 40
1.0
176
     1
 90
        0
176
     1
 62
    18
420
        0
176
     1
 90
       50
176
     1
 90
        3
176
     1
 62
     5
420
      255
176
     1
290
     0
176
     1
 90
       50
176
     1
 90
       50
176
     1
 90
       50
176
     1
290
     0
176
     1
 90
       50
176
     1
 62
   256
176
     0
 40
1.0
176
     0
 90
        2
176
     1
  1
strokes_ogs.tif
176
     1
290
     0
176
     1
 40
1.0
176
     1
 40
1.0
176
     1
  0
VISUALSTYLE
  5
A0
102
{ACAD_REACTORS
330
99
102
}
330
99
100
AcDbVisualStyle
  2
Wireframe
 70
     5
177
     3
291
     0
 70
    58
 90
        0
176
     1
 90
        2
176
     1
 90
        0
176
     1
 90
        0
176
     1
 40
0.6
176
     1
 40
30.0
176
     1
 62
     7
420
 16777215
176
     1
 90
        1
176
     1
 90
        4
176
     1
 62
     7
176
     1
 62
   257
176
     1
 90
        1
176
     1
 90
        1
176
     1
 40
1.0
176
     1
 90
        0
176
     1
 62
   257
176
     1
 40
1.0
176
     1
 90
        1
176
     1
 90
        6
176
     1
 90
        2
176
     1
 62
     7
176
     1
 90
        3
176
     1
 90
        0
176
     1
 90
        0
176
     1
290
     0
176
     1
 90
        1
176
     1
 40
0.0
176
     1
 90
        0
176
     1
290
     0
176
     1
290
     1
176
     1
290
     1
176
     1
290
     0
176
     1
290
     0
176
     1
290
     0
176
     1
290
     0
176
     1
290
     0
176
     1
290
     0
176
     1
 90
       50
176
     1
 40
0.0
176
     1
 40
1.0
176
     1
 90
        0
176
     1
 62
    18
420
        0
176
     1
 90
       50
176
     1
 90
        3
176
     1
 62
     5
420
      255
176
     1
290
     0
176
     1
 90
       50
176
     1
 90
       50
176
     1
 90
       50
176
     1
290
     0
176
     1
 90
       50
176
     1
 62
   256
176
     0
 40
1.0
176
     0
 90
        2
176
     1
  1
strokes_ogs.tif
176
     1
290
     0
176
     1
 40
1.0
176
     1
 40
1.0
176
     1
  0
VISUALSTYLE
  5
180
102
{ACAD_REACTORS
330
99
102
}
330
99
100
AcDbVisualStyle
  2
X-Ray
 70
    25
177
     3
291
     0
 70
    58
 90
        2
176
     1
 90
        2
176
     1
 90
        1
176
     1
 90
        1
176
     1
 40
0.5
176
     1
 40
30.0
176
     1
 62
     7
420
 16777215
176
     1
 90
        1
176
     1
 90
        0
176
     1
 62
     7
176
     1
 62
   257
176
     1
 90
        1
176
     1
 90
        1
176
     1
 40
1.0
176
     1
 90
        8
176
     1
 62
     7
176
     1
 40
1.0
176
     1
 90
        1
176
     1
 90
        6
176
     1
 90
        2
176
     1
 62
     7
176
     1
 90
        3
176
     1
 90
        0
176
     1
 90
        0
176
     1
290
     0
176
     1
 90
       13
176
     1
 40
0.0
176
     1
 90
        0
176
     1
290
     0
176
     1
290
     1
176
     1
290
     1
176
     1
290
     0
176
     1
290
     0
176
     1
290
     0
176
     1
290
     0
176
     1
290
     0
176
     1
290
     0
176
     1
 90
       50
176
     1
 40
0.0
176
     1
 40
1.0
176
     1
 90
        0
176
     1
 62
    18
420
        0
176
     1
 90
       50
176
     1
 90
        3
176
     1
 62
     5
420
      255
176
     1
290
     0
176
     1
 90
       50
176
     1
 90
       50
176
     1
 90
       50
176
     1
290
     0
176
     1
 90
       50
176
     1
 62
   256
176
     0
 40
1.0
176
     0
 90
        2
176
     1
  1
strokes_ogs.tif
176
     1
290
     0
176
     1
 40
1.0
176
     1
 40
1.0
176
     1
  0
DICTIONARYVAR
  5
F0
102
{ACAD_REACTORS
330
66
102
}
330
66
100
DictionaryVariables
280
     0
  1
1:1
  0
DICTIONARYVAR
  5
EF
102
{ACAD_REACTORS
330
66
102
}
330
66
100
DictionaryVariables
280
     0
  1
STANDARD
  0
DICTIONARYVAR
  5
89
102
{ACAD_REACTORS
330
66
102
}
330
66
100
DictionaryVariables
280
     0
  1
STANDARD
  0
DICTIONARYVAR
  5
1B7
102
{ACAD_REACTORS
330
66
102
}
330
66
100
DictionaryVariables
280
     0
  1
Imperial24
  0
DICTIONARYVAR
  5
1B8
102
{ACAD_REACTORS
330
66
102
}
330
66
100
DictionaryVariables
280
     0
  1
Imperial24
  0
DICTIONARYVAR
  5
67
102
{ACAD_REACTORS
330
66
102
}
330
66
100
DictionaryVariables
280
     0
  1
2
  0
DICTIONARYVAR
  5
6B
102
{ACAD_REACTORS
330
66
102
}
330
66
100
DictionaryVariables
280
     0
  1
1
  0
DICTIONARYVAR
  5
14D
102
{ACAD_REACTORS
330
66
102
}
330
66
100
DictionaryVariables
280
     0
  1
0
  0
DICTIONARYVAR
  5
14E
102
{ACAD_REACTORS
330
66
102
}
330
66
100
DictionaryVariables
280
     0
  1
0
  0
DICTIONARY
  5
194
330
22
100
AcDbDictionary
280
     1
281
     1
  0
DICTIONARY
  5
188
330
97
100
AcDbDictionary
280
     1
281
     1
  3
FBXASSET
360
189
  0
DICTIONARY
  5
186
330
96
100
AcDbDictionary
280
     1
281
     1
  3
FBXASSET
360
187
  0
DICTIONARY
  5
110
330
98
100
AcDbDictionary
280
     1
281
     1
  3
BUMPTILE
360
112
  3
DIFFUSETILE
360
111
  3
FBXASSET
360
18A
  3
OPACITYTILE
360
113
  3
REFLECTIONTILE
360
114
  0
DICTIONARY
  5
104
330
87
100
AcDbDictionary
280
     1
281
     1
  3
ACAD_ROUNDTRIP_2008_TABLESTYLE_CELLSTYLEMAP
360
23E52
  0
XRECORD
  5
189
102
{ACAD_REACTORS
330
188
102
}
330
188
100
AcDbXrecord
280
     1
 70
     1
 90
429727718
  1
508B35C9-AEE7-456F-BE74-D52651303AC6
310
504B03040A0000080000B670623B3DEE336E79000000790000001B0000006175746F6465736B2D64657369676E2D7061636B6167652E786D6C3C3F786D6C2076657273696F6E3D22312E302220656E636F64696E673D227574662D3822203F3E3C666F726D6174733E3C666F726D61743E687474703A2F2F736368656D612E
310
6175746F6465736B2E636F6D2F64657369676E2D7061636B6167652F323030393C2F666F726D61743E3C2F666F726D6174733E504B0304140006080800B670623BD486FD9CA0000000F4000000130000005B436F6E74656E745F54797065735D2E786D6C7D8EC10E82300C865F65E91D8A1E8C310C0EEA1BF002731658846E
310
D98AC1B77784ABF1D8FE5FBFBF75BBCE937A534CCEB38643598122B6FEE978D0B0485F9C41B54DDD7D022595594E1A469170414C76A4D9A4D207E29CF43ECE46F218070CC6BECC4078ACAA135ACF422C856C0E68EA1BF5669944DDD7BCDE7B1F8E415D77AECB980613C2E4AC91FC167A2B244592486606FC29C8FD7F045B9A
310
EF7053A7E60B504B0304140006080800B670623B28ED286BEB0000007C01000008000000636F72652E786D6C8D90416EC3201045AF82665B6183218D6D61A254764FD00B204C5C94182C03558F5F9C3852BBEB6A467FFE9B197D71FA9E6FE8CBACC17AD7012D0820E3B41FAD9B3A48F1826B40272956EFE32F1B20A766D3C1
310
268314D3EAD3B24BDABB685CCCAAF3A3D94515828980F42D371D04FD696655A814B3235C8B45E9AB9A4C419F5D8653B2237A1CB163DE672FD6AC209BF3C08E0D1B30EB19C3FC9D72FCC6EB231EFA33EDE96BDD341517E5064B11EDFCBCAF57A3A2194156843498524CAA0FCA5B7268F9E185D42D21A2DCEC7FA0B48CFF8492
310
759155FBBB0F2C80A4F991FB408A72CB22977B50B96EB9C91F504B0304140006080800B670623B55019EA25F0000007C00000007000000636E782E786D6C4DCB3B0E80201045D1AD90E915ED2CF8AC45050C11660C8261F98AB1B07AC9C97D42D718D865D3E909258CFD00CCE24AC6E326A164D74DC0B4128928FF32603847
310
2BA13128B1252AC747C6BAB984FC68F0B87FE8960A5C09FE86CFB69FBA01504B0304140006080800B670623B7BC41AC871010000D40300000C0000006662782F636F72652E786D6CC553ED6E8320147D15C2DF4501B56B6D90A64BBB27D80B50A5CE54C120983EFEAE1F4DD7A56BBA5FF3879273EEE59E7310BE393735EA95
310
ED2AA333CC428A91D2B9292A5D66D8BB63B0C26823B835C67D2BC348CB46657880B1E0A535BE9DA1DC68A7B403549B42CDA0EC3AE530CA6B5864B8CB3F552343E91D5474A7B095F949962A6421D0502778E72C0840D390E18DC5F170E664C205F7BE2A66B62A605A75AC94C522DDEEE3651AEF837817C741F2CE92E02D592D
310
83FD6ECB76EC7595A651C2C9D02CB8AB9A8BBADC2AE954814544691A3016D0E883256BBA58278B17BA5A53CAC9507ED3E4DBE2C9265F691747B3DCA9ADC382819091F8E1162272A8933DE82182932144F88C09DF060D8140C84E1EEA8B8F1340BDCA9DB1093085F157AA97B557309586747CD0EF0B4EA64E983A6E0EAEEFCE
310
889E9EF17847386AA94B30211D2C0FDE0D3AF9A4610EAD5536E8DD1969631B593F67E381C33F5157F17725E5A636F6BF1491F980C8FC7B90E13E8A2F504B0304140006080800B670623B70102A487D0000009D0000000B0000006662782F636E782E786D6C4DCCD10A83201886E15B91FFDC95A5C30335ACCDFB886521330D
310
A76397BF1A1DECE883878F57749FD5A3B74D2F17830472A901D9F088930B8B849267CC01754AA418F3DF0D5018572BE160506249B16C274D761E8BCFBB7A179E27F65CB39A0F14D396184C9921B81F34C3ACA1B4B99ABB6E6F062A25AA5F69DF23ACBE504B0304140006080800B670623B3610CA3329010000120200003100
310
00006662782F42384135303843342D343331462D343546312D424341352D3532343432364645413344462F636F72652E786D6C8D515B6EC32010BC0AE22B55850D0E446E848992B43E412FE000495162B07854397EA176A4F62F3F2C9A9D991D58BEBB8F37F0AD7D30CE76905418026DA553C65E3A98E219B510EC04F7CEC5
310
3F3408EC30EA0E16180A7EF12E4D0B249D8DDAC68C5AA7F4020E21E80881BCE54B0783FCD2E3500D296646B856D320AFC34557A4CAEDCC133C449F0380794839A138B47B86DB2345744D7A44594FD0E1B867883594369BFE63BF7EEF793D0B054FC9A8456E548E63CE46FB674D8A58F068C6477CE9F510B582A2C1F80D1182
310
70F349E816B32D65AFB8DD62CCEB42FF274A937A52948C8DEB66893BCB021484D7734370E5D2E9F608A3EF93F3119479ABA0E50B14B8C298119A43CCC4FCFCECB8A18B6388CEE7EF5D5D4F994BD86CBBA182D76543B9FCAE2FD7B24DF103504B0304140006080800B670623B1B8617914E0100003303000030000000666278
310
2F42384135303843342D343331462D343546312D424341352D3532343432364645413344462F636E782E786D6CD593C16EC32010447F0571AD6CE3D489D20813A9877E410FBD62D82434182CC055F3F75D1292E692438FBD206B7698593D61BEFD1E2DF982108D773D6D6B460938E5B571FB9ECE6957AD29D90A1EBC4F7736
310
4A9C1CA1A759A682EF839FA72269D8C9D92654AD71C72206887E0E0A22CAF926B15E498B01E0AA19451807D01A34B919F16B070157417138917400F2F6FA41FCF0092A45DEE414C19BDC21783E4BD39D891265658C3D8DEA00A3ACE59CBC8678ACB54CB26EEB6BD7839D7E9348BE70AD9C8321B9BCA7F9A4A26C542347DEE0
310
50F09802D22BA6749A800A394DD62899107273365E3C82CFC6A55557BC06C10774B7ABE7AEC3B0F34CF06446280E154026D0542C187BA9DAB6628BF7B6DBB0E5A65B3EB1F58631DE64BBE083F7B65CC218087E22CABB042E51D1F2268F1FE12B3EA24D40D63E9CFE00120194D60B9D5BC67FE6D39CDF37E20AF817881F504B
310
0304140006080800B670623BBFEF2E3B690500003C100000340000006662782F42384135303843342D343331462D343546312D424341352D3532343432364645413344462F6F626A656374732E786D6CAD575D739B3814FD2B0CFB0C98D84E931D4227B6938EA793B6534F3BFB90198F0099B001899144EAECAFDF231018B0
310
D37A3FFC609090EEE7B94757C1FB7D915B2F54C88CB31BDB7727B64559CC938CA53776A576CE956DBD0F03C1B9EA2DB32D460A7A63EB693B0C52C1ABD24C257447AA5C8D66EF177F5832A68CDA569C13296F6C193FD182B8A4523CA1F2D94D88226EBADBBBBEDB2C1C8A4D05299F46424B222853B014F30C52ACC6287F389C
310
D85E1878FA7B18E87FB36AFAF62AAFF667A83F635211161F291B8999FAB3D5DDC5FCDA99CF6653677679E13B8BFBC5CAF1DF4D27CBCBE5F2FAF6EE1A8AA51290642C117467871F101B91C581D77CEA2C36869F3229E68CD1B8F61F1ED6361B89092D294B90C78C4A68EB793D190E7D1D9BDEE7A91E1B95FDE9F3BCEAEFE809
310
6A6D6F9F7D4B79F4275C90E7A04248AA51D5C4C738DAE06F72885AC4796EBE65D22A88A22223B995679120E2D50EB1542F098381188D4EA111AE3DB043FF20AF6F2B4AE3D7D83D65E5AECA730D4D3BAC91BD05FEA992B565D95F549CD6069B90AB2A63EACA38A45E4B6A87D781574F86817E4C2FCCC72690D62E2729520E37
310
9BAF234797BAF6D62B3BFC781FED37BA1E4F2B2F052FA9501A3E80569BB8F6A9A364D4FA67654E6F803383981F82F21591FF84F23D9882BC896C3FDBCF8C162508933B2E0AE4C69DD43F6BD2BE38DDDBF10BF86CB4FA784D37F3AF16075E67EC9030DECA1FC0A55373F5DFF3378C591FA9BDF485C10B0A8C8BA909E5262639
310
A8E72163488806A595734C81CB77D1DE0ED7604A303B76913CEC0272F412782FF88EFF4636D8AA56DF7B322474C4B767303F625997056C7B032C473C592B36CEBD15F3F9FF5233B7ABCDC74D257624A60F8658567497B14CE1EC3C80B76FD02011038F9EE9EB0F2E12387A9C844D3F09855125116D1D731DF8B43D2CF4E0A0
310
79A020C6BE946BCE0B7EA1E1219331CD73C228AF5A2DDD31A4B1DA918CE91350854D40A71723140BFA92E94E62B0626016CEFA5864A50E5977E8753CEDBEE1CBB7F52780D20E17AF0BA0F5F9B02A3AD07DCC732EB6D1EBB661421BE0C39E21BABF0FE16D22EA6929407C8DE596724C88B749B6DB5512BC7B228ADFD7CB7EA6
310
3A22397E690BA8D5D8D4E40CEC8CDA23C2C0B7D5898640101CEC9C6D331CE328CB93CAFBBAC70A642DF70DF95155945B52F08AA973C23469FD69ADEF84F7BB18F983A8F8C90E37F5D35980B2139A1C523540813E824EF83448CF7C72B598CE97D7CEEDDDDD3B6736BFBC771677EF66CE6A7E7139F7A793E9EDF2B2B3A8B624
310
0CDA13AA5F8388264EC4A0129909F3B7F5A16CEDF08128E97D680ACA4B9BE7B7B58BB638F0B00700EF36AE8B32A705658A68F83EE897FC2B41573190D1CCAF0B92D233A47CFEB019D9809933F67DD1A5467F8CF69AD9A5AE859342D45355448C64F968A371DC2D596ADC6E43D93D1B466F877A64E2893E54F23C4B40388995
310
525E5005DA3983ED45412510D3EFCA13737B3863F74BD30F2A12E5B4B5E489A025CE25500DB855B11ACE5BBFA185D35DD48D8DC3CE7DC69F2944DB42AA6F6CF09BCA622ADD08C7A36E7C6AE18000BAB08E040135C2D21C9D75B3A91B77BB746C403F38018DFE6EC939DD92F16B40BC05294B9CDA035AAD6D330AE27FE4786B
310
8E45145EA34A75BE1C263A676A35A8ACC6297337400BF16C54EF515F3F77CB77EB3583889C754FFA29081AA98E2222ADEF05DA3E63D2EDEA8B8756C05A7FB6CABC4A91CBF325398202CC952E70A008A830324BA200D5E5EF8F5F04C75DB4B0EE3340E071C98B823333B83577596BF3849B69F2085AA0FAFA212F26BEFF5877
310
FDE622B28D88A42E49E43326DA82D31E8CB006401E1DA726059ECEC168F97A6599036306A135688F9AD2E61A6EA178F4CD51974A9F2CCB9F36FE5EBD14601068D9C3BF01504B0304140006080000B670623B000000000000000000000000350000006662782F42384135303843342D343331462D343546312D424341352D35
310
32343432364645413344462F76657274696365732E62696E504B0304140006080800B670623BF270F1330600000004000000360000006662782F42384135303843342D343331462D343546312D424341352D3532343432364645413344462F747269616E676C65732E62696E636660600000504B0304140006080000B67062
310
3B000000000000000000000000370000006662782F42384135303843342D343331462D343546312D424341352D3532343432364645413344462F617474726962757465732E62696E504B0304140006080800B670623B08DA0BD19000000041010000360000006662782F42384135303843342D343331462D343546312D4243
310
41352D3532343432364645413344462F6469726563746F72792E786D6C858F410AC3201045AF22B36F53E9A60B35CBEEBAE80D244E44489C6234F4F835464A48035D0DF398FF9F8AF63D0E6CC63039F212F8F9020C7D47C6792B21C5FE7403D62A1188E2E60C98D7234A5830286103A55745067B9D86B8A3CF9C7F90C11DE6
310
07FB144396D7B6A82D282E9A152AD114D5EF2CB866EEE831B8EEA07A7BB5A8D7D61A2BAAEB7FD5F70921FF497D00504B0304140006080800B670623B3B4606F3FE000000A00100003B0000006662782F42384135303843342D343331462D343546312D424341352D3532343432364645413344462F7265736F75726365732F
310
636F72652E786D6C8D504B6E833010BD0A9A6D65B08134808CA354A427E8052C332156828DFCA97AFC9A40A576D7CDCCE87D344F8F9FBEE647F689CE6B6B7A6039850C8DB2A336530F315C4903D94970676DF82583CCC8197B5861107C72362E3BA4AC096842428D1D7107A5F71820538F74F4E0D50D6799CB1892C2DFF345
310
AABB9C306779A2934E701F5C0A906D4FD609C2A1B7D129F4BCD858C163D4E3AED163FAA9AF1A1D88F67CA98E6D35906AA82A52BFB39ABCD5CD915C86331BD86BD3B665CD8BD52C78D0F34F46E550061C419494B6843142CB0F5677F4D0D58717DA7494F26295FF31C565FCA7296A13AA728FBBD93C0896823C09C18BB5AFB4
310
9E65A6BD762BBE01504B010214000A0000080000B670623B3DEE336E79000000790000001B00000000000000000000000000000000006175746F6465736B2D64657369676E2D7061636B6167652E786D6C504B01021400140006080800B670623BD486FD9CA0000000F40000001300000000000000000000000000B2000000
310
5B436F6E74656E745F54797065735D2E786D6C504B01021400140006080800B670623B28ED286BEB0000007C010000080000000000000000000000000083010000636F72652E786D6C504B01021400140006080800B670623B55019EA25F0000007C000000070000000000000000000000000094020000636E782E786D6C50
310
4B01021400140006080800B670623B7BC41AC871010000D40300000C00000000000000000000000000180300006662782F636F72652E786D6C504B01021400140006080800B670623B70102A487D0000009D0000000B00000000000000000000000000B30400006662782F636E782E786D6C504B01021400140006080800B6
310
70623B3610CA3329010000120200003100000000000000000000000000590500006662782F42384135303843342D343331462D343546312D424341352D3532343432364645413344462F636F72652E786D6C504B01021400140006080800B670623B1B8617914E010000330300003000000000000000000000000000D10600
310
006662782F42384135303843342D343331462D343546312D424341352D3532343432364645413344462F636E782E786D6C504B01021400140006080800B670623BBFEF2E3B690500003C10000034000000000000000000000000006D0800006662782F42384135303843342D343331462D343546312D424341352D35323434
310
32364645413344462F6F626A656374732E786D6C504B01021400140006080000B670623B0000000000000000000000003500000000000000000000000000280E00006662782F42384135303843342D343331462D343546312D424341352D3532343432364645413344462F76657274696365732E62696E504B010214001400
310
06080800B670623BF270F133060000000400000036000000000000000000000000007B0E00006662782F42384135303843342D343331462D343546312D424341352D3532343432364645413344462F747269616E676C65732E62696E504B01021400140006080000B670623B00000000000000000000000037000000000000
310
00000000000000D50E00006662782F42384135303843342D343331462D343546312D424341352D3532343432364645413344462F617474726962757465732E62696E504B01021400140006080800B670623B08DA0BD1900000004101000036000000000000000000000000002A0F00006662782F42384135303843342D3433
310
31462D343546312D424341352D3532343432364645413344462F6469726563746F72792E786D6C504B01021400140006080800B670623B3B4606F3FE000000A00100003B000000000000000000000000000E1000006662782F42384135303843342D343331462D343546312D424341352D3532343432364645413344462F72
310
65736F75726365732F636F72652E786D6C504B0506000000000E000E0080040000651100000000
  0
XRECORD
  5
187
102
{ACAD_REACTORS
330
186
102
}
330
186
100
AcDbXrecord
280
     1
 70
     1
 90
429727718
  1
887D55A9-D0DD-414E-B741-A7DCD4DA2B4C
310
504B03040A0000080000B670623B3DEE336E79000000790000001B0000006175746F6465736B2D64657369676E2D7061636B6167652E786D6C3C3F786D6C2076657273696F6E3D22312E302220656E636F64696E673D227574662D3822203F3E3C666F726D6174733E3C666F726D61743E687474703A2F2F736368656D612E
310
6175746F6465736B2E636F6D2F64657369676E2D7061636B6167652F323030393C2F666F726D61743E3C2F666F726D6174733E504B0304140006080800B670623BD486FD9CA0000000F4000000130000005B436F6E74656E745F54797065735D2E786D6C7D8EC10E82300C865F65E91D8A1E8C310C0EEA1BF002731658846E
310
D98AC1B77784ABF1D8FE5FBFBF75BBCE937A534CCEB38643598122B6FEE978D0B0485F9C41B54DDD7D022595594E1A469170414C76A4D9A4D207E29CF43ECE46F218070CC6BECC4078ACAA135ACF422C856C0E68EA1BF5669944DDD7BCDE7B1F8E415D77AECB980613C2E4AC91FC167A2B244592486606FC29C8FD7F045B9A
310
EF7053A7E60B504B0304140006080800B670623BBC1638F5EC0000007C01000008000000636F72652E786D6C8D90416EC3201045AF82665B61836BE2D8C24471DB9CA01740401C94182C03558F5F9C3852BBEB6A467FFE9B197D7EF89E6EE8CB2CC17AD7032D0820E394D7D68D3DA478C67B4007C117EFE32F1B202727D3C3
310
2A83E0E3E2D3BC49CABB685CCCAAF3DA6CA20CC14440EA969B1E82BA98491632C5EC08D76296EA2A4753D06797E194AC468F2356E77DF66CCD02825543D50CACC62D39ED70FDC68EB8FD68F6F8787A6784342D1DDA1D2F5758F068A7E77DB518198D065111D2624A31A93E69DD11D6D5EC85EC3B4278B9DAFF4069D6FF8492
310
75F1B5DADE7D600104CD8FDC0782976B16B9DC83CA75CD4DFC00504B0304140006080800B670623B55019EA25F0000007C00000007000000636E782E786D6C4DCB3B0E80201045D1AD90E915ED2CF8AC45050C11660C8261F98AB1B07AC9C97D42D718D865D3E909258CFD00CCE24AC6E326A164D74DC0B4128928FF326038
310
472BA13128B1252AC747C6BAB984FC68F0B87FE8960A5C09FE86CFB69FBA01504B0304140006080800B670623B3586FFB671010000D40300000C0000006662782F636F72652E786D6CC553ED6E8320147D15C2DF4541A76D6D90A6DDD627D80B50A4CE54C120983EFEAE1F4DD7A55BBA5FF3879273EEE59E7310B6393735EA
310
95ED2AA3731C851423A5A5292A5DE6D8BB63B0C268C39935C67D29C3488B46E578803167A535BE9D2169B453DA01AA4DA16650749D7218C91A1639EEE4876A4428BC838AEE14B6429E44A9C228041AEA38EB9C0501681A32BC313F1ECE8C4C3867DE57C5CC56054CAB8E95B298A7F12E5EEED224C8E87E11242FE936C8DE96
310
AB60BB7F4D295D66D12E5B30323473E6AAE6A24E5A259C2A308F29CD82280A68FC1E256B9AAE93F489AED694323294DF34F9B678B0C957DA3DC7B3DCA9ADC33C022123F1CD2D44E450277AD04338234388F01913BE0D1A0281909D38D4171F27807A259DB1093085F157AA17B557309586747CD0CF0B46A64E983A6E0EAEEF
310
CE881F9EF1FB8E70D44297604238581EBC1B74B249C31C5AAB6CD0BB33D2C636A27ECCC62F0EFF445DC5DF95244D6DEC7F2922F30191F9F720C37DE49F504B0304140006080800B670623B4220A0FF7D0000009D0000000B0000006662782F636E782E786D6C4DCCD10A83201886E15B91FFDCE542CB0335D0EC3E6259C84A
310
C3E9D8E5AF46073BFAE0E1E315DD675BD1DBA5978F41C2FD4600B9F088930F8B849267CC01754AA418F3DF0D50183727E164506249B1EC174D6E1ECB9A0F5D7D785E68DB8151CD286E5A5363CA6B8A39E90D36D40E96B086F55A43A544F52B1D7B86D517504B0304140006080800B670623B2FA3FEDE290100001202000031
310
0000006662782F45374635344235342D363743322D343832342D383044432D4334454645303536354442422F636F72652E786D6C8D515B6EC32010BC0AE22B55850D2E386E848994D7097A0117488A1283C5A3CAF10BB523B57FF961D1ECCCECC0F2ED7DBC816FED8371B687A4C210682B9D32F6D2C314CFA883602BB8772E
310
FEA141608751F7B0C050F08B77695A20E96CD43666D43AA5177008414708E42D5F7A18E4971E876A483133C2B59A06791D2EBA22556E679EE021FA1C00CC43CA09C5717D6274C7286AD7FB06D1AEA1A8C3873DDAD3E3E98859CB0EBB1DAF67A1E02919B5C88DCA71CCD968FFAC49110B1ECDF8882FBD1EA256503418BF2342
310
106E3E08DD60B6A1EC15771B8C795DE8FF4469524F8A92B1F1AD59E2CEB20005E1F5DC105CB9F4797B84D1F7C9F908CABC55D0F2050A5C61CC1AD2F27A26E6E767C7962E8E213A9FBF7775FDCC5CC266DB960A5E970DE5F2BBBE5CCB36C50F504B0304140006080800B670623B1B8617914E01000033030000300000006662
310
782F45374635344235342D363743322D343832342D383044432D4334454645303536354442422F636E782E786D6CD593C16EC32010447F0571AD6CE3D489D20813A9877E410FBD62D82434182CC055F3F75D1292E692438FBD206B7698593D61BEFD1E2DF982108D773D6D6B460938E5B571FB9ECE6957AD29D90A1EBC4F77
310
364A9C1CA1A759A682EF839FA72269D8C9D92654AD71C72206887E0E0A22CAF926B15E498B01E0AA19451807D01A34B919F16B070157417138917400F2F6FA41FCF0092A45DEE414C19BDC21783E4BD39D891265658C3D8DEA00A3ACE59CBC8678ACB54CB26EEB6BD7839D7E9348BE70AD9C8321B9BCA7F9A4A26C542347DE
310
E050F09802D22BA6749A800A394DD62899107273365E3C82CFC6A55557BC06C10774B7ABE7AEC3B0F34CF06446280E154026D0542C187BA9DAB6628BF7B6DBB0E5A65B3EB1F58631DE64BBE083F7B65CC218087E22CABB042E51D1F2268F1FE12B3EA24D40D63E9CFE00120194D60B9D5BC67FE6D39CDF37E20AF817881F50
310
4B0304140006080800B670623B29652116630500003C100000340000006662782F45374635344235342D363743322D343832342D383044432D4334454645303536354442422F6F626A656374732E786D6CAD575D739B3814FD2B0CFB0C989834C90EA1639B24E3E9A6EDD4D3CE3E64C623834CD8006224913AFDF57B040203
310
B65BEF871F0C12D2FD3CF7E8CA7FBFCB33E3957291B2E2D674ED8969D02262715A24B76625B7D6B569BC0F7CCE98EC2D338D82E4F4D654D366E0279C55A59E8AE99654991CCDDECFFF3444440B6A1A514684B83545F44C7362934AB2988A173B2692D8C97667BB76B3702836E1A47C1E092D09A78584A5982F20C5688C7287
310
C389E904BEA3BE07BEFAD7ABA6A75739B53F43FD69212429A20365233153D70BEF2E2E6FAC4BCF9B5ADEBB0BD79ADFCF43CBBD9A4E16EF168B9BD9DD0D140BC921495BC2E9D60C1E101B9E46BED37CEA2CD6861F3329624541A3DA7F7858DBAC25C6B4A4458C3CA654405BCFEBC970E8AAD8F43E4FD558ABEC4F9FE7557F47
310
4F506B7BFBEC5BCA367FC105710E2AB8A00A554D7CB4A30DFE26FBA86D18CBF4B75418399194A72433B274C3097F33032C554B027F2046A1932B842B0FCCC0DDCBEBDB8AD2F835768F59B9ADB24C41D30C6A64AF817F2A456D59FA83F2E3DA60137255A585BCD60EC9B7929AC18DEFD49381AF1ED30BFDB109A4B1CD488294
310
C3CDE6EBC8D185AABD6568061FEE37BB95AAC7E3CA4BCE4ACAA5820FA0D526AE7DAA2869B5EE5999531BE0CC20E6FBA07C41E43FA27CF7A6206F3CDD793B4F6B919C1462CB788EDCD893FA674CDA17AB7B3B7C019F8D561FAEE966FED562DFE98C1D12C6A9FC015C2A35D7FF3D7FC398F591DA4B5FE0BFA2C0189FEA50AE22
310
92817A1ED3020951A03432862970F976B33383259812CC8E5D240BBA801CBCF8CE2BBEE3BF910DB6AAD5F79E05123AE2DB33981FB1ACCB02B69D00CB014FD68AB573A7627EF9BFD4CC2C5C7D58557C4B22FAA88925A4DBB44825CECE3D78FB060D1231F0E885BE7D673C86A3874958F593906B5502D1563157814FDAC3420D
310
F69A070A22EC4B98E23CFF171A1E5311D12C23056555ABA53B8614563B92D17D02AAB009E8F46284624E5F53D5490C560CCCC2591FF1B45421EB0EBD8EA7ED13BE7C5D7E0428CD60FEF60779EB13E6664FF711CB185F6FDED60D139A001FF60CD1FD6D086F1D51474901E26B2CB794A343BC8ED3EDB612E0DD2351FCB65CF4
310
33D511C9E14B5B40ADC6A6263DB0336A8F700DDF56271A024E70B0B3629DE21847591E55DED73D56206AB927E46FAABC5C939C55853C274C93D69FD6FA4E78BF8B11DF898C9ECD60553FAD39283BA6F18984AA23E8884F83F45C5F5F859797B31B2B9C84A1E5B9DE9D35BFF25C6B76152E422F9C5DCC3D847F5801ED09D5AF
310
41441327A25FF15487F9EB725FB666F048A4701E9A827292E6F97569A32DF61DEC01C0BB8DCBBCCC684E0B49147C1FD54BF685A0AB18C868E6973949E819523E3DAC463660E68C7D9F55A9D1EFA3BD7A76A16AE1A810F95CE59B82A4D968A376DC2E8B44BBDD86B27B368CDE0ED548C7137DA860591A83706223A12CA712B4
310
7306DBF39C0A20A6DF95C7FAF670C6EED7A61F946493D1D6926782963813403548A78AE470DEF80D2D9CEAA26E4D1C76F60BFE74219A06527D6B82DF641A51616F703CAAC6A7160E08A00BEB4810A0274592A1B36E3675E36E978A0DE80727A0D6DF2D39A75BD27E0D8837276589537B40ABB56D5A41F48F1C6FCD3188C4EB
310
A6929D2FFB89CE995A4D00AE813BDD032DC48B56BD437DFDDC2DD7AED70C2272D63DE9A72068A45A92F0A4BE17A8A06B9366E16707AD80B1FC649459952097E74BB23805982B55E0401150A165964402AA8BDF9F3E7386BB686EDCA780C0D382E5392BF460A6EFB2C6EA1937D3F809B440D5F5435C4C5CF7A9EEFAF54564BD
310
2182DA24162F98680B4E7930C21A0079709CEAEB99A372305ABE0C0D7D6078105A83F6A0296DAEE1068A47DD1C55A9F4C9B2FC69E3EFD44B81028E963DF81B504B0304140006080000B670623B000000000000000000000000350000006662782F45374635344235342D363743322D343832342D383044432D433445464530
310
3536354442422F76657274696365732E62696E504B0304140006080800B670623BF270F1330600000004000000360000006662782F45374635344235342D363743322D343832342D383044432D4334454645303536354442422F747269616E676C65732E62696E636660600000504B0304140006080000B670623B00000000
310
0000000000000000370000006662782F45374635344235342D363743322D343832342D383044432D4334454645303536354442422F617474726962757465732E62696E504B0304140006080800B670623B08DA0BD19000000041010000360000006662782F45374635344235342D363743322D343832342D383044432D4334
310
454645303536354442422F6469726563746F72792E786D6C858F410AC3201045AF22B36F53E9A60B35CBEEBAE80D244E44489C6234F4F835464A48035D0DF398FF9F8AF63D0E6CC63039F212F8F9020C7D47C6792B21C5FE7403D62A1188E2E60C98D7234A5830286103A55745067B9D86B8A3CF9C7F90C11DE607FB144396
310
D7B6A82D282E9A152AD114D5EF2CB866EEE831B8EEA07A7BB5A8D7D61A2BAAEB7FD5F70921FF497D00504B0304140006080800B670623B6378F24DFF000000A00100003B0000006662782F45374635344235342D363743322D343832342D383044432D4334454645303536354442422F7265736F75726365732F636F72652E
310
786D6C8D504B6E833010BD0A9A6D65B0094E42641C85B639412F6099496225D8C89FAAC7AF09546A77DDCC8CDE47F3F4C4F16B7C149FE88371B603565228D06A37187BED20C50BD9437194C23B177FC9A0B06AC40E6618A4B87A97A615D2CE46B431A3D60DB8822A048C50E8473E3A08FA86A32A558A5911EEE5A4F45D5DB1
310
6465A6B34E8A107D0E502C4FE609D26370C96B0CA25A58295232C3AA3143FE692E063D485EF7F5AEE71BD2D2F39634AFFC44DAF7DD9E9CCE6F9CD25DCBFA762BAAD92C4534E34F46ED51451C40D694B6843142EB0FD61C283F34FC85EE0F948A6A96FF31A569F8A729191B37F51A77B105902C0779125254735F793DCBCC7B
310
EE567E03504B010214000A0000080000B670623B3DEE336E79000000790000001B00000000000000000000000000000000006175746F6465736B2D64657369676E2D7061636B6167652E786D6C504B01021400140006080800B670623BD486FD9CA0000000F40000001300000000000000000000000000B20000005B436F6E
310
74656E745F54797065735D2E786D6C504B01021400140006080800B670623BBC1638F5EC0000007C010000080000000000000000000000000083010000636F72652E786D6C504B01021400140006080800B670623B55019EA25F0000007C000000070000000000000000000000000095020000636E782E786D6C504B010214
310
00140006080800B670623B3586FFB671010000D40300000C00000000000000000000000000190300006662782F636F72652E786D6C504B01021400140006080800B670623B4220A0FF7D0000009D0000000B00000000000000000000000000B40400006662782F636E782E786D6C504B01021400140006080800B670623B2F
310
A3FEDE290100001202000031000000000000000000000000005A0500006662782F45374635344235342D363743322D343832342D383044432D4334454645303536354442422F636F72652E786D6C504B01021400140006080800B670623B1B8617914E010000330300003000000000000000000000000000D2060000666278
310
2F45374635344235342D363743322D343832342D383044432D4334454645303536354442422F636E782E786D6C504B01021400140006080800B670623B29652116630500003C10000034000000000000000000000000006E0800006662782F45374635344235342D363743322D343832342D383044432D4334454645303536
310
354442422F6F626A656374732E786D6C504B01021400140006080000B670623B0000000000000000000000003500000000000000000000000000230E00006662782F45374635344235342D363743322D343832342D383044432D4334454645303536354442422F76657274696365732E62696E504B01021400140006080800
310
B670623BF270F13306000000040000003600000000000000000000000000760E00006662782F45374635344235342D363743322D343832342D383044432D4334454645303536354442422F747269616E676C65732E62696E504B01021400140006080000B670623B0000000000000000000000003700000000000000000000
310
000000D00E00006662782F45374635344235342D363743322D343832342D383044432D4334454645303536354442422F617474726962757465732E62696E504B01021400140006080800B670623B08DA0BD190000000410100003600000000000000000000000000250F00006662782F45374635344235342D363743322D34
310
3832342D383044432D4334454645303536354442422F6469726563746F72792E786D6C504B01021400140006080800B670623B6378F24DFF000000A00100003B00000000000000000000000000091000006662782F45374635344235342D363743322D343832342D383044432D4334454645303536354442422F7265736F75
310
726365732F636F72652E786D6C504B0506000000000E000E0080040000611100000000
  0
XRECORD
  5
112
102
{ACAD_REACTORS
330
110
102
}
330
110
100
AcDbXrecord
280
     1
270
     1
271
     1
  0
XRECORD
  5
111
102
{ACAD_REACTORS
330
110
102
}
330
110
100
AcDbXrecord
280
     1
270
     1
271
     1
  0
XRECORD
  5
18A
102
{ACAD_REACTORS
330
110
102
}
330
110
100
AcDbXrecord
280
     1
 70
     0
 90
1778669749
  1
9BF507EE-FAF7-4A99-A33D-4EE51894BC40
310
504B03040A0000080000B670623B3DEE336E79000000790000001B0000006175746F6465736B2D64657369676E2D7061636B6167652E786D6C3C3F786D6C2076657273696F6E3D22312E302220656E636F64696E673D227574662D3822203F3E3C666F726D6174733E3C666F726D61743E687474703A2F2F736368656D612E
310
6175746F6465736B2E636F6D2F64657369676E2D7061636B6167652F323030393C2F666F726D61743E3C2F666F726D6174733E504B0304140006080800B670623BD486FD9CA0000000F4000000130000005B436F6E74656E745F54797065735D2E786D6C7D8EC10E82300C865F65E91D8A1E8C310C0EEA1BF002731658846E
310
D98AC1B77784ABF1D8FE5FBFBF75BBCE937A534CCEB38643598122B6FEE978D0B0485F9C41B54DDD7D022595594E1A469170414C76A4D9A4D207E29CF43ECE46F218070CC6BECC4078ACAA135ACF422C856C0E68EA1BF5669944DDD7BCDE7B1F8E415D77AECB980613C2E4AC91FC167A2B244592486606FC29C8FD7F045B9A
310
EF7053A7E60B504B0304140006080800B670623BCA089DFFEC0000007C01000008000000636F72652E786D6C8D90416E83301045AF62CDB632D8402020E32882F604BD80653BC44AB011B6AB1EBF262152BBEB6A467FFE9B197D76FA9EEFE84BAFDE38DB03CD08206DA553C64E3DC470C1474027CE56E7C22F1B202B66DDC3
310
260367D3EAE2B24BD2D9A06D48AA754AEFA2F05E0740F29E9A1EBCBCEA59642286E4F0B76C11F226269DD15797E0188D42CF2346A57DE662F40ABCAEC77628C6120F654571D50C04B7F5B9C1E3997CD4F550BE3745C3F20DE62C98F9755FAE5A04AD801784B498524C8A4F5A75E4D055873772EC0861F966FF03C545FD138A
310
C686B2D8DF7D621E384D8F3C069CE55B16A93C824A75CB8DFF00504B0304140006080800B670623B55019EA25F0000007C00000007000000636E782E786D6C4DCB3B0E80201045D1AD90E915ED2CF8AC45050C11660C8261F98AB1B07AC9C97D42D718D865D3E909258CFD00CCE24AC6E326A164D74DC0B4128928FF326038
310
472BA13128B1252AC747C6BAB984FC68F0B87FE8960A5C09FE86CFB69FBA01504B0304140006080800B670623B68FC0B7272010000D40300000C0000006662782F636F72652E786D6CC5535B6E833010BC8AE5DF0A6C1E8124328E22D29EA01770C0A128602363A31CBFCB234A53A555FA553EC09AD9F5CE8C31DB5DDA060D
310
D2F4B556190E7C8A9154852E6B5565D8D993B7C668C799D1DA7E29C3488956667884316795D1AE5BA0422B2B950554E9522EA0E87B69312A1A5864B82F3E642B7CE12C54F467BF13C55954D20F7CA0A18EB3DE1A1080E621E31BF3D3F1C2C88C73E65C5D2E6C5DC2B4FA544B8379921C36797888BC3C8A032F4E73EA6D927D
310
EA1DF6F42D49F2E8350D5346C666CE6CDD5ED515460A2B4BCC434A375E1078347C0FE22D5D6DE3D50B5D6F2965642CBF6B725DF96493AB958DC245EEDCD6631E809089F8E61622B2A81703E8219C913144F84C09DF070D8140C8561C9BAB8F3340832CAC363130A576376A108D933095FA747AD0CF0B46E64E983A6D0EAE1F
310
CE089F9EF1FB8E70D44255604258581E9D1D75B259C3125A278D37D80B52DAB4A279CEC62F0EFF44DDC43F9454E8469BFF5244960322CBEF41C6FBC83F01504B0304140006080800B670623B0F71DDB67E0000009D0000000B0000006662782F636E782E786D6C4DCCD10A83201886E15B91FFDCA54DB73F502386BB8F5816
310
32D3703976F9ABD1C18E3E78F87855FB990379BBFCF2296AE02706C4C5471A7C9C349475A408A4352AA7B4FEDD80C47E761A7606A3A69CCA72D0E0C6BE8475D3E0E3F3409428EA6B27A84079A782899AA2EC1A7AE3ECCC2FD858CB2D544655BFD2B67BD87C01504B0304140006080800B670623BE134B4FB28010000120200
310
00310000006662782F38353834323741342D343835462D343034322D383541392D4331303331363839454531452F636F72652E786D6C8D515B6EC32010BC0AE22B55850D0EA424C24451959EA0172086A42831583CAA1CBF503B52FB971F16CDCECC0EACD8DFC71BF836215AEF7A481A0C817183D7D65D7A98D3197108F652
310
04EFD31F1A044E8DA6871586525C82CFD3020DDE25E352419DD76601558C264130DCCAA58771F832A36A544E8511AFCDA486ABBA988634A55D7852C4144A00300FA927949C71DABD1D28A29C7D208A6987383B6CD13BC16BB2E1DBE3911C453B0BA5C8D9EA456E758963CFD684674DAA588A64C747FC2118958C86B2C3788B
310
0841B8FB247487D98EB257CC77188BB6D2FF89F2A49F1465EBD2BA5BE2CEB2082511EDDC9042FB7CBA3DC298FBE4430275DE2A9AE1054ADC60CC08E3A29D89E5F9C5714317C7987C28DFBBBA9E0A97B0D97643A568EB864AF95D5FA9759BF207504B0304140006080800B670623B1B8617914E010000330300003000000066
310
62782F38353834323741342D343835462D343034322D383541392D4331303331363839454531452F636E782E786D6CD593C16EC32010447F0571AD6CE3D489D20813A9877E410FBD62D82434182CC055F3F75D1292E692438FBD206B7698593D61BEFD1E2DF982108D773D6D6B460938E5B571FB9ECE6957AD29D90A1EBC4F
310
77364A9C1CA1A759A682EF839FA72269D8C9D92654AD71C72206887E0E0A22CAF926B15E498B01E0AA19451807D01A34B919F16B070157417138917400F2F6FA41FCF0092A45DEE414C19BDC21783E4BD39D891265658C3D8DEA00A3ACE59CBC8678ACB54CB26EEB6BD7839D7E9348BE70AD9C8321B9BCA7F9A4A26C542347
310
DEE050F09802D22BA6749A800A394DD62899107273365E3C82CFC6A55557BC06C10774B7ABE7AEC3B0F34CF06446280E154026D0542C187BA9DAB6628BF7B6DBB0E5A65B3EB1F58631DE64BBE083F7B65CC218087E22CABB042E51D1F2268F1FE12B3EA24D40D63E9CFE00120194D60B9D5BC67FE6D39CDF37E20AF817881F
310
504B0304140006080800B670623B5933D422630500003B100000340000006662782F38353834323741342D343835462D343034322D383541392D4331303331363839454531452F6F626A656374732E786D6CAD575B6FA33814FE2B887D0642934E9B156594264D158D3A534DD4D13E548A0C38942D60649B4EBABF7E3F8321
310
40924EF6928780CDF1B97EE762EFF32E4B8D37CA45C2F21BD3B547A641F39045491EDF98A5DC5AD7A6F1D9F73863B243661A39C9E88DA9B64DDF8B392B0BBD15D12D295339D85DDEFE618890E6D434C2940871638AF08566C426A5641115AF764424B1E3EDCE76ED9AB0CF36E6A47819302D08A7B984A6D8CFC1C5A89572FB
310
CB91E9F89EA3BEFB9EFAD754E3D3544E654F5F7E920B49F2F040D880CDD89D2CEE2E2EA7D6E56432B6269F2E5CEB7679BBB0DCABF168FE693E9FCEEEA6102C240727AD09A75BD3BF876F78127A4EFDA9D5582B7E4CA590E5390D2BFB6161A5B3E618D182E611E2985001691DAB47FDA5AB7CD3F93C566B2DB2BB7D9E55DD13
310
1D468DEECDB3AB290BFE8409E21C54704115AA6AFF68436BFC8DF65E0B184BF5B74418199194272435D224E084BF9B3E481589EFF5D828747285706581E9BB7B7E5D5D911ABFC6EE312DB7659A2A689A7E85EC0DF04FA5A8344BFEA2FCB834E8845895492EAFB541F2BDA0A63FF59C6AD3F7D4637CA13FD68E34B629891172
310
98597F1D183A57B9B75A98FE9765B05BAB7C3C2EBCE0ACA05C2AF8005A4DE09AA7F29216EB9E15397500C6F47CBE77CA7778FE2BD277AF0AE2C693DD6437D1522427B9D8329E2136F6A8FA19A3E6C56ADF0E5F50CF06D48734EDCEBF22F69C56D97EC138153F804B85E6FABFC7AFEFB32E523BE1F3BD372418E363EDCA7548
310
52949E8724474014288D94610BB57C1BEC4C7F854A89CA8E5324F55B871CBC78CE1BBEE3BFE68D6A5589EF3C730474506FCFA8FCF0659516D0ED04580EEA6425581B77CAE797FF4BCECC16EB2FEB926F49481F746159D06D922712BD730FDEAE42BD40F42C7AA5EF3F198F60E86110D6DD20645A9480B795CF95E3E3A659A8
310
C55E724F408873315335CFFB8584874484344D494E59D94869DB90C26A5B64F49C802CAC1D3ABE18A098D3B7444D123D8A9E5AE8F5214F0AE5B2B6E9B575DA3E61CBD3EA2B4009FA940524DD1305FB6A1FB294F14DF0BEA90BA109ECE1481FDC3FFAE8D60E75141700BE82725371B4873751B2DD960265F788137FACE6DD40
310
B575E4F0A5C99F46629D92131467A41EE11ABD8D4CCC039CA0AFB37C93A08B232B8F0AEFCA1E0A1015DF13FC83322B362463652ECF71D3A8B1A7D1BE65DE1D62C44F22C317D35F574FEB16153BA2D13E543D10A80E74C4A65E78A6B7CBCBD1D5DD9DB59C2DAFACC96C3AB566E3F1C29ADCDD5DBAD7D3C9ED7C822ED74F80A6
310
41755310DE4443F44A9E68373FADF6596BFA0F440AE7BECE2727AE9F4F2B1B53B1E7E00CF0DD1E5C65454A339A4BA2D0FBA05ED2EF0443458F47BDBFCA484CCFE0F2ED7E3DD0013B679C7B5499467F0ECEEADDB9CA85A34CE44B99053949D2C1416DB85DE4B136BB7165FBAC0B7AB3542BED4F8CA182A549847A1319316519
310
95A83A67147B9E5101C47487F2485F1ECE38FD568F839204296D3479219888530154036E6528FBFBC66F98E0D4107563A2D7D9AFF8D389681A08F58D89F22693900A3B407754734FC51C10C010D6D640809EE4718AC1BA3ED4AEDB53CA37283F68805A7E4B72CEB0A4EDEAD5DD8C14059A76AFAA56BA6901E13F32BC51C720
310
12AF41295B5BF61BAD3195181FB506E6B40F4C10AF5AF40EF9F5B159AE5DD1F43C72D635E94310D45C2D49785C5D0B94D3B54AB3C5A38349C0587D338AB48C11CBF339599C02CCA54A70A008A8D03C0B2201D5F9EFCF8F9CE12A9A19CB0410789EB32C63B95ECCF455D658BFE0621A3DA32C5075FB101723D77DAE867E7D0F
310
D90444509B44E2151B4DC2290B065803200FBAA9BE9D392A0603F2D5C2D00D6302A615680F66D2FA166E2079D4C551A54AB758161FCEFD4E450A14704CECFEDF504B0304140006080000B670623B000000000000000000000000350000006662782F38353834323741342D343835462D343034322D383541392D4331303331
310
363839454531452F76657274696365732E62696E504B0304140006080800B670623BF270F1330600000004000000360000006662782F38353834323741342D343835462D343034322D383541392D4331303331363839454531452F747269616E676C65732E62696E636660600000504B0304140006080000B670623B000000
310
000000000000000000370000006662782F38353834323741342D343835462D343034322D383541392D4331303331363839454531452F617474726962757465732E62696E504B0304140006080800B670623B08DA0BD19000000041010000360000006662782F38353834323741342D343835462D343034322D383541392D43
310
31303331363839454531452F6469726563746F72792E786D6C858F410AC3201045AF22B36F53E9A60B35CBEEBAE80D244E44489C6234F4F835464A48035D0DF398FF9F8AF63D0E6CC63039F212F8F9020C7D47C6792B21C5FE7403D62A1188E2E60C98D7234A5830286103A55745067B9D86B8A3CF9C7F90C11DE607FB1443
310
96D7B6A82D282E9A152AD114D5EF2CB866EEE831B8EEA07A7BB5A8D7D61A2BAAEB7FD5F70921FF497D00504B0304140006080800B670623BD9A3B367FE000000A00100003B0000006662782F38353834323741342D343835462D343034322D383541392D4331303331363839454531452F7265736F75726365732F636F7265
310
2E786D6C8D504B6E833010BD0A9A6D65B01D0201194711694FD00B586642AD043BF2A7EAF16B122AB5BB6E6646EFA3797AE2F8B5DC8A4FF4C1383B002B291468B59B8C9D0748F1420E501CA5F0CEC55F3228AC5A708015062966EFD27D83B4B3116DCCA875136EA00A012314FA968F0182FEC045952AC5AC08D7F2AEF455CD
310
58B232D3592745883E07289E4FD609D26370C96B0CA27AB252A464A64D63A6FCD35C0C7A904D73EE467EE664DCD58CD4ED4849D79C5A723ED1B7A61977AF2D6F45B59AA58866F9C9A83DAA8813484E6947182394BFB3BAA7FBBEDEBFD0434FA9A856F91F53BA4FFF342563E38E6F719FB60092E5200F428A6AED2BAF479979
310
AFDDCA6F504B010214000A0000080000B670623B3DEE336E79000000790000001B00000000000000000000000000000000006175746F6465736B2D64657369676E2D7061636B6167652E786D6C504B01021400140006080800B670623BD486FD9CA0000000F40000001300000000000000000000000000B20000005B436F6E
310
74656E745F54797065735D2E786D6C504B01021400140006080800B670623BCA089DFFEC0000007C010000080000000000000000000000000083010000636F72652E786D6C504B01021400140006080800B670623B55019EA25F0000007C000000070000000000000000000000000095020000636E782E786D6C504B010214
310
00140006080800B670623B68FC0B7272010000D40300000C00000000000000000000000000190300006662782F636F72652E786D6C504B01021400140006080800B670623B0F71DDB67E0000009D0000000B00000000000000000000000000B50400006662782F636E782E786D6C504B01021400140006080800B670623BE1
310
34B4FB280100001202000031000000000000000000000000005C0500006662782F38353834323741342D343835462D343034322D383541392D4331303331363839454531452F636F72652E786D6C504B01021400140006080800B670623B1B8617914E010000330300003000000000000000000000000000D3060000666278
310
2F38353834323741342D343835462D343034322D383541392D4331303331363839454531452F636E782E786D6C504B01021400140006080800B670623B5933D422630500003B10000034000000000000000000000000006F0800006662782F38353834323741342D343835462D343034322D383541392D4331303331363839
310
454531452F6F626A656374732E786D6C504B01021400140006080000B670623B0000000000000000000000003500000000000000000000000000240E00006662782F38353834323741342D343835462D343034322D383541392D4331303331363839454531452F76657274696365732E62696E504B01021400140006080800
310
B670623BF270F13306000000040000003600000000000000000000000000770E00006662782F38353834323741342D343835462D343034322D383541392D4331303331363839454531452F747269616E676C65732E62696E504B01021400140006080000B670623B0000000000000000000000003700000000000000000000
310
000000D10E00006662782F38353834323741342D343835462D343034322D383541392D4331303331363839454531452F617474726962757465732E62696E504B01021400140006080800B670623B08DA0BD190000000410100003600000000000000000000000000260F00006662782F38353834323741342D343835462D34
310
3034322D383541392D4331303331363839454531452F6469726563746F72792E786D6C504B01021400140006080800B670623BD9A3B367FE000000A00100003B000000000000000000000000000A1000006662782F38353834323741342D343835462D343034322D383541392D4331303331363839454531452F7265736F75
310
726365732F636F72652E786D6C504B0506000000000E000E0080040000611100000000
  0
XRECORD
  5
113
102
{ACAD_REACTORS
330
110
102
}
330
110
100
AcDbXrecord
280
     1
270
     1
271
     1
  0
XRECORD
  5
114
102
{ACAD_REACTORS
330
110
102
}
330
110
100
AcDbXrecord
280
     1
270
     1
271
     1
  0
CELLSTYLEMAP
  5
23E52
102
{ACAD_REACTORS
330
104
102
}
330
104
100
AcDbCellStyleMap
 90
        3
300
CELLSTYLE
  1
TABLEFORMAT_BEGIN
 90
        5
170
     1
 91
        0
 92
    32768
 62
   257
 93
        1
300
CONTENTFORMAT
  1
CONTENTFORMAT_BEGIN
 90
        0
 91
        0
 92
      512
 93
        0
300

 40
0.0
140
1.0
 94
        5
 62
     0
340
11
144
0.25
309
CONTENTFORMAT_END
171
     1
301
MARGIN
  1
CELLMARGIN_BEGIN
 40
0.06
 40
0.06
 40
0.06
 40
0.06
 40
0.18
 40
0.18
309
CELLMARGIN_END
 94
        6
 95
        1
302
GRIDFORMAT
  1
GRIDFORMAT_BEGIN
 90
        0
 91
        1
 62
     0
 92
       -2
340
0
 93
        0
 40
0.045
309
GRIDFORMAT_END
 95
        2
302
GRIDFORMAT
  1
GRIDFORMAT_BEGIN
 90
        0
 91
        1
 62
     0
 92
       -2
340
0
 93
        0
 40
0.045
309
GRIDFORMAT_END
 95
        4
302
GRIDFORMAT
  1
GRIDFORMAT_BEGIN
 90
        0
 91
        1
 62
     0
 92
       -2
340
0
 93
        0
 40
0.045
309
GRIDFORMAT_END
 95
        8
302
GRIDFORMAT
  1
GRIDFORMAT_BEGIN
 90
        0
 91
        1
 62
     0
 92
       -2
340
0
 93
        0
 40
0.045
309
GRIDFORMAT_END
 95
       16
302
GRIDFORMAT
  1
GRIDFORMAT_BEGIN
 90
        0
 91
        1
 62
     0
 92
       -2
340
0
 93
        0
 40
0.045
309
GRIDFORMAT_END
 95
       32
302
GRIDFORMAT
  1
GRIDFORMAT_BEGIN
 90
        0
 91
        1
 62
     0
 92
       -2
340
0
 93
        0
 40
0.045
309
GRIDFORMAT_END
309
TABLEFORMAT_END
  1
CELLSTYLE_BEGIN
 90
        1
 91
        1
300
_TITLE
309
CELLSTYLE_END
300
CELLSTYLE
  1
TABLEFORMAT_BEGIN
 90
        5
170
     1
 91
        0
 92
        0
 62
   257
 93
        1
300
CONTENTFORMAT
  1
CONTENTFORMAT_BEGIN
 90
        0
 91
        0
 92
      512
 93
        0
300

 40
0.0
140
1.0
 94
        5
 62
     0
340
11
144
0.18
309
CONTENTFORMAT_END
171
     1
301
MARGIN
  1
CELLMARGIN_BEGIN
 40
0.06
 40
0.06
 40
0.06
 40
0.06
 40
0.18
 40
0.18
309
CELLMARGIN_END
 94
        6
 95
        1
302
GRIDFORMAT
  1
GRIDFORMAT_BEGIN
 90
        0
 91
        1
 62
     0
 92
       -2
340
0
 93
        0
 40
0.045
309
GRIDFORMAT_END
 95
        2
302
GRIDFORMAT
  1
GRIDFORMAT_BEGIN
 90
        0
 91
        1
 62
     0
 92
       -2
340
0
 93
        0
 40
0.045
309
GRIDFORMAT_END
 95
        4
302
GRIDFORMAT
  1
GRIDFORMAT_BEGIN
 90
        0
 91
        1
 62
     0
 92
       -2
340
0
 93
        0
 40
0.045
309
GRIDFORMAT_END
 95
        8
302
GRIDFORMAT
  1
GRIDFORMAT_BEGIN
 90
        0
 91
        1
 62
     0
 92
       -2
340
0
 93
        0
 40
0.045
309
GRIDFORMAT_END
 95
       16
302
GRIDFORMAT
  1
GRIDFORMAT_BEGIN
 90
        0
 91
        1
 62
     0
 92
       -2
340
0
 93
        0
 40
0.045
309
GRIDFORMAT_END
 95
       32
302
GRIDFORMAT
  1
GRIDFORMAT_BEGIN
 90
        0
 91
        1
 62
     0
 92
       -2
340
0
 93
        0
 40
0.045
309
GRIDFORMAT_END
309
TABLEFORMAT_END
  1
CELLSTYLE_BEGIN
 90
        2
 91
        1
300
_HEADER
309
CELLSTYLE_END
300
CELLSTYLE
  1
TABLEFORMAT_BEGIN
 90
        5
170
     1
 91
        0
 92
        0
 62
   257
 93
        1
300
CONTENTFORMAT
  1
CONTENTFORMAT_BEGIN
 90
        0
 91
        0
 92
      512
 93
        0
300

 40
0.0
140
1.0
 94
        2
 62
     0
340
11
144
0.18
309
CONTENTFORMAT_END
171
     1
301
MARGIN
  1
CELLMARGIN_BEGIN
 40
0.06
 40
0.06
 40
0.06
 40
0.06
 40
0.18
 40
0.18
309
CELLMARGIN_END
 94
        6
 95
        1
302
GRIDFORMAT
  1
GRIDFORMAT_BEGIN
 90
        0
 91
        1
 62
     0
 92
       -2
340
0
 93
        0
 40
0.045
309
GRIDFORMAT_END
 95
        2
302
GRIDFORMAT
  1
GRIDFORMAT_BEGIN
 90
        0
 91
        1
 62
     0
 92
       -2
340
0
 93
        0
 40
0.045
309
GRIDFORMAT_END
 95
        4
302
GRIDFORMAT
  1
GRIDFORMAT_BEGIN
 90
        0
 91
        1
 62
     0
 92
       -2
340
0
 93
        0
 40
0.045
309
GRIDFORMAT_END
 95
        8
302
GRIDFORMAT
  1
GRIDFORMAT_BEGIN
 90
        0
 91
        1
 62
     0
 92
       -2
340
0
 93
        0
 40
0.045
309
GRIDFORMAT_END
 95
       16
302
GRIDFORMAT
  1
GRIDFORMAT_BEGIN
 90
        0
 91
        1
 62
     0
 92
       -2
340
0
 93
        0
 40
0.045
309
GRIDFORMAT_END
 95
       32
302
GRIDFORMAT
  1
GRIDFORMAT_BEGIN
 90
        0
 91
        1
 62
     0
 92
       -2
340
0
 93
        0
 40
0.045
309
GRIDFORMAT_END
309
TABLEFORMAT_END
  1
CELLSTYLE_BEGIN
 90
        3
 91
        2
300
_DATA
309
CELLSTYLE_END
  0
ENDSEC
  0
SECTION
  2
ACDSDATA
 70
     2
 71
     8
  0
ACDSSCHEMA
 90
        0
  1
AcDb_Thumbnail_Schema
  2
AcDbDs::ID
280
    10
 91
        8
  2
Thumbnail_Data
280
    15
 91
        0
101
ACDSRECORD
 95
        0
 90
        1
  2
AcDbDs::TreatedAsObjectData
280
     1
291
     1
101
ACDSRECORD
 95
        0
 90
        2
  2
AcDbDs::Legacy
280
     1
291
     1
101
ACDSRECORD
  1
AcDbDs::ID
 90
        3
  2
AcDs:Indexable
280
     1
291
     1
101
ACDSRECORD
  1
AcDbDs::ID
 90
        4
  2
AcDbDs::HandleAttribute
280
     7
282
     1
  0
ACDSSCHEMA
 90
        1
  1
AcDbDs::TreatedAsObjectDataSchema
  2
AcDbDs::TreatedAsObjectData
280
     1
 91
        0
  0
ACDSSCHEMA
 90
        2
  1
AcDbDs::LegacySchema
  2
AcDbDs::Legacy
280
     1
 91
        0
  0
ACDSSCHEMA
 90
        3
  1
AcDbDs::IndexedPropertySchema
  2
AcDs:Indexable
280
     1
 91
        0
  0
ACDSSCHEMA
 90
        4
  1
AcDbDs::HandleAttributeSchema
  2
AcDbDs::HandleAttribute
280
     7
 91
        1
284
     1
  0
ACDSRECORD
 90
        0
  2
AcDbDs::ID
280
    10
320
22
  2
Thumbnail_Data
280
    15
 94
     1242
310
89504E470D0A1A0A0000000D4948445200000100000000670803000000D82A6C0200000300504C5445949494FFFFFF9494940000000000000000000000000000000000000000000000000000330000660000990000CC0000FF0033000033330033660033990033CC0033FF0066000066330066660066990066CC0066FF0099
310
000099330099660099990099CC0099FF00CC0000CC3300CC6600CC9900CCCC00CCFF00FF0000FF3300FF6600FF9900FFCC00FFFF3300003300333300663300993300CC3300FF3333003333333333663333993333CC3333FF3366003366333366663366993366CC3366FF3399003399333399663399993399CC3399FF33CC00
310
33CC3333CC6633CC9933CCCC33CCFF33FF0033FF3333FF6633FF9933FFCC33FFFF6600006600336600666600996600CC6600FF6633006633336633666633996633CC6633FF6666006666336666666666996666CC6666FF6699006699336699666699996699CC6699FF66CC0066CC3366CC6666CC9966CCCC66CCFF66FF0066
310
FF3366FF6666FF9966FFCC66FFFF9900009900339900669900999900CC9900FF9933009933339933669933999933CC9933FF9966009966339966669966999966CC9966FF9999009999339999669999999999CC9999FF99CC0099CC3399CC6699CC9999CCCC99CCFF99FF0099FF3399FF6699FF9999FFCC99FFFFCC0000CC00
310
33CC0066CC0099CC00CCCC00FFCC3300CC3333CC3366CC3399CC33CCCC33FFCC6600CC6633CC6666CC6699CC66CCCC66FFCC9900CC9933CC9966CC9999CC99CCCC99FFCCCC00CCCC33CCCC66CCCC99CCCCCCCCCCFFCCFF00CCFF33CCFF66CCFF99CCFFCCCCFFFFFF0000FF0033FF0066FF0099FF00CCFF00FFFF3300FF3333
310
FF3366FF3399FF33CCFF33FFFF6600FF6633FF6666FF6699FF66CCFF66FFFF9900FF9933FF9966FF9999FF99CCFF99FFFFCC00FFCC33FFCC66FFCC99FFCCCCFFCCFFFFFF00FFFF33FFFF66FFFF99FFFFCCFFFFFF0000000D0D0D1A1A1A2828283535354343435050505D5D5D6B6B6B787878868686939393A1A1A1AEAEAEBB
310
BBBBC9C9C9D6D6D6E4E4E4F1F1F1FFFFFF00000000000000000000000000000000000000000000000000000000000018B0B0CD000001954944415478DAED9C5BB2C220100567FFCB9C9558757F8C17C29C894082F4F9B2E2B143DA181F25981142082184104208F193DBB98EDB53311E1DFF67AE764660ACD3689ACFBE071B
310
6A9B0AE49D980A57C01C44959BD29DC7612CC29C3F0956DB41F8B081980B2376E1301B7778BEB31EA629E6D368DC39BFE275C078378CE9E7C54198D0717B10A6D5282E15EDF7C6F82DF4AFA3607C1E46FFC4A3753DEC4CC4081D04240408A3923AEB6124012E77D6C348065CEE48BBFC0EE3D61723E03CD1590F537E9FDA2C
310
C257E49FFFFD03010840000210800004200001084000021080000420000108400002108000042000010840000210800004200001084000021080000420000108F85501BBFF59FAADE25C92DA91FEA0FE2C4CDC4DCC749880494C98B841C0841923BD31026D8B3943BBCF1A63E2E4EE02B806586BA98F44E77475863E18EF8F
310
894E02CF764662DC46600E5E9413251ED6AA2B4854D71B2979E1AA1D0331EEE911271751891557F7191CEEB565552662722F3261DAF57D18FFFA33DFD62B49FDF7B3E35A6284104208218410B2495E2CA0D5F165F00CA10000000049454E44AE426082
  0
ENDSEC
  0
EOF
