  0
SECTION
  2
HEADER
  9
$ACADVER
  1
AC1032
  9
$ACADMAINTVER
 90
      197
  9
$DWGCODEPAGE
  3
ANSI_1252
  9
$LASTSAVEDBY
  1
gregb
  9
$REQUIREDVERSIONS
160
                 0
  9
$INSBASE
 10
0.0
 20
0.0
 30
0.0
  9
$EXTMIN
 10
31768.30760184985
 20
29498.57136139632
 30
0.0
  9
$EXTMAX
 10
33768.3076018499
 20
31548.57136139789
 30
0.0
  9
$LIMMIN
 10
0.0
 20
0.0
  9
$LIMMAX
 10
12.0
 20
9.0
  9
$ORTHOMODE
 70
     1
  9
$REGENMODE
 70
     1
  9
$FILLMODE
 70
     1
  9
$QTEXTMODE
 70
     0
  9
$MIRRTEXT
 70
     0
  9
$LTSCALE
 40
1.0
  9
$ATTMODE
 70
     1
  9
$TEXTSIZE
 40
0.2
  9
$TRACEWID
 40
0.05
  9
$TEXTSTYLE
  7
Standard
  9
$CLAYER
  8
freecads.com
  9
$CELTYPE
  6
ByLayer
  9
$CECOLOR
 62
   256
  9
$CELTSCALE
 40
1.0
  9
$DISPSILH
 70
     1
  9
$DIMSCALE
 40
1.0
  9
$DIMASZ
 40
0.18
  9
$DIMEXO
 40
0.0625
  9
$DIMDLI
 40
0.38
  9
$DIMRND
 40
0.0
  9
$DIMDLE
 40
0.0
  9
$DIMEXE
 40
0.18
  9
$DIMTP
 40
0.0
  9
$DIMTM
 40
0.0
  9
$DIMTXT
 40
0.18
  9
$DIMCEN
 40
0.09
  9
$DIMTSZ
 40
0.0
  9
$DIMTOL
 70
     0
  9
$DIMLIM
 70
     0
  9
$DIMTIH
 70
     1
  9
$DIMTOH
 70
     1
  9
$DIMSE1
 70
     0
  9
$DIMSE2
 70
     0
  9
$DIMTAD
 70
     0
  9
$DIMZIN
 70
     0
  9
$DIMBLK
  1

  9
$DIMASO
 70
     1
  9
$DIMSHO
 70
     1
  9
$DIMPOST
  1

  9
$DIMAPOST
  1

  9
$DIMALT
 70
     0
  9
$DIMALTD
 70
     2
  9
$DIMALTF
 40
25.4
  9
$DIMLFAC
 40
1.0
  9
$DIMTOFL
 70
     0
  9
$DIMTVP
 40
0.0
  9
$DIMTIX
 70
     0
  9
$DIMSOXD
 70
     0
  9
$DIMSAH
 70
     0
  9
$DIMBLK1
  1

  9
$DIMBLK2
  1

  9
$DIMSTYLE
  2
Standard
  9
$DIMCLRD
 70
     0
  9
$DIMCLRE
 70
     0
  9
$DIMCLRT
 70
     0
  9
$DIMTFAC
 40
1.0
  9
$DIMGAP
 40
0.09
  9
$DIMJUST
 70
     0
  9
$DIMSD1
 70
     0
  9
$DIMSD2
 70
     0
  9
$DIMTOLJ
 70
     1
  9
$DIMTZIN
 70
     0
  9
$DIMALTZ
 70
     0
  9
$DIMALTTZ
 70
     0
  9
$DIMUPT
 70
     0
  9
$DIMDEC
 70
     4
  9
$DIMTDEC
 70
     4
  9
$DIMALTU
 70
     2
  9
$DIMALTTD
 70
     2
  9
$DIMTXSTY
  7
Standard
  9
$DIMAUNIT
 70
     0
  9
$DIMADEC
 70
     0
  9
$DIMALTRND
 40
0.0
  9
$DIMAZIN
 70
     0
  9
$DIMDSEP
 70
    46
  9
$DIMATFIT
 70
     3
  9
$DIMFRAC
 70
     0
  9
$DIMLDRBLK
  1

  9
$DIMLUNIT
 70
     2
  9
$DIMLWD
 70
    -2
  9
$DIMLWE
 70
    -2
  9
$DIMTMOVE
 70
     0
  9
$DIMFXL
 40
1.0
  9
$DIMFXLON
 70
     0
  9
$DIMJOGANG
 40
0.7853981633974483
  9
$DIMTFILL
 70
     0
  9
$DIMTFILLCLR
 70
     0
  9
$DIMARCSYM
 70
     0
  9
$DIMLTYPE
  6

  9
$DIMLTEX1
  6

  9
$DIMLTEX2
  6

  9
$DIMTXTDIRECTION
 70
     0
  9
$LUNITS
 70
     2
  9
$LUPREC
 70
     4
  9
$SKETCHINC
 40
0.1
  9
$FILLETRAD
 40
0.0
  9
$AUNITS
 70
     0
  9
$AUPREC
 70
     0
  9
$MENU
  1
.
  9
$ELEVATION
 40
0.0
  9
$PELEVATION
 40
0.0
  9
$THICKNESS
 40
0.0
  9
$LIMCHECK
 70
     0
  9
$CHAMFERA
 40
0.0
  9
$CHAMFERB
 40
0.0
  9
$CHAMFERC
 40
0.0
  9
$CHAMFERD
 40
0.0
  9
$SKPOLY
 70
     0
  9
$TDCREATE
 40
2458157.371250000
  9
$TDUCREATE
 40
2458157.287916667
  9
$TDUPDATE
 40
2461019.415266204
  9
$TDUUPDATE
 40
2461019.331932870
  9
$TDINDWG
 40
0.0973495370
  9
$TDUSRTIMER
 40
0.0973495370
  9
$USRTIMER
 70
     1
  9
$ANGBASE
 50
0.0
  9
$ANGDIR
 70
     0
  9
$PDMODE
 70
     0
  9
$PDSIZE
 40
0.0
  9
$PLINEWID
 40
0.0
  9
$SPLFRAME
 70
     0
  9
$SPLINETYPE
 70
     6
  9
$SPLINESEGS
 70
     8
  9
$HANDSEED
  5
FD12
  9
$SURFTAB1
 70
     6
  9
$SURFTAB2
 70
     6
  9
$SURFTYPE
 70
     6
  9
$SURFU
 70
     6
  9
$SURFV
 70
     6
  9
$UCSBASE
  2

  9
$UCSNAME
  2

  9
$UCSORG
 10
0.0
 20
0.0
 30
0.0
  9
$UCSXDIR
 10
1.0
 20
0.0
 30
0.0
  9
$UCSYDIR
 10
0.0
 20
1.0
 30
0.0
  9
$UCSORTHOREF
  2

  9
$UCSORTHOVIEW
 70
     1
  9
$UCSORGTOP
 10
0.0
 20
0.0
 30
0.0
  9
$UCSORGBOTTOM
 10
0.0
 20
0.0
 30
0.0
  9
$UCSORGLEFT
 10
0.0
 20
0.0
 30
0.0
  9
$UCSORGRIGHT
 10
0.0
 20
0.0
 30
0.0
  9
$UCSORGFRONT
 10
0.0
 20
0.0
 30
0.0
  9
$UCSORGBACK
 10
0.0
 20
0.0
 30
0.0
  9
$PUCSBASE
  2

  9
$PUCSNAME
  2

  9
$PUCSORG
 10
0.0
 20
0.0
 30
0.0
  9
$PUCSXDIR
 10
1.0
 20
0.0
 30
0.0
  9
$PUCSYDIR
 10
0.0
 20
1.0
 30
0.0
  9
$PUCSORTHOREF
  2

  9
$PUCSORTHOVIEW
 70
     0
  9
$PUCSORGTOP
 10
0.0
 20
0.0
 30
0.0
  9
$PUCSORGBOTTOM
 10
0.0
 20
0.0
 30
0.0
  9
$PUCSORGLEFT
 10
0.0
 20
0.0
 30
0.0
  9
$PUCSORGRIGHT
 10
0.0
 20
0.0
 30
0.0
  9
$PUCSORGFRONT
 10
0.0
 20
0.0
 30
0.0
  9
$PUCSORGBACK
 10
0.0
 20
0.0
 30
0.0
  9
$USERI1
 70
     0
  9
$USERI2
 70
     0
  9
$USERI3
 70
     0
  9
$USERI4
 70
     0
  9
$USERI5
 70
     0
  9
$USERR1
 40
0.0
  9
$USERR2
 40
0.0
  9
$USERR3
 40
0.0
  9
$USERR4
 40
0.0
  9
$USERR5
 40
0.0
  9
$WORLDVIEW
 70
     1
  9
$SHADEDGE
 70
     3
  9
$SHADEDIF
 70
    70
  9
$TILEMODE
 70
     1
  9
$MAXACTVP
 70
    64
  9
$PINSBASE
 10
0.0
 20
0.0
 30
0.0
  9
$PLIMCHECK
 70
     0
  9
$PEXTMIN
 10
0.0
 20
0.0
 30
0.0
  9
$PEXTMAX
 10
0.0
 20
0.0
 30
0.0
  9
$PLIMMIN
 10
0.0
 20
0.0
  9
$PLIMMAX
 10
12.0
 20
9.0
  9
$UNITMODE
 70
     0
  9
$VISRETAIN
 70
     1
  9
$PLINEGEN
 70
     0
  9
$PSLTSCALE
 70
     1
  9
$TREEDEPTH
 70
  3020
  9
$CMLSTYLE
  2
Standard
  9
$CMLJUST
 70
     0
  9
$CMLSCALE
 40
1.0
  9
$PROXYGRAPHICS
 70
     1
  9
$MEASUREMENT
 70
     0
  9
$CELWEIGHT
370
    -1
  9
$ENDCAPS
280
     0
  9
$JOINSTYLE
280
     0
  9
$LWDISPLAY
290
     0
  9
$INSUNITS
 70
     1
  9
$HYPERLINKBASE
  1

  9
$STYLESHEET
  1
monochrome.ctb
  9
$XEDIT
290
     1
  9
$CEPSNTYPE
380
     0
  9
$PSTYLEMODE
290
     1
  9
$FINGERPRINTGUID
  2
{358EB121-6EE0-9143-8A3E-6E8E8869FDA6}
  9
$VERSIONGUID
  2
{9FBB3E58-DEF2-2542-9B24-B79E506F0545}
  9
$EXTNAMES
290
     1
  9
$PSVPSCALE
 40
0.0
  9
$OLESTARTUP
290
     0
  9
$SORTENTS
280
   127
  9
$INDEXCTL
280
     0
  9
$HIDETEXT
280
     1
  9
$XCLIPFRAME
280
     2
  9
$HALOGAP
280
     0
  9
$OBSCOLOR
 70
   257
  9
$OBSLTYPE
280
     0
  9
$INTERSECTIONDISPLAY
280
     0
  9
$INTERSECTIONCOLOR
 70
   257
  9
$DIMASSOC
280
     2
  9
$PROJECTNAME
  1

  9
$CAMERADISPLAY
290
     0
  9
$LENSLENGTH
 40
50.0
  9
$CAMERAHEIGHT
 40
0.0
  9
$STEPSPERSEC
 40
2.0
  9
$STEPSIZE
 40
6.0
  9
$3DDWFPREC
 40
2.0
  9
$PSOLWIDTH
 40
0.25
  9
$PSOLHEIGHT
 40
4.0
  9
$LOFTANG1
 40
1.570796326794896
  9
$LOFTANG2
 40
1.570796326794896
  9
$LOFTMAG1
 40
0.0
  9
$LOFTMAG2
 40
0.0
  9
$LOFTPARAM
 70
     7
  9
$LOFTNORMALS
280
     1
  9
$LATITUDE
 40
37.795
  9
$LONGITUDE
 40
-122.394
  9
$NORTHDIRECTION
 40
0.0
  9
$TIMEZONE
 70
 -8000
  9
$LIGHTGLYPHDISPLAY
280
     1
  9
$TILEMODELIGHTSYNCH
280
     1
  9
$CMATERIAL
347
96
  9
$SOLIDHIST
280
     0
  9
$SHOWHIST
280
     1
  9
$DWFFRAME
280
     2
  9
$DGNFRAME
280
     0
  9
$REALWORLDSCALE
290
     1
  9
$INTERFERECOLOR
 62
     1
  9
$INTERFEREOBJVS
345
A3
  9
$INTERFEREVPVS
346
A0
  9
$CSHADOW
280
     0
  9
$SHADOWPLANELOCATION
 40
0.0
  0
ENDSEC
  0
SECTION
  2
CLASSES
  0
CLASS
  1
ACDBDICTIONARYWDFLT
  2
AcDbDictionaryWithDefault
  3
ObjectDBX Classes
 90
        0
 91
        1
280
     0
281
     0
  0
CLASS
  1
DICTIONARYVAR
  2
AcDbDictionaryVar
  3
ObjectDBX Classes
 90
        0
 91
       10
280
     0
281
     0
  0
CLASS
  1
TABLESTYLE
  2
AcDbTableStyle
  3
ObjectDBX Classes
 90
     4095
 91
        1
280
     0
281
     0
  0
CLASS
  1
MATERIAL
  2
AcDbMaterial
  3
ObjectDBX Classes
 90
     1153
 91
        3
280
     0
281
     0
  0
CLASS
  1
VISUALSTYLE
  2
AcDbVisualStyle
  3
ObjectDBX Classes
 90
     4095
 91
       24
280
     0
281
     0
  0
CLASS
  1
SCALE
  2
AcDbScale
  3
ObjectDBX Classes
 90
     1153
 91
       33
280
     0
281
     0
  0
CLASS
  1
MLEADERSTYLE
  2
AcDbMLeaderStyle
  3
ACDB_MLEADERSTYLE_CLASS
 90
     4095
 91
        1
280
     0
281
     0
  0
CLASS
  1
CELLSTYLEMAP
  2
AcDbCellStyleMap
  3
ObjectDBX Classes
 90
     1152
 91
        2
280
     0
281
     0
  0
CLASS
  1
EXACXREFPANELOBJECT
  2
ExAcXREFPanelObject
  3
EXAC_ESW
 90
     1025
 91
        0
280
     0
281
     0
  0
CLASS
  1
NPOCOLLECTION
  2
AcDbImpNonPersistentObjectsCollection
  3
ObjectDBX Classes
 90
     1153
 91
        0
280
     0
281
     0
  0
CLASS
  1
LAYER_INDEX
  2
AcDbLayerIndex
  3
ObjectDBX Classes
 90
        0
 91
        0
280
     0
281
     0
  0
CLASS
  1
SPATIAL_INDEX
  2
AcDbSpatialIndex
  3
ObjectDBX Classes
 90
        0
 91
        0
280
     0
281
     0
  0
CLASS
  1
IDBUFFER
  2
AcDbIdBuffer
  3
ObjectDBX Classes
 90
        0
 91
        0
280
     0
281
     0
  0
CLASS
  1
ACDBSECTIONVIEWSTYLE
  2
AcDbSectionViewStyle
  3
ObjectDBX Classes
 90
     1025
 91
        2
280
     0
281
     0
  0
CLASS
  1
ACDBDETAILVIEWSTYLE
  2
AcDbDetailViewStyle
  3
ObjectDBX Classes
 90
     1025
 91
        2
280
     0
281
     0
  0
CLASS
  1
SORTENTSTABLE
  2
AcDbSortentsTable
  3
ObjectDBX Classes
 90
        0
 91
        1
280
     0
281
     0
  0
CLASS
  1
WIPEOUT
  2
AcDbWipeout
  3
WipeOut|Product Desc: Object Enabler for WipeOut entity | Company: Autodesk, Inc. | WEB Address: www.autodesk.com
 90
     2175
 91
        0
280
     0
281
     1
  0
CLASS
  1
WIPEOUTVARIABLES
  2
AcDbWipeoutVariables
  3
"WipeOut|Product Desc:     WipeOut Dbx Application|Company:          Autodesk, Inc.|WEB Address:      www.autodesk.com"
 90
        0
 91
        1
280
     0
281
     0
  0
CLASS
  1
SURFACE
  2
AcDbSurface
  3
ObjectDBX Classes
 90
     4095
 91
        0
280
     0
281
     1
  0
CLASS
  1
ACDBASSOCPERSSUBENTMANAGER
  2
AcDbAssocPersSubentManager
  3
ObjectDBX Classes
 90
     1024
 91
        1
280
     0
281
     0
  0
CLASS
  1
ACAD_EVALUATION_GRAPH
  2
AcDbEvalGraph
  3
ObjectDBX Classes
 90
     1153
 91
        0
280
     0
281
     0
  0
CLASS
  1
ACDB_DYNAMICBLOCKPURGEPREVENTER_VERSION
  2
AcDbDynamicBlockPurgePreventer
  3
ObjectDBX Classes
 90
     1153
 91
        0
280
     0
281
     0
  0
CLASS
  1
SOLID_BACKGROUND
  2
AcDbSolidBackground
  3
SCENEOE
 90
     4095
 91
        0
280
     0
281
     0
  0
ENDSEC
  0
SECTION
  2
TABLES
  0
TABLE
  2
VPORT
  5
8
330
0
100
AcDbSymbolTable
 70
     1
  0
VPORT
  5
94
330
8
100
AcDbSymbolTableRecord
100
AcDbViewportTableRecord
  2
*Active
 70
     0
 10
0.0
 20
0.0
 11
1.0
 21
1.0
 12
225.0809219798025
 22
9874.653682239864
 13
0.0
 23
0.0
 14
0.5
 24
0.5
 15
0.5
 25
0.5
 16
0.0
 26
0.0
 36
1.0
 17
32542.92694085178
 27
20883.88133869607
 37
230.0029303954989
 40
2449.980897912662
 41
2.066284779050736
 42
50.0
 43
0.0
 44
0.0
 50
0.0
 51
0.0
 71
     0
 72
  1000
 73
     1
 74
     3
 75
     0
 76
     0
 77
     0
 78
     0
281
     0
 65
     1
110
0.0
120
0.0
130
0.0
111
1.0
121
0.0
131
0.0
112
0.0
122
1.0
132
0.0
 79
     0
146
0.0
348
9F
 60
     3
 61
     5
292
     1
282
     1
141
0.0
142
0.0
 63
   250
421
  3355443
1001
ACAD_NAV_VCDISPLAY
1070
     3
  0
ENDTAB
  0
TABLE
  2
LTYPE
  5
5
330
0
100
AcDbSymbolTable
 70
     1
  0
LTYPE
  5
14
330
5
100
AcDbSymbolTableRecord
100
AcDbLinetypeTableRecord
  2
ByBlock
 70
     0
  3

 72
    65
 73
     0
 40
0.0
  0
LTYPE
  5
15
330
5
100
AcDbSymbolTableRecord
100
AcDbLinetypeTableRecord
  2
ByLayer
 70
     0
  3

 72
    65
 73
     0
 40
0.0
  0
LTYPE
  5
16
330
5
100
AcDbSymbolTableRecord
100
AcDbLinetypeTableRecord
  2
Continuous
 70
     0
  3
Solid line
 72
    65
 73
     0
 40
0.0
  0
ENDTAB
  0
TABLE
  2
LAYER
  5
2
102
{ACAD_XDICTIONARY
360
18E
102
}
330
0
100
AcDbSymbolTable
 70
     2
  0
LAYER
  5
10
102
{ACAD_XDICTIONARY
360
E6
102
}
330
2
100
AcDbSymbolTableRecord
100
AcDbLayerTableRecord
  2
0
 70
     0
 62
     7
  6
Continuous
370
    -3
390
F
347
98
348
0
  0
LAYER
  5
204
330
2
100
AcDbSymbolTableRecord
100
AcDbLayerTableRecord
  2
freecads.com
 70
     0
 62
     7
  6
Continuous
370
    -3
390
F
347
98
348
0
1001
AcAecLayerStandard
1000

1000

1001
AcCmTransparency
1071
        0
  0
ENDTAB
  0
TABLE
  2
STYLE
  5
3
330
0
100
AcDbSymbolTable
 70
     1
  0
STYLE
  5
11
330
3
100
AcDbSymbolTableRecord
100
AcDbTextStyleTableRecord
  2
Standard
 70
     0
 40
0.0
 41
1.0
 50
0.0
 71
     0
 42
0.2
  3
arial.ttf
  4

1001
ACAD
1000
Arial
1071
       34
  0
ENDTAB
  0
TABLE
  2
VIEW
  5
6
330
0
100
AcDbSymbolTable
 70
     0
  0
ENDTAB
  0
TABLE
  2
UCS
  5
7
330
0
100
AcDbSymbolTable
 70
     0
  0
ENDTAB
  0
TABLE
  2
APPID
  5
9
330
0
100
AcDbSymbolTable
 70
    28
  0
APPID
  5
12
330
9
100
AcDbSymbolTableRecord
100
AcDbRegAppTableRecord
  2
ACAD
 70
     0
  0
APPID
  5
DD
330
9
100
AcDbSymbolTableRecord
100
AcDbRegAppTableRecord
  2
AcadAnnoPO
 70
     0
  0
APPID
  5
DE
330
9
100
AcDbSymbolTableRecord
100
AcDbRegAppTableRecord
  2
AcadAnnotative
 70
     0
  0
APPID
  5
DF
330
9
100
AcDbSymbolTableRecord
100
AcDbRegAppTableRecord
  2
ACAD_DSTYLE_DIMJAG
 70
     0
  0
APPID
  5
E0
330
9
100
AcDbSymbolTableRecord
100
AcDbRegAppTableRecord
  2
ACAD_DSTYLE_DIMTALN
 70
     0
  0
APPID
  5
107
330
9
100
AcDbSymbolTableRecord
100
AcDbRegAppTableRecord
  2
ACAD_MLEADERVER
 70
     0
  0
APPID
  5
1A6
330
9
100
AcDbSymbolTableRecord
100
AcDbRegAppTableRecord
  2
ACAD_NAV_VCDISPLAY
 70
     0
  0
APPID
  5
205
330
9
100
AcDbSymbolTableRecord
100
AcDbRegAppTableRecord
  2
AcAecLayerStandard
 70
     0
  0
APPID
  5
206
330
9
100
AcDbSymbolTableRecord
100
AcDbRegAppTableRecord
  2
AcCmTransparency
 70
     0
  0
APPID
  5
222
330
9
100
AcDbSymbolTableRecord
100
AcDbRegAppTableRecord
  2
ACAD_PSEXT
 70
     0
  0
APPID
  5
2DA
330
9
100
AcDbSymbolTableRecord
100
AcDbRegAppTableRecord
  2
GradientColor1ACI
 70
     0
  0
APPID
  5
2DB
330
9
100
AcDbSymbolTableRecord
100
AcDbRegAppTableRecord
  2
GradientColor2ACI
 70
     0
  0
APPID
  5
2F3
330
9
100
AcDbSymbolTableRecord
100
AcDbRegAppTableRecord
  2
ACAD_EXEMPT_FROM_CAD_STANDARDS
 70
     0
  0
APPID
  5
A1A
330
9
100
AcDbSymbolTableRecord
100
AcDbRegAppTableRecord
  2
AcDbBlockRepETag
 70
     0
  0
APPID
  5
22D3
330
9
100
AcDbSymbolTableRecord
100
AcDbRegAppTableRecord
  2
AcDbDynamicBlockGUID
 70
     0
  0
APPID
  5
22D4
330
9
100
AcDbSymbolTableRecord
100
AcDbRegAppTableRecord
  2
RAK
 70
     0
  0
APPID
  5
22D5
330
9
100
AcDbSymbolTableRecord
100
AcDbRegAppTableRecord
  2
ACAD_DSTYLE_DIMJOGGED_JOGANGLE_SYMBOL
 70
     0
  0
APPID
  5
22D6
330
9
100
AcDbSymbolTableRecord
100
AcDbRegAppTableRecord
  2
AcLayerTools
 70
     0
  0
APPID
  5
30DB
330
9
100
AcDbSymbolTableRecord
100
AcDbRegAppTableRecord
  2
AcDbBlockRepBTag
 70
     0
  0
APPID
  5
694E
330
9
100
AcDbSymbolTableRecord
100
AcDbRegAppTableRecord
  2
ACAD_STEPID
 70
     0
  0
APPID
  5
70D0
330
9
100
AcDbSymbolTableRecord
100
AcDbRegAppTableRecord
  2
AcDbDynamicBlockTrueName
 70
     0
  0
APPID
  5
C708
330
9
100
AcDbSymbolTableRecord
100
AcDbRegAppTableRecord
  2
ACAD_DSTYLE_DIMBREAK
 70
     0
  0
APPID
  5
CF35
330
9
100
AcDbSymbolTableRecord
100
AcDbRegAppTableRecord
  2
GENIUS_GENREC_14
 70
     0
  0
APPID
  5
CF36
330
9
100
AcDbSymbolTableRecord
100
AcDbRegAppTableRecord
  2
GENIUS_GENODEF_13
 70
     0
  0
APPID
  5
CF37
330
9
100
AcDbSymbolTableRecord
100
AcDbRegAppTableRecord
  2
GENIUS_GENOBJ-N-REC_13
 70
     0
  0
APPID
  5
CF38
330
9
100
AcDbSymbolTableRecord
100
AcDbRegAppTableRecord
  2
ACET-TEXTMASK
 70
     0
  0
APPID
  5
E8CA
330
9
100
AcDbSymbolTableRecord
100
AcDbRegAppTableRecord
  2
GENIUS_GENOBJ-N-FIL_13
 70
     0
  0
APPID
  5
EB7D
330
9
100
AcDbSymbolTableRecord
100
AcDbRegAppTableRecord
  2
ACADSTRINGINFO
 70
     0
  0
ENDTAB
  0
TABLE
  2
DIMSTYLE
  5
A
330
0
100
AcDbSymbolTable
 70
     1
100
AcDbDimStyleTable
 71
     1
340
27
  0
DIMSTYLE
105
27
330
A
100
AcDbSymbolTableRecord
100
AcDbDimStyleTableRecord
  2
Standard
 70
     0
340
11
  0
ENDTAB
  0
TABLE
  2
BLOCK_RECORD
  5
1
330
0
100
AcDbSymbolTable
 70
     1
  0
BLOCK_RECORD
  5
1F
102
{ACAD_XDICTIONARY
360
15D
102
}
330
1
100
AcDbSymbolTableRecord
100
AcDbBlockTableRecord
  2
*Model_Space
340
22
 70
     0
280
     1
281
     0
  0
BLOCK_RECORD
  5
58
330
1
100
AcDbSymbolTableRecord
100
AcDbBlockTableRecord
  2
*Paper_Space
340
59
 70
     0
280
     1
281
     0
  0
BLOCK_RECORD
  5
5D
330
1
100
AcDbSymbolTableRecord
100
AcDbBlockTableRecord
  2
*Paper_Space0
340
5E
 70
     0
280
     1
281
     0
  0
ENDTAB
  0
ENDSEC
  0
SECTION
  2
BLOCKS
  0
BLOCK
  5
20
330
1F
100
AcDbEntity
  8
0
100
AcDbBlockBegin
  2
*Model_Space
 70
     0
 10
0.0
 20
0.0
 30
0.0
  3
*Model_Space
  1

  0
ENDBLK
  5
21
330
1F
100
AcDbEntity
  8
0
100
AcDbBlockEnd
  0
BLOCK
  5
5A
330
58
100
AcDbEntity
 67
     1
  8
0
100
AcDbBlockBegin
  2
*Paper_Space
 70
     0
 10
0.0
 20
0.0
 30
0.0
  3
*Paper_Space
  1

  0
ENDBLK
  5
5B
330
58
100
AcDbEntity
 67
     1
  8
0
100
AcDbBlockEnd
  0
BLOCK
  5
5F
330
5D
100
AcDbEntity
 67
     1
  8
0
100
AcDbBlockBegin
  2
*Paper_Space0
 70
     0
 10
0.0
 20
0.0
 30
0.0
  3
*Paper_Space0
  1

  0
ENDBLK
  5
60
330
5D
100
AcDbEntity
 67
     1
  8
0
100
AcDbBlockEnd
  0
ENDSEC
  0
SECTION
  2
ENTITIES
  0
LINE
  5
FACE
330
1F
100
AcDbEntity
  8
freecads.com
 48
10.0
100
AcDbLine
 10
33768.3076018499
 20
29518.5713613978
 30
0.0
 11
33768.30760184978
 21
29498.57136139777
 31
0.0
  0
LINE
  5
FACF
330
1F
100
AcDbEntity
  8
freecads.com
 48
10.0
100
AcDbLine
 10
33768.30760184978
 20
29498.57136139777
 30
0.0
 11
33768.3076018499
 21
29518.5713613978
 31
0.0
1001
GENIUS_GENREC_14
1002
{
1000
PYDIR
1011
31818.30760184993
1021
29448.57136139632
1031
0.0
1002
}
1002
{
1000
PXDIR
1011
33768.3076018499
1021
29518.5713613978
1031
0.0
1002
}
1002
{
1000
PORI
1011
33768.3076018499
1021
29448.57136139632
1031
0.0
1002
}
1002
{
1000
PINS
1011
33768.3076018499
1021
29448.57136139632
1031
0.0
1002
}
1002
{
1000
PINS2
1011
31818.30760184993
1021
29518.5713613978
1031
0.0
1002
}
1002
{
1000
C
1070
     1
1002
}
1001
GENIUS_GENODEF_13
1002
{
1000
HIER
1070
     0
1002
}
1002
{
1000
MANEDIT
1070
     0
1002
}
1002
{
1000
NOSEL
1070
     0
1002
}
1002
{
1000
BEHIND
1070
     0
1002
}
1002
{
1000
OTHER
1070
     0
1002
}
1002
{
1000
REACTOR
1002
}
1001
GENIUS_GENOBJ-N-REC_13
1002
{
1000
OWNER
1000
GEN
1002
}
  0
LINE
  5
FAD0
330
1F
100
AcDbEntity
  8
freecads.com
 48
10.0
100
AcDbLine
 10
31768.30760184993
 20
29518.5713613978
 30
0.0
 11
31768.30760184985
 21
29498.57136139632
 31
0.0
1001
GENIUS_GENREC_14
1002
{
1000
PYDIR
1011
31768.30760184985
1021
29498.57136139632
1031
0.0
1002
}
1002
{
1000
PXDIR
1011
32778.3076018499
1021
29518.5713613978
1031
0.0
1002
}
1002
{
1000
PORI
1011
32778.3076018499
1021
29448.57136139632
1031
0.0
1002
}
1002
{
1000
PINS
1011
32778.3076018499
1021
29448.57136139632
1031
0.0
1002
}
1002
{
1000
PINS2
1011
31768.30760184993
1021
29518.5713613978
1031
0.0
1002
}
1002
{
1000
C
1070
     1
1002
}
1001
GENIUS_GENODEF_13
1002
{
1000
HIER
1070
     0
1002
}
1002
{
1000
MANEDIT
1070
     0
1002
}
1002
{
1000
NOSEL
1070
     0
1002
}
1002
{
1000
BEHIND
1070
     0
1002
}
1002
{
1000
OTHER
1070
     0
1002
}
1002
{
1000
REACTOR
1002
}
1001
GENIUS_GENOBJ-N-REC_13
1002
{
1000
OWNER
1000
GEN
1002
}
  0
LINE
  5
FAD1
330
1F
100
AcDbEntity
  8
freecads.com
100
AcDbLine
 10
31768.30760184985
 20
29498.57136139777
 30
0.0
 11
33768.30760184978
 21
29498.57136139777
 31
0.0
1001
GENIUS_GENREC_14
1002
{
1000
PYDIR
1011
31768.30760184985
1021
29498.57136139777
1031
0.0
1002
}
1002
{
1000
PXDIR
1011
33768.3076018499
1021
29463.57136139801
1031
0.0
1002
}
1002
{
1000
PORI
1011
33768.30760184978
1021
29498.57136139777
1031
0.0
1002
}
1002
{
1000
PINS
1011
33768.30760184978
1021
29498.57136139777
1031
0.0
1002
}
1002
{
1000
PINS2
1011
31768.30760184993
1021
29463.57136139801
1031
0.0
1002
}
1002
{
1000
C
1070
     1
1002
}
1001
GENIUS_GENODEF_13
1002
{
1000
HIER
1070
     0
1002
}
1002
{
1000
MANEDIT
1070
     0
1002
}
1002
{
1000
NOSEL
1070
     0
1002
}
1002
{
1000
BEHIND
1070
     0
1002
}
1002
{
1000
OTHER
1070
     0
1002
}
1002
{
1000
REACTOR
1002
}
1001
GENIUS_GENOBJ-N-REC_13
1002
{
1000
OWNER
1000
GEN
1002
}
  0
LINE
  5
FAD2
330
1F
100
AcDbEntity
  8
freecads.com
 48
10.0
100
AcDbLine
 10
31788.30760184984
 20
31528.5713613978
 30
0.0
 11
33748.30760184981
 21
31528.57136139789
 31
0.0
1001
GENIUS_GENREC_14
1002
{
1000
PYDIR
1011
31768.30760184981
1021
31458.57136139632
1031
0.0
1002
}
1002
{
1000
PXDIR
1011
32778.30760184978
1021
31528.5713613978
1031
0.0
1002
}
1002
{
1000
PORI
1011
32778.30760184978
1021
31458.57136139632
1031
0.0
1002
}
1002
{
1000
PINS
1011
32778.30760184978
1021
31458.57136139632
1031
0.0
1002
}
1002
{
1000
PINS2
1011
31768.30760184981
1021
31528.5713613978
1031
0.0
1002
}
1002
{
1000
C
1070
     1
1002
}
1001
GENIUS_GENODEF_13
1002
{
1000
HIER
1070
     0
1002
}
1002
{
1000
MANEDIT
1070
     0
1002
}
1002
{
1000
NOSEL
1070
     0
1002
}
1002
{
1000
BEHIND
1070
     0
1002
}
1002
{
1000
OTHER
1070
     0
1002
}
1002
{
1000
REACTOR
1002
}
1001
GENIUS_GENOBJ-N-REC_13
1002
{
1000
OWNER
1000
GEN
1002
}
  0
LINE
  5
FAD3
330
1F
100
AcDbEntity
  8
freecads.com
 48
10.0
100
AcDbLine
 10
31768.30760185089
 20
31548.57136139777
 30
0.0
 11
33768.30760184987
 21
31548.57136139789
 31
0.0
  0
LINE
  5
FAD4
330
1F
100
AcDbEntity
  8
freecads.com
 48
10.0
100
AcDbLine
 10
31768.3076018499
 20
29518.57136139777
 30
0.0
 11
33768.30760184984
 21
29518.57136139777
 31
0.0
  0
LINE
  5
FAD5
330
1F
100
AcDbEntity
  8
freecads.com
 48
10.0
100
AcDbLine
 10
31768.3076018499
 20
29498.57136139777
 30
0.0
 11
33768.30760184984
 21
29498.57136139777
 31
0.0
  0
LINE
  5
FAD6
330
1F
100
AcDbEntity
  8
freecads.com
 48
10.0
100
AcDbLine
 10
33748.30760184981
 20
31548.57136139789
 30
0.0
 11
33748.30760184984
 21
29518.57136139789
 31
0.0
  0
LINE
  5
FAD7
330
1F
100
AcDbEntity
  8
freecads.com
 48
10.0
100
AcDbLine
 10
33768.30760184981
 20
31548.57136139777
 30
0.0
 11
33768.30760184984
 21
29518.57136139789
 31
0.0
  0
LINE
  5
FAD8
330
1F
100
AcDbEntity
  8
freecads.com
 48
10.0
100
AcDbLine
 10
31768.30760184985
 20
31548.57136139789
 30
0.0
 11
31768.3076018499
 21
29518.57136139789
 31
0.0
  0
LINE
  5
FAD9
330
1F
100
AcDbEntity
  8
freecads.com
 48
10.0
100
AcDbLine
 10
31788.30760184984
 20
31548.57136139777
 30
0.0
 11
31788.30760184987
 21
29518.57136139789
 31
0.0
  0
ARC
  5
FADB
330
1F
100
AcDbEntity
  8
freecads.com
100
AcDbCircle
 10
33326.12348287602
 20
31478.1587065291
 30
0.0
 40
200.1861671677479
100
AcDbArc
 50
203.0027692436622
 51
208.3167638746853
  0
ARC
  5
FADC
330
1F
100
AcDbEntity
  8
freecads.com
100
AcDbCircle
 10
33180.16194533356
 20
31430.98994070085
 30
0.0
 40
49.31628471404678
100
AcDbArc
 50
208.3167638746853
 51
219.0349358864631
  0
ARC
  5
FADD
330
1F
100
AcDbEntity
  8
freecads.com
100
AcDbCircle
 10
33292.64806333321
 20
31570.10383341464
 30
0.0
 40
225.1969116392901
100
AcDbArc
 50
219.0349358864631
 51
226.188492264477
  0
ARC
  5
FADE
330
1F
100
AcDbEntity
  8
freecads.com
100
AcDbCircle
 10
33360.93407237149
 20
31735.25716020146
 30
0.0
 40
391.6486463265963
100
AcDbArc
 50
226.188492264477
 51
231.6114335734597
  0
ARC
  5
FADF
330
1F
100
AcDbEntity
  8
freecads.com
100
AcDbCircle
 10
33124.94408368456
 20
31520.90141371361
 30
0.0
 40
76.78123187264827
100
AcDbArc
 50
231.6114335734597
 51
242.7604123706995
  0
ARC
  5
FAE0
330
1F
100
AcDbEntity
  8
freecads.com
100
AcDbCircle
 10
33160.59650969782
 20
31679.40101476331
 30
0.0
 40
234.0218361334519
100
AcDbArc
 50
242.7604123706995
 51
249.139717988932
  0
ARC
  5
FAE1
330
1F
100
AcDbEntity
  8
freecads.com
100
AcDbCircle
 10
32221.32529525515
 20
31468.1010330219
 30
0.0
 40
99.20502275485915
100
AcDbArc
 50
198.4396515797046
 51
216.1766451271904
  0
ARC
  5
FAE2
330
1F
100
AcDbEntity
  8
freecads.com
100
AcDbCircle
 10
32185.64587808759
 20
31516.8924921068
 30
0.0
 40
99.2050227551662
100
AcDbArc
 50
216.1766451271904
 51
233.9136387711064
  0
ARC
  5
FAE3
330
1F
100
AcDbEntity
  8
freecads.com
100
AcDbCircle
 10
32132.8042962541
 20
31553.72691360166
 30
0.0
 40
99.20502275580659
100
AcDbArc
 50
233.9136387711064
 51
254.0647579917673
  0
ARC
  5
FAE4
330
1F
100
AcDbEntity
  8
freecads.com
100
AcDbCircle
 10
32067.07912629462
 20
31572.49293545241
 30
0.0
 40
99.20502275855211
100
AcDbArc
 50
254.0647579917673
 51
274.2158775759123
  0
ARC
  5
FAE5
330
1F
100
AcDbEntity
  8
freecads.com
100
AcDbCircle
 10
32394.4706209786
 20
31478.22788433181
 30
0.0
 40
200.1861671677479
100
AcDbArc
 50
203.0027692436622
 51
208.3167638746853
  0
ARC
  5
FAE6
330
1F
100
AcDbEntity
  8
freecads.com
100
AcDbCircle
 10
32248.50908344341
 20
31431.05911850356
 30
0.0
 40
49.31628471404678
100
AcDbArc
 50
208.3167638746853
 51
219.0349358864631
  0
ARC
  5
FAE7
330
1F
100
AcDbEntity
  8
freecads.com
100
AcDbCircle
 10
32360.99520144307
 20
31570.17301121736
 30
0.0
 40
225.1969116392901
100
AcDbArc
 50
219.0349358864631
 51
226.188492264477
  0
ARC
  5
FAE8
330
1F
100
AcDbEntity
  8
freecads.com
100
AcDbCircle
 10
32429.28121048134
 20
31735.32633800418
 30
0.0
 40
391.6486463265963
100
AcDbArc
 50
226.188492264477
 51
231.6114335734597
  0
ARC
  5
FAE9
330
1F
100
AcDbEntity
  8
freecads.com
100
AcDbCircle
 10
32193.29122178714
 20
31520.97059151632
 30
0.0
 40
76.78123187264827
100
AcDbArc
 50
231.6114335734597
 51
242.7604123706995
  0
ARC
  5
FAEA
330
1F
100
AcDbEntity
  8
freecads.com
100
AcDbCircle
 10
32228.94364780767
 20
31679.47019256602
 30
0.0
 40
234.0218361334519
100
AcDbArc
 50
242.7604123706995
 51
249.139717988932
  0
ARC
  5
FAEB
330
1F
100
AcDbEntity
  8
freecads.com
100
AcDbCircle
 10
33152.97815714529
 20
31468.03185521919
 30
0.0
 40
99.20502275485915
100
AcDbArc
 50
198.4396515797046
 51
216.1766451271904
  0
ARC
  5
FAEC
330
1F
100
AcDbEntity
  8
freecads.com
100
AcDbCircle
 10
33117.29873997773
 20
31516.82331430408
 30
0.0
 40
99.2050227551662
100
AcDbArc
 50
216.1766451271904
 51
233.9136387711064
  0
ARC
  5
FAED
330
1F
100
AcDbEntity
  8
freecads.com
100
AcDbCircle
 10
33064.45715815152
 20
31553.65773579895
 30
0.0
 40
99.20502275580659
100
AcDbArc
 50
233.9136387711064
 51
254.0647579917673
  0
ARC
  5
FAEE
330
1F
100
AcDbEntity
  8
freecads.com
100
AcDbCircle
 10
32998.73198818477
 20
31572.4237576497
 30
0.0
 40
99.20502275855211
100
AcDbArc
 50
254.0647579917673
 51
274.2158775759123
  0
ARC
  5
FAEF
330
1F
100
AcDbEntity
  8
freecads.com
100
AcDbCircle
 10
33461.64037733342
 20
31488.58511248461
 30
0.0
 40
89.85455834404227
100
AcDbArc
 50
306.2640674214318
 51
318.5570937572764
  0
ARC
  5
FAF0
330
1F
100
AcDbEntity
  8
freecads.com
100
AcDbCircle
 10
33467.24951602754
 20
31438.66371281099
 30
0.0
 40
52.6082136424462
100
AcDbArc
 50
318.5570937572764
 51
334.6448831644979
  0
ARC
  5
FAF1
330
1F
100
AcDbEntity
  8
freecads.com
100
AcDbCircle
 10
33366.41268058974
 20
31459.99122850396
 30
0.0
 40
151.0926614711583
100
AcDbArc
 50
334.6448831644979
 51
338.1850764514289
  0
ARC
  5
FAF2
330
1F
100
AcDbEntity
  8
freecads.com
100
AcDbCircle
 10
33308.33539749528
 20
31461.46550265173
 30
0.0
 40
205.5588306124303
100
AcDbArc
 50
338.1850764514289
 51
341.220101107364
  0
ARC
  5
FAF3
330
1F
100
AcDbEntity
  8
freecads.com
100
AcDbCircle
 10
33443.01015605833
 20
31385.07785485042
 30
0.0
 40
56.16381224046975
100
AcDbArc
 50
341.220101107364
 51
0.0
  0
ARC
  5
FAF4
330
1F
100
AcDbEntity
  8
freecads.com
100
AcDbCircle
 10
33407.64133124412
 20
31343.79271976565
 30
0.0
 40
91.53263705200519
100
AcDbArc
 50
0.0
 51
14.68510665924397
  0
ARC
  5
FAF5
330
1F
100
AcDbEntity
  8
freecads.com
100
AcDbCircle
 10
33428.73344659983
 20
31544.26718474049
 30
0.0
 40
139.944621739241
100
AcDbArc
 50
297.2035924706362
 51
314.9023836050772
  0
ARC
  5
FAF6
330
1F
100
AcDbEntity
  8
freecads.com
100
AcDbCircle
 10
33368.46333911034
 20
31484.20209607054
 30
0.0
 40
139.9446217408161
100
AcDbArc
 50
314.9023836050772
 51
332.6011743347483
  0
ARC
  5
FAF7
330
1F
100
AcDbEntity
  8
freecads.com
100
AcDbCircle
 10
33333.07912103282
 20
31424.85934566418
 30
0.0
 40
139.9446217330947
100
AcDbArc
 50
332.6011743347483
 51
343.4850240289952
  0
ARC
  5
FAF8
330
1F
100
AcDbEntity
  8
freecads.com
100
AcDbCircle
 10
33318.05614665881
 20
31374.19127027449
 30
0.0
 40
139.9446217354686
100
AcDbArc
 50
343.4850240289952
 51
354.3688736473756
  0
ARC
  5
FAF9
330
1F
100
AcDbEntity
  8
freecads.com
100
AcDbCircle
 10
33145.54529149699
 20
31468.78171451596
 30
0.0
 40
272.0537801698949
100
AcDbArc
 50
266.4448009057386
 51
274.0827718432395
  0
ARC
  5
FAFA
330
1F
100
AcDbEntity
  8
freecads.com
100
AcDbCircle
 10
33108.20722861626
 20
31251.49204214456
 30
0.0
 40
57.97391510516451
100
AcDbArc
 50
274.0827718432395
 51
290.6742811169145
  0
ARC
  5
FAFB
330
1F
100
AcDbEntity
  8
freecads.com
100
AcDbCircle
 10
32903.62873943467
 20
31655.32796801478
 30
0.0
 40
506.6465191820224
100
AcDbArc
 50
290.6742811169145
 51
294.3265278287809
  0
ARC
  5
FAFC
330
1F
100
AcDbEntity
  8
freecads.com
100
AcDbCircle
 10
32443.45427932512
 20
32463.12629699885
 30
0.0
 40
1432.285134951083
100
AcDbArc
 50
294.3265278287809
 51
296.4984803909713
  0
ARC
  5
FAFD
330
1F
100
AcDbEntity
  8
freecads.com
100
AcDbCircle
 10
32867.16643691124
 20
31422.75261996753
 30
0.0
 40
312.6399225708171
100
AcDbArc
 50
296.4984803909713
 51
302.1349796000862
  0
ARC
  5
FAFE
330
1F
100
AcDbEntity
  8
freecads.com
100
AcDbCircle
 10
32580.17322282921
 20
31733.72137232134
 30
0.0
 40
728.6236185014265
100
AcDbArc
 50
302.1349796000862
 51
305.8262850840516
  0
ARC
  5
FAFF
330
1F
100
AcDbEntity
  8
freecads.com
100
AcDbCircle
 10
34019.32079310881
 20
31445.42441955043
 30
0.0
 40
491.8309499015451
100
AcDbArc
 50
180.0
 51
186.2323646138837
  0
ARC
  5
FB00
330
1F
100
AcDbEntity
  8
freecads.com
100
AcDbCircle
 10
33731.46867592822
 20
31357.71740235129
 30
0.0
 40
203.978832723049
100
AcDbArc
 50
170.3156336125537
 51
180.0
  0
ARC
  5
FB01
330
1F
100
AcDbEntity
  8
freecads.com
100
AcDbCircle
 10
34389.60800514268
 20
31171.34638317573
 30
0.0
 40
882.032812276642
100
AcDbArc
 50
167.8016206801827
 51
170.3156336125537
  0
ARC
  5
FB02
330
1F
100
AcDbEntity
  8
freecads.com
100
AcDbCircle
 10
33206.1128838477
 20
31363.88483072285
 30
0.0
 40
317.1219007145616
100
AcDbArc
 50
347.8016206801828
 51
351.9949491952129
  0
ARC
  5
FB03
330
1F
100
AcDbEntity
  8
freecads.com
100
AcDbCircle
 10
32858.00546853806
 20
31327.5074027252
 30
0.0
 40
658.7817297258798
100
AcDbArc
 50
351.9949491952129
 51
357.3351183672977
  0
ARC
  5
FB04
330
1F
100
AcDbEntity
  8
freecads.com
100
AcDbCircle
 10
33444.68089713427
 20
31219.33254449602
 30
0.0
 40
67.71125242053372
100
AcDbArc
 50
357.3351183672977
 51
14.04519390978037
  0
LINE
  5
FB05
330
1F
100
AcDbEntity
  8
freecads.com
100
AcDbLine
 10
33532.97536670379
 20
31133.61423543308
 30
0.0
 11
33512.31892391024
 21
31216.18436436899
 31
0.0
  0
LINE
  5
FB06
330
1F
100
AcDbEntity
  8
freecads.com
100
AcDbLine
 10
33540.48685389079
 20
31103.58865696532
 30
0.0
 11
33532.97536670379
 21
31133.61423543308
 31
0.0
  0
ARC
  5
FB07
330
1F
100
AcDbEntity
  8
freecads.com
100
AcDbCircle
 10
33540.42157346066
 20
31102.67412966557
 30
0.0
 40
0.9168542464135526
100
AcDbArc
 50
85.91706013558589
 51
194.0449372949309
  0
ARC
  5
FB08
330
1F
100
AcDbEntity
  8
freecads.com
100
AcDbCircle
 10
33494.9193036673
 20
30835.40078779976
 30
0.0
 40
270.7516457540593
100
AcDbArc
 50
80.5158958161925
 51
85.91706013558589
  0
ARC
  5
FB09
330
1F
100
AcDbEntity
  8
freecads.com
100
AcDbCircle
 10
33445.56879235551
 20
30886.29044519537
 30
0.0
 40
229.668082843701
100
AcDbArc
 50
72.61358774330703
 51
80.5158958161925
  0
ARC
  5
FB0A
330
1F
100
AcDbEntity
  8
freecads.com
100
AcDbCircle
 10
33496.82976373969
 20
31231.80187900932
 30
0.0
 40
119.7367658717636
100
AcDbArc
 50
252.613587743307
 51
263.565946429363
  0
ARC
  5
FB0B
330
1F
100
AcDbEntity
  8
freecads.com
100
AcDbCircle
 10
33431.81456645925
 20
31260.48780672051
 30
0.0
 40
145.9110822094432
100
AcDbArc
 50
263.565946429363
 51
281.5585619500603
  0
ARC
  5
FB0C
330
1F
100
AcDbEntity
  8
freecads.com
100
AcDbCircle
 10
33404.43007797239
 20
30885.70759617057
 30
0.0
 40
230.0529023409549
100
AcDbArc
 50
87.25093522405535
 51
101.5585619500602
  0
ARC
  5
FB0D
330
1F
100
AcDbEntity
  8
freecads.com
100
AcDbCircle
 10
33245.24430664405
 20
29710.89111987301
 30
0.0
 40
1404.763554196242
100
AcDbArc
 50
85.38241795518658
 51
87.25093522405535
  0
ARC
  5
FB0E
330
1F
100
AcDbEntity
  8
freecads.com
100
AcDbCircle
 10
33368.00569348361
 20
32329.23333527203
 30
0.0
 40
1216.456855347276
100
AcDbArc
 50
265.3824179551866
 51
267.3903699312726
  0
ARC
  5
FB0F
330
1F
100
AcDbEntity
  8
freecads.com
100
AcDbCircle
 10
33327.01526011169
 20
34478.42374870295
 30
0.0
 40
3362.181108298671
100
AcDbArc
 50
267.3903699312726
 51
269.0296215219702
  0
ARC
  5
FB10
330
1F
100
AcDbEntity
  8
freecads.com
100
AcDbCircle
 10
33145.33317683612
 20
36838.16397508697
 30
0.0
 40
5718.506036002937
100
AcDbArc
 50
269.0296215219702
 51
270.2865448056913
  0
ARC
  5
FB11
330
1F
100
AcDbEntity
  8
freecads.com
100
AcDbCircle
 10
32975.92616875863
 20
32282.22818864658
 30
0.0
 40
1164.013960197642
100
AcDbArc
 50
270.2865448056913
 51
273.573972997082
  0
ARC
  5
FB12
330
1F
100
AcDbEntity
  8
freecads.com
100
AcDbCircle
 10
32949.25640320525
 20
31260.44570860456
 30
0.0
 40
145.8812122911199
100
AcDbArc
 50
273.573972997082
 51
282.8690380360919
  0
ARC
  5
FB13
330
1F
100
AcDbEntity
  8
freecads.com
100
AcDbCircle
 10
32937.58939205963
 20
31155.09895785278
 30
0.0
 40
45.28945216353444
100
AcDbArc
 50
282.8690380360919
 51
297.2841172306144
  0
ARC
  5
FB14
330
1F
100
AcDbEntity
  8
freecads.com
100
AcDbCircle
 10
32969.1096306642
 20
31037.27499293661
 30
0.0
 40
76.72654245508678
100
AcDbArc
 50
106.2211511473688
 51
117.2841172306144
  0
ARC
  5
FB15
330
1F
100
AcDbEntity
  8
freecads.com
100
AcDbCircle
 10
32944.78158364745
 20
31018.65920139887
 30
0.0
 40
87.4807337156975
100
AcDbArc
 50
97.12039367110349
 51
106.2211511473688
  0
ARC
  5
FB16
330
1F
100
AcDbEntity
  8
freecads.com
100
AcDbCircle
 10
32919.07890630773
 20
31102.27782154022
 30
0.0
 40
1.32102331292266
100
AcDbArc
 50
16.69776590479804
 51
97.12039367110349
  0
ARC
  5
FB17
330
1F
100
AcDbEntity
  8
freecads.com
100
AcDbCircle
 10
32899.87935384942
 20
31106.94462063754
 30
0.0
 40
19.32936577007351
100
AcDbArc
 50
350.0016419577388
 51
16.69776590479804
  0
ARC
  5
FB18
330
1F
100
AcDbEntity
  8
freecads.com
100
AcDbCircle
 10
33238.97400714577
 20
31092.86358140441
 30
0.0
 40
321.1810663005845
100
AcDbArc
 50
170.0016419577388
 51
176.4951423299537
  0
ARC
  5
FB19
330
1F
100
AcDbEntity
  8
freecads.com
100
AcDbCircle
 10
46538.84494152676
 20
30421.93648277232
 30
0.0
 40
13635.55196031532
100
AcDbArc
 50
176.4951423299537
 51
176.9450421068579
  0
ARC
  5
FB1A
330
1F
100
AcDbEntity
  8
freecads.com
100
AcDbCircle
 10
34293.46956929748
 20
31216.61337875328
 30
0.0
 40
1365.22743603607
100
AcDbArc
 50
176.9450421068579
 51
178.3669113583343
  0
ARC
  5
FB1B
330
1F
100
AcDbEntity
  8
freecads.com
100
AcDbCircle
 10
33607.73644279197
 20
31329.25482949128
 30
0.0
 40
678.7269722582457
100
AcDbArc
 50
178.3669113583343
 51
183.3687486009953
  0
ARC
  5
FB1C
330
1F
100
AcDbEntity
  8
freecads.com
100
AcDbCircle
 10
33834.14622984219
 20
31470.63263319348
 30
0.0
 40
913.0531557024768
100
AcDbArc
 50
183.3687486009953
 51
187.6808967091866
  0
ARC
  5
FB1D
330
1F
100
AcDbEntity
  8
freecads.com
100
AcDbCircle
 10
33116.59122476066
 20
31458.58632812367
 30
0.0
 40
198.3336164097875
100
AcDbArc
 50
187.6808967091866
 51
192.1094580307155
  0
ARC
  5
FB1E
330
1F
100
AcDbEntity
  8
freecads.com
100
AcDbCircle
 10
32676.47946760644
 20
31397.26928665102
 30
0.0
 40
246.0324298296742
100
AcDbArc
 50
8.133482593858262
 51
12.10945803071548
  0
ARC
  5
FB1F
330
1F
100
AcDbEntity
  8
freecads.com
100
AcDbCircle
 10
32886.513845654
 20
31460.85688499359
 30
0.0
 40
32.78844727572733
100
AcDbArc
 50
338.5790157164649
 51
8.133482593858262
  0
ARC
  5
FB20
330
1F
100
AcDbEntity
  8
freecads.com
100
AcDbCircle
 10
32933.43288940468
 20
31471.33535335804
 30
0.0
 40
15.59499963616461
100
AcDbArc
 50
158.5790157164649
 51
201.9903990696603
  0
ARC
  5
FB21
330
1F
100
AcDbEntity
  8
freecads.com
100
AcDbCircle
 10
32918.033410534
 20
31481.21763617298
 30
0.0
 40
4.278555704268701
100
AcDbArc
 50
201.9903990696603
 51
281.8930567867819
  0
ARC
  5
FB22
330
1F
100
AcDbEntity
  8
freecads.com
100
AcDbCircle
 10
32911.88148226592
 20
31480.39189757317
 30
0.0
 40
2.318503280762332
100
AcDbArc
 50
340.4360326299335
 51
101.8930567867819
  0
ARC
  5
FB23
330
1F
100
AcDbEntity
  8
freecads.com
100
AcDbCircle
 10
32910.13441822815
 20
31485.83587277888
 30
0.0
 40
3.419526399010451
100
AcDbArc
 50
291.7883022289691
 51
340.4360326299335
  0
ARC
  5
FB24
330
1F
100
AcDbEntity
  8
freecads.com
100
AcDbCircle
 10
32911.47270541932
 20
31509.73002300368
 30
0.0
 40
25.10997430044378
100
AcDbArc
 50
274.3025398214566
 51
291.7883022289691
  0
ARC
  5
FB25
330
1F
100
AcDbEntity
  8
freecads.com
100
AcDbCircle
 10
32935.51480067344
 20
31511.25635294654
 30
0.0
 40
28.87700087184937
100
AcDbArc
 50
239.3487451216389
 51
274.3025398214566
  0
ARC
  5
FB26
330
1F
100
AcDbEntity
  8
freecads.com
100
AcDbCircle
 10
32932.73882443554
 20
31428.76733183864
 30
0.0
 40
53.92039297186392
100
AcDbArc
 50
59.34874512163887
 51
84.7408119787647
  0
ARC
  5
FB27
330
1F
100
AcDbEntity
  8
freecads.com
100
AcDbCircle
 10
32932.90172085198
 20
30654.82041382263
 30
0.0
 40
820.7889043864383
100
AcDbArc
 50
84.7408119787647
 51
88.09211325410755
  0
ARC
  5
FB28
330
1F
100
AcDbEntity
  8
freecads.com
100
AcDbCircle
 10
33023.15134330365
 20
29977.95774606409
 30
0.0
 40
1494.27168971778
100
AcDbArc
 50
88.09211325410755
 51
90.57574077332535
  0
ARC
  5
FB29
330
1F
100
AcDbEntity
  8
freecads.com
100
AcDbCircle
 10
33145.99595876006
 20
30601.2578468936
 30
0.0
 40
873.2080458158227
100
AcDbArc
 50
90.57574077332535
 51
94.80184567388091
  0
ARC
  5
FB2A
330
1F
100
AcDbEntity
  8
freecads.com
100
AcDbCircle
 10
33150.05317227132
 20
31763.84005376083
 30
0.0
 40
289.7025545989886
100
AcDbArc
 50
267.4614144779265
 51
274.8018456738809
  0
ARC
  5
FB2B
330
1F
100
AcDbEntity
  8
freecads.com
100
AcDbCircle
 10
33201.26126951163
 20
31625.12768021322
 30
0.0
 40
152.3768302813976
100
AcDbArc
 50
259.8101235032456
 51
267.4614144779265
  0
ARC
  5
FB2C
330
1F
100
AcDbEntity
  8
freecads.com
100
AcDbCircle
 10
33138.39071882921
 20
30946.60218802808
 30
0.0
 40
529.2819795560268
100
AcDbArc
 50
79.81012350324563
 51
83.91330479803256
  0
ARC
  5
FB2D
330
1F
100
AcDbEntity
  8
freecads.com
100
AcDbCircle
 10
33232.0264400414
 20
30418.55114463312
 30
0.0
 40
1048.984595397112
100
AcDbArc
 50
83.91330479803256
 51
90.0
  0
ARC
  5
FB2E
330
1F
100
AcDbEntity
  8
freecads.com
100
AcDbCircle
 10
33432.91527594646
 20
30784.85100892346
 30
0.0
 40
682.6847311036983
100
AcDbArc
 50
90.0
 51
97.54685136002379
  0
ARC
  5
FB2F
330
1F
100
AcDbEntity
  8
freecads.com
100
AcDbCircle
 10
33498.64468362011
 20
31234.38312701826
 30
0.0
 40
242.2405746093392
100
AcDbArc
 50
97.54685136002379
 51
105.7439835829678
  0
ARC
  5
FB30
330
1F
100
AcDbEntity
  8
freecads.com
100
AcDbCircle
 10
33422.11284094901
 20
31775.99214739082
 30
0.0
 40
304.7651663592303
100
AcDbArc
 50
278.4371936819218
 51
285.7439835829678
  0
ARC
  5
FB31
330
1F
100
AcDbEntity
  8
freecads.com
100
AcDbCircle
 10
33504.80763267932
 20
31643.79335041947
 30
0.0
 40
161.1327186373746
100
AcDbArc
 50
270.0
 51
278.4371936819218
  0
ARC
  5
FB32
330
1F
100
AcDbEntity
  8
freecads.com
100
AcDbCircle
 10
33546.1205182737
 20
31573.05994832775
 30
0.0
 40
90.39931654700195
100
AcDbArc
 50
258.727623115894
 51
270.0
  0
ARC
  5
FB33
330
1F
100
AcDbEntity
  8
freecads.com
100
AcDbCircle
 10
33557.85740242663
 20
31476.78822796213
 30
0.0
 40
13.12400763468531
100
AcDbArc
 50
153.4194789933484
 51
258.727623115894
  0
ARC
  5
FB34
330
1F
100
AcDbEntity
  8
freecads.com
100
AcDbCircle
 10
33557.9148678671
 20
31429.831924731
 30
0.0
 40
34.18623553405789
100
AcDbArc
 50
94.40020909498221
 51
153.4194789933484
  0
ARC
  5
FB35
330
1F
100
AcDbEntity
  8
freecads.com
100
AcDbCircle
 10
32113.54484549337
 20
30478.72093740947
 30
0.0
 40
738.6663967830389
100
AcDbArc
 50
64.6889261573774
 51
66.51559171758771
  0
ARC
  5
FB36
330
1F
100
AcDbEntity
  8
freecads.com
100
AcDbCircle
 10
32156.73555388456
 20
30459.95505677778
 30
0.0
 40
738.6663968077241
100
AcDbArc
 50
66.51559171758771
 51
68.34225723564045
  0
ARC
  5
FB37
330
1F
100
AcDbEntity
  8
freecads.com
100
AcDbCircle
 10
32205.39724117224
 20
30440.82967201169
 30
0.0
 40
738.6663969358386
100
AcDbArc
 50
68.34225723564045
 51
70.57201839015407
  0
ARC
  5
FB38
330
1F
100
AcDbEntity
  8
freecads.com
100
AcDbCircle
 10
32259.60280366233
 20
30421.71111955171
 30
0.0
 40
738.6663969404012
100
AcDbArc
 50
70.57201839015407
 51
72.8017791181249
  0
ARC
  5
FB39
330
1F
100
AcDbEntity
  8
freecads.com
100
AcDbCircle
 10
33087.66793121866
 20
31445.49359735314
 30
0.0
 40
491.8309499015451
100
AcDbArc
 50
180.0
 51
186.2323646138837
  0
ARC
  5
FB3A
330
1F
100
AcDbEntity
  8
freecads.com
100
AcDbCircle
 10
32799.81581403807
 20
31357.78658015401
 30
0.0
 40
203.978832723049
100
AcDbArc
 50
170.3156336125537
 51
180.0
  0
ARC
  5
FB3B
330
1F
100
AcDbEntity
  8
freecads.com
100
AcDbCircle
 10
33457.95514325253
 20
31171.41556097844
 30
0.0
 40
882.032812276642
100
AcDbArc
 50
167.8016206801827
 51
170.3156336125537
  0
ARC
  5
FB3C
330
1F
100
AcDbEntity
  8
freecads.com
100
AcDbCircle
 10
32274.46002195756
 20
31363.95400852556
 30
0.0
 40
317.1219007145616
100
AcDbArc
 50
347.8016206801828
 51
351.9949491952129
  0
ARC
  5
FB3D
330
1F
100
AcDbEntity
  8
freecads.com
100
AcDbCircle
 10
31926.35260664792
 20
31327.57658052791
 30
0.0
 40
658.7817297258798
100
AcDbArc
 50
351.9949491952129
 51
357.3351183672977
  0
ARC
  5
FB3E
330
1F
100
AcDbEntity
  8
freecads.com
100
AcDbCircle
 10
32513.02803524412
 20
31219.40172229873
 30
0.0
 40
67.71125242053372
100
AcDbArc
 50
357.3351183672977
 51
14.04519390978037
  0
LINE
  5
FB3F
330
1F
100
AcDbEntity
  8
freecads.com
100
AcDbLine
 10
32601.32250481364
 20
31133.68341323579
 30
0.0
 11
32580.66606202009
 21
31216.25354217171
 31
0.0
  0
LINE
  5
FB40
330
1F
100
AcDbEntity
  8
freecads.com
100
AcDbLine
 10
32608.83399200064
 20
31103.65783476804
 30
0.0
 11
32601.32250481364
 21
31133.68341323579
 31
0.0
  0
ARC
  5
FB41
330
1F
100
AcDbEntity
  8
freecads.com
100
AcDbCircle
 10
32608.76871157051
 20
31102.74330746828
 30
0.0
 40
0.9168542464135526
100
AcDbArc
 50
85.91706013558589
 51
194.0449372949309
  0
ARC
  5
FB42
330
1F
100
AcDbEntity
  8
freecads.com
100
AcDbCircle
 10
32563.26644177715
 20
30835.46996560248
 30
0.0
 40
270.7516457540593
100
AcDbArc
 50
80.5158958161925
 51
85.91706013558589
  0
ARC
  5
FB43
330
1F
100
AcDbEntity
  8
freecads.com
100
AcDbCircle
 10
32513.91593046536
 20
30886.35962299808
 30
0.0
 40
229.668082843701
100
AcDbArc
 50
72.61358774330703
 51
80.5158958161925
  0
ARC
  5
FB44
330
1F
100
AcDbEntity
  8
freecads.com
100
AcDbCircle
 10
32565.17690184955
 20
31231.87105681203
 30
0.0
 40
119.7367658717636
100
AcDbArc
 50
252.613587743307
 51
263.565946429363
  0
ARC
  5
FB45
330
1F
100
AcDbEntity
  8
freecads.com
100
AcDbCircle
 10
32500.1617045691
 20
31260.55698452323
 30
0.0
 40
145.9110822094432
100
AcDbArc
 50
263.565946429363
 51
281.5585619500603
  0
ARC
  5
FB46
330
1F
100
AcDbEntity
  8
freecads.com
100
AcDbCircle
 10
32472.77721608224
 20
30885.77677397328
 30
0.0
 40
230.0529023409549
100
AcDbArc
 50
87.25093522405535
 51
101.5585619500602
  0
ARC
  5
FB47
330
1F
100
AcDbEntity
  8
freecads.com
100
AcDbCircle
 10
32313.5914447539
 20
29710.96029767572
 30
0.0
 40
1404.763554196242
100
AcDbArc
 50
85.38241795518658
 51
87.25093522405535
  0
ARC
  5
FB48
330
1F
100
AcDbEntity
  8
freecads.com
100
AcDbCircle
 10
32436.35283159346
 20
32329.30251307474
 30
0.0
 40
1216.456855347276
100
AcDbArc
 50
265.3824179551866
 51
267.3903699312726
  0
ARC
  5
FB49
330
1F
100
AcDbEntity
  8
freecads.com
100
AcDbCircle
 10
32395.36239822154
 20
34478.49292650566
 30
0.0
 40
3362.181108298671
100
AcDbArc
 50
267.3903699312726
 51
269.0296215219702
  0
ARC
  5
FB4A
330
1F
100
AcDbEntity
  8
freecads.com
100
AcDbCircle
 10
32213.68031494597
 20
36838.23315288968
 30
0.0
 40
5718.506036002937
100
AcDbArc
 50
269.0296215219702
 51
270.2865448056913
  0
ARC
  5
FB4B
330
1F
100
AcDbEntity
  8
freecads.com
100
AcDbCircle
 10
32044.27330686848
 20
32282.29736644929
 30
0.0
 40
1164.013960197642
100
AcDbArc
 50
270.2865448056913
 51
273.573972997082
  0
ARC
  5
FB4C
330
1F
100
AcDbEntity
  8
freecads.com
100
AcDbCircle
 10
32017.6035413151
 20
31260.51488640727
 30
0.0
 40
145.8812122911199
100
AcDbArc
 50
273.573972997082
 51
282.8690380360919
  0
ARC
  5
FB4D
330
1F
100
AcDbEntity
  8
freecads.com
100
AcDbCircle
 10
32005.93653016948
 20
31155.16813565549
 30
0.0
 40
45.28945216353444
100
AcDbArc
 50
282.8690380360919
 51
297.2841172306144
  0
ARC
  5
FB4E
330
1F
100
AcDbEntity
  8
freecads.com
100
AcDbCircle
 10
32037.45676877405
 20
31037.34417073932
 30
0.0
 40
76.72654245508678
100
AcDbArc
 50
106.2211511473688
 51
117.2841172306144
  0
ARC
  5
FB4F
330
1F
100
AcDbEntity
  8
freecads.com
100
AcDbCircle
 10
32013.1287217573
 20
31018.72837920158
 30
0.0
 40
87.4807337156975
100
AcDbArc
 50
97.12039367110349
 51
106.2211511473688
  0
ARC
  5
FB50
330
1F
100
AcDbEntity
  8
freecads.com
100
AcDbCircle
 10
31987.42604441758
 20
31102.34699934293
 30
0.0
 40
1.32102331292266
100
AcDbArc
 50
16.69776590479804
 51
97.12039367110349
  0
ARC
  5
FB51
330
1F
100
AcDbEntity
  8
freecads.com
100
AcDbCircle
 10
31968.22649195928
 20
31107.01379844026
 30
0.0
 40
19.32936577007351
100
AcDbArc
 50
350.0016419577388
 51
16.69776590479804
  0
ARC
  5
FB52
330
1F
100
AcDbEntity
  8
freecads.com
100
AcDbCircle
 10
32307.32114525562
 20
31092.93275920712
 30
0.0
 40
321.1810663005845
100
AcDbArc
 50
170.0016419577388
 51
176.4951423299537
  0
ARC
  5
FB53
330
1F
100
AcDbEntity
  8
freecads.com
100
AcDbCircle
 10
45607.19207963662
 20
30422.00566057503
 30
0.0
 40
13635.55196031532
100
AcDbArc
 50
176.4951423299537
 51
176.9450421068579
  0
ARC
  5
FB54
330
1F
100
AcDbEntity
  8
freecads.com
100
AcDbCircle
 10
33361.81670740733
 20
31216.68255655599
 30
0.0
 40
1365.22743603607
100
AcDbArc
 50
176.9450421068579
 51
178.3669113583343
  0
ARC
  5
FB55
330
1F
100
AcDbEntity
  8
freecads.com
100
AcDbCircle
 10
32676.08358090182
 20
31329.324007294
 30
0.0
 40
678.7269722582457
100
AcDbArc
 50
178.3669113583343
 51
183.3687486009953
  0
ARC
  5
FB56
330
1F
100
AcDbEntity
  8
freecads.com
100
AcDbCircle
 10
32902.49336795203
 20
31470.7018109962
 30
0.0
 40
913.0531557024768
100
AcDbArc
 50
183.3687486009953
 51
187.6808967091866
  0
ARC
  5
FB57
330
1F
100
AcDbEntity
  8
freecads.com
100
AcDbCircle
 10
32184.93836287052
 20
31458.65550592638
 30
0.0
 40
198.3336164097875
100
AcDbArc
 50
187.6808967091866
 51
192.1094580307155
  0
ARC
  5
FB58
330
1F
100
AcDbEntity
  8
freecads.com
100
AcDbCircle
 10
31744.82660571629
 20
31397.33846445373
 30
0.0
 40
246.0324298296742
100
AcDbArc
 50
8.133482593858262
 51
12.10945803071548
  0
ARC
  5
FB59
330
1F
100
AcDbEntity
  8
freecads.com
100
AcDbCircle
 10
31954.86098376385
 20
31460.9260627963
 30
0.0
 40
32.78844727572733
100
AcDbArc
 50
338.5790157164649
 51
8.133482593858262
  0
ARC
  5
FB5A
330
1F
100
AcDbEntity
  8
freecads.com
100
AcDbCircle
 10
32001.78002751453
 20
31471.40453116075
 30
0.0
 40
15.59499963616461
100
AcDbArc
 50
158.5790157164649
 51
201.9903990696603
  0
ARC
  5
FB5B
330
1F
100
AcDbEntity
  8
freecads.com
100
AcDbCircle
 10
31986.38054864385
 20
31481.28681397569
 30
0.0
 40
4.278555704268701
100
AcDbArc
 50
201.9903990696603
 51
281.8930567867819
  0
ARC
  5
FB5C
330
1F
100
AcDbEntity
  8
freecads.com
100
AcDbCircle
 10
31980.22862037577
 20
31480.46107537588
 30
0.0
 40
2.318503280762332
100
AcDbArc
 50
340.4360326299335
 51
101.8930567867819
  0
ARC
  5
FB5D
330
1F
100
AcDbEntity
  8
freecads.com
100
AcDbCircle
 10
31978.481556338
 20
31485.90505058158
 30
0.0
 40
3.419526399010451
100
AcDbArc
 50
291.7883022289691
 51
340.4360326299335
  0
ARC
  5
FB5E
330
1F
100
AcDbEntity
  8
freecads.com
100
AcDbCircle
 10
31979.81984352917
 20
31509.79920080639
 30
0.0
 40
25.10997430044378
100
AcDbArc
 50
274.3025398214566
 51
291.7883022289691
  0
ARC
  5
FB5F
330
1F
100
AcDbEntity
  8
freecads.com
100
AcDbCircle
 10
32003.86193878329
 20
31511.32553074925
 30
0.0
 40
28.87700087184937
100
AcDbArc
 50
239.3487451216389
 51
274.3025398214566
  0
ARC
  5
FB60
330
1F
100
AcDbEntity
  8
freecads.com
100
AcDbCircle
 10
32001.08596254539
 20
31428.83650964135
 30
0.0
 40
53.92039297186392
100
AcDbArc
 50
59.34874512163887
 51
84.7408119787647
  0
ARC
  5
FB61
330
1F
100
AcDbEntity
  8
freecads.com
100
AcDbCircle
 10
32001.24885896183
 20
30654.88959162534
 30
0.0
 40
820.7889043864383
100
AcDbArc
 50
84.7408119787647
 51
88.09211325410755
  0
ARC
  5
FB62
330
1F
100
AcDbEntity
  8
freecads.com
100
AcDbCircle
 10
32091.4984814135
 20
29978.02692386679
 30
0.0
 40
1494.27168971778
100
AcDbArc
 50
88.09211325410755
 51
90.57574077332535
  0
ARC
  5
FB63
330
1F
100
AcDbEntity
  8
freecads.com
100
AcDbCircle
 10
32214.34309686991
 20
30601.32702469631
 30
0.0
 40
873.2080458158227
100
AcDbArc
 50
90.57574077332535
 51
94.80184567388091
  0
ARC
  5
FB64
330
1F
100
AcDbEntity
  8
freecads.com
100
AcDbCircle
 10
32218.40031038118
 20
31763.90923156354
 30
0.0
 40
289.7025545989886
100
AcDbArc
 50
267.4614144779265
 51
274.8018456738809
  0
ARC
  5
FB65
330
1F
100
AcDbEntity
  8
freecads.com
100
AcDbCircle
 10
32269.60840762148
 20
31625.19685801593
 30
0.0
 40
152.3768302813976
100
AcDbArc
 50
259.8101235032456
 51
267.4614144779265
  0
ARC
  5
FB66
330
1F
100
AcDbEntity
  8
freecads.com
100
AcDbCircle
 10
32206.73785693906
 20
30946.67136583079
 30
0.0
 40
529.2819795560268
100
AcDbArc
 50
79.81012350324563
 51
83.91330479803256
  0
ARC
  5
FB67
330
1F
100
AcDbEntity
  8
freecads.com
100
AcDbCircle
 10
32300.37357815126
 20
30418.62032243583
 30
0.0
 40
1048.984595397112
100
AcDbArc
 50
83.91330479803256
 51
90.0
  0
ARC
  5
FB68
330
1F
100
AcDbEntity
  8
freecads.com
100
AcDbCircle
 10
32501.26241405632
 20
30784.92018672617
 30
0.0
 40
682.6847311036983
100
AcDbArc
 50
90.0
 51
97.54685136002379
  0
ARC
  5
FB69
330
1F
100
AcDbEntity
  8
freecads.com
100
AcDbCircle
 10
32566.99182172996
 20
31234.45230482097
 30
0.0
 40
242.2405746093392
100
AcDbArc
 50
97.54685136002379
 51
105.7439835829678
  0
ARC
  5
FB6A
330
1F
100
AcDbEntity
  8
freecads.com
100
AcDbCircle
 10
32490.45997905886
 20
31776.06132519353
 30
0.0
 40
304.7651663592303
100
AcDbArc
 50
278.4371936819218
 51
285.7439835829678
  0
ARC
  5
FB6B
330
1F
100
AcDbEntity
  8
freecads.com
100
AcDbCircle
 10
32573.1547707819
 20
31643.86252822218
 30
0.0
 40
161.1327186373746
100
AcDbArc
 50
270.0
 51
278.4371936819218
  0
ARC
  5
FB6C
330
1F
100
AcDbEntity
  8
freecads.com
100
AcDbCircle
 10
32614.46765637628
 20
31573.12912613046
 30
0.0
 40
90.39931654700195
100
AcDbArc
 50
258.727623115894
 51
270.0
  0
ARC
  5
FB6D
330
1F
100
AcDbEntity
  8
freecads.com
100
AcDbCircle
 10
32626.20454053648
 20
31476.85740576484
 30
0.0
 40
13.12400763468531
100
AcDbArc
 50
153.4194789933484
 51
258.727623115894
  0
ARC
  5
FB6E
330
1F
100
AcDbEntity
  8
freecads.com
100
AcDbCircle
 10
32626.26200597696
 20
31429.90110253371
 30
0.0
 40
34.18623553405789
100
AcDbArc
 50
94.40020909498221
 51
153.4194789933484
  0
ARC
  5
FB6F
330
1F
100
AcDbEntity
  8
freecads.com
100
AcDbCircle
 10
33045.19770738352
 20
30478.65175960676
 30
0.0
 40
738.6663967830389
100
AcDbArc
 50
64.6889261573774
 51
66.51559171758771
  0
ARC
  5
FB70
330
1F
100
AcDbEntity
  8
freecads.com
100
AcDbCircle
 10
33088.38841577471
 20
30459.88587897507
 30
0.0
 40
738.6663968077241
100
AcDbArc
 50
66.51559171758771
 51
68.34225723564045
  0
ARC
  5
FB71
330
1F
100
AcDbEntity
  8
freecads.com
100
AcDbCircle
 10
33137.05010306239
 20
30440.76049420898
 30
0.0
 40
738.6663969358386
100
AcDbArc
 50
68.34225723564045
 51
70.57201839015407
  0
ARC
  5
FB72
330
1F
100
AcDbEntity
  8
freecads.com
100
AcDbCircle
 10
33191.25566555249
 20
30421.641941749
 30
0.0
 40
738.6663969404012
100
AcDbArc
 50
70.57201839015407
 51
72.8017791181249
  0
LINE
  5
FB73
330
1F
100
AcDbEntity
  8
freecads.com
100
AcDbLine
 10
32428.74727590141
 20
31030.04039473415
 30
0.0
 11
31810.66448458811
 21
30602.64271768838
 31
0.0
  0
ARC
  5
FB7F
330
1F
100
AcDbEntity
  8
freecads.com
100
AcDbCircle
 10
31830.66448458788
 20
29550.7409081464
 30
0.0
 40
20.0
100
AcDbArc
 50
180.0
 51
270.0
  0
LINE
  5
FB83
330
1F
100
AcDbEntity
  8
freecads.com
100
AcDbLine
 10
31810.66448458788
 20
29550.7409081464
 30
0.0
 11
31810.66448458788
 21
30602.64271768791
 31
0.0
  0
LINE
  5
FB84
330
1F
100
AcDbEntity
  8
freecads.com
100
AcDbLine
 10
33722.49052652792
 20
31010.04039473462
 30
0.0
 11
33722.49052652653
 21
29550.74090814593
 31
0.0
  0
LINE
  5
FB88
330
1F
100
AcDbEntity
  8
freecads.com
100
AcDbLine
 10
33177.02823023326
 20
29901.0520917408
 30
0.0
 11
33245.83516157654
 21
29897.61410015545
 31
0.0
  0
LINE
  5
FB89
330
1F
100
AcDbEntity
  8
freecads.com
100
AcDbLine
 10
33702.49052652653
 20
29530.74090814594
 30
0.0
 11
31830.66448458788
 21
29530.7409081464
 31
0.0
  0
LINE
  5
FBC6
330
1F
100
AcDbEntity
  8
freecads.com
100
AcDbLine
 10
33178.74850639238
 20
29966.37463804384
 30
0.0
 11
33273.35801249536
 21
30004.19296919185
 31
0.0
  0
LINE
  5
FBC7
330
1F
100
AcDbEntity
  8
freecads.com
100
AcDbLine
 10
32597.43801471734
 20
29878.30586937631
 30
0.0
 11
32561.42366998297
 21
29858.26539488722
 31
0.0
  0
LINE
  5
FBC9
330
1F
100
AcDbEntity
  8
freecads.com
100
AcDbLine
 10
33109.94137909546
 20
29873.54787658531
 30
0.0
 11
33078.9781718117
 21
29791.03508988189
 31
0.0
  0
LINE
  5
FBCA
330
1F
100
AcDbEntity
  8
freecads.com
100
AcDbLine
 10
32924.1625273008
 20
29854.63864039283
 30
0.0
 11
32874.27745798734
 21
29818.53944627431
 31
0.0
  0
LINE
  5
FBCB
330
1F
100
AcDbEntity
  8
freecads.com
100
AcDbLine
 10
32828.71140072801
 20
29860.52765925441
 30
0.0
 11
32840.48341740135
 21
29766.41531012513
 31
0.0
  0
LINE
  5
FBCC
330
1F
100
AcDbEntity
  8
freecads.com
100
AcDbLine
 10
32828.71140072801
 20
29860.52765925441
 30
0.0
 11
32779.29407252305
 21
29797.31604147938
 31
0.0
  0
LINE
  5
FBCD
330
1F
100
AcDbEntity
  8
freecads.com
100
AcDbLine
 10
32874.27745798734
 20
29818.53944627431
 30
0.0
 11
32862.23611273352
 21
29809.94432607436
 31
0.0
  0
LINE
  5
FBCE
330
1F
100
AcDbEntity
  8
freecads.com
100
AcDbLine
 10
32842.323211588
 20
29751.70692518007
 30
0.0
 11
32854.1566493451
 21
29657.10354017888
 31
0.0
  0
LINE
  5
FBCF
330
1F
100
AcDbEntity
  8
freecads.com
100
AcDbLine
 10
32714.06309739643
 20
29749.90743407563
 30
0.0
 11
32621.15838712271
 21
29749.90743407563
 31
0.0
  0
LINE
  5
FBD0
330
1F
100
AcDbEntity
  8
freecads.com
100
AcDbLine
 10
32779.29407252305
 20
29797.31604147938
 30
0.0
 11
32714.06309739643
 21
29749.90743407563
 31
0.0
  0
LINE
  5
FBD1
330
1F
100
AcDbEntity
  8
freecads.com
100
AcDbLine
 10
33099.6203100011
 20
29708.52244441587
 30
0.0
 11
33153.21689499242
 21
29645.95317131749
 31
0.0
  0
LINE
  5
FBD2
330
1F
100
AcDbEntity
  8
freecads.com
100
AcDbLine
 10
33078.9781718117
 20
29791.03508988189
 30
0.0
 11
33099.6203100011
 21
29708.52244441587
 31
0.0
  0
LINE
  5
FBD3
330
1F
100
AcDbEntity
  8
freecads.com
100
AcDbLine
 10
32905.80246408054
 20
29959.29569727325
 30
0.0
 11
32925.56947374382
 21
30048.18703035617
 31
0.0
  0
LINE
  5
FBD4
330
1F
100
AcDbEntity
  8
freecads.com
100
AcDbLine
 10
32656.63344796145
 20
30150.16685248635
 30
0.0
 11
32735.80669045405
 21
30046.21168936885
 31
0.0
  0
LINE
  5
FBD5
330
1F
100
AcDbEntity
  8
freecads.com
100
AcDbLine
 10
32828.71140072801
 20
29860.52765925441
 30
0.0
 11
32886.03565037067
 21
29902.01024369666
 31
0.0
  0
LINE
  5
FBD6
330
1F
100
AcDbEntity
  8
freecads.com
100
AcDbLine
 10
32810.92117041248
 20
29915.83777184392
 30
0.0
 11
32828.71140072801
 21
29860.52765925441
 31
0.0
  0
LINE
  5
FBD7
330
1F
100
AcDbEntity
  8
freecads.com
100
AcDbLine
 10
32886.03565037067
 20
29902.01024369666
 30
0.0
 11
32905.80246408054
 21
29959.29569727325
 31
0.0
  0
LINE
  5
FBD8
330
1F
100
AcDbEntity
  8
freecads.com
100
AcDbLine
 10
32700.22622982288
 20
29892.13339752381
 30
0.0
 11
32597.43801471734
 21
29878.30586937631
 31
0.0
  0
LINE
  5
FBD9
330
1F
100
AcDbEntity
  8
freecads.com
100
AcDbLine
 10
32828.71140072801
 20
29860.52765925441
 30
0.0
 11
32700.22622982288
 21
29892.13339752381
 31
0.0
  0
LINE
  5
FBDA
330
1F
100
AcDbEntity
  8
freecads.com
100
AcDbLine
 10
32735.80669045405
 20
30046.21168936885
 30
0.0
 11
32810.92117041248
 21
29915.83777184392
 31
0.0
  0
LINE
  5
FBDB
330
1F
100
AcDbEntity
  8
freecads.com
100
AcDbLine
 10
33053.17559705212
 20
30150.30930640621
 30
0.0
 11
33039.41417159295
 21
30047.16842895493
 31
0.0
  0
LINE
  5
FBDC
330
1F
100
AcDbEntity
  8
freecads.com
100
AcDbLine
 10
33109.94137909546
 20
29873.54787658531
 30
0.0
 11
33177.02823023326
 21
29901.0520917408
 31
0.0
  0
LINE
  5
FBDD
330
1F
100
AcDbEntity
  8
freecads.com
100
AcDbLine
 10
33109.94137909546
 20
29873.54787658531
 30
0.0
 11
33178.74850639238
 21
29966.37463804384
 31
0.0
  0
LINE
  5
FBDE
330
1F
100
AcDbEntity
  8
freecads.com
100
AcDbLine
 10
33065.21694230594
 20
29925.11831531095
 30
0.0
 11
33109.94137909546
 21
29873.54787658531
 31
0.0
  0
LINE
  5
FBDF
330
1F
100
AcDbEntity
  8
freecads.com
100
AcDbLine
 10
33109.94137909546
 20
29873.54787658531
 30
0.0
 11
32924.1625273008
 21
29854.63864039283
 31
0.0
  0
LINE
  5
FBE0
330
1F
100
AcDbEntity
  8
freecads.com
100
AcDbLine
 10
33039.41417159295
 20
30047.16842895493
 30
0.0
 11
33065.21694230594
 21
29925.11831531095
 31
0.0
  0
ARC
  5
FBE1
330
1F
100
AcDbEntity
  8
freecads.com
100
AcDbCircle
 10
33702.49052652653
 20
29550.74090814593
 30
0.0
 40
20.0
100
AcDbArc
 50
270.0
 51
0.0
  0
LINE
  5
FBE5
330
1F
100
AcDbEntity
  8
freecads.com
100
AcDbLine
 10
33273.35801249536
 20
30004.19296919185
 30
0.0
 11
33297.44050704924
 21
30000.75497760673
 31
0.0
  0
LINE
  5
FBE6
330
1F
100
AcDbEntity
  8
freecads.com
100
AcDbLine
 10
33245.83516157654
 20
29897.61410015545
 30
0.0
 11
33343.88521999799
 21
29880.42385975554
 31
0.0
  0
LINE
  5
FBE7
330
1F
100
AcDbEntity
  8
freecads.com
100
AcDbLine
 10
33343.88521999799
 20
29880.42385975554
 30
0.0
 11
33347.18493950393
 21
29873.9818684792
 31
0.0
  0
LINE
  5
FBE8
330
1F
100
AcDbEntity
  8
freecads.com
100
AcDbLine
 10
33702.49052652769
 20
30757.44051376128
 30
0.0
 11
32366.94869224882
 21
30757.44051376151
 31
0.0
  0
LINE
  5
FBE9
330
1F
100
AcDbEntity
  8
freecads.com
100
AcDbLine
 10
32428.74727590141
 20
31030.04039473415
 30
0.0
 11
33702.49052652793
 21
31030.04039473462
 31
0.0
  0
ARC
  5
FBF3
330
1F
100
AcDbEntity
  8
freecads.com
100
AcDbCircle
 10
33702.49052652769
 20
30777.44051376128
 30
0.0
 40
20.0
100
AcDbArc
 50
270.0
 51
0.0
  0
ARC
  5
FBF4
330
1F
100
AcDbEntity
  8
freecads.com
100
AcDbCircle
 10
33702.49052652793
 20
31010.04039473462
 30
0.0
 40
20.0
100
AcDbArc
 50
0.0
 51
90.0
  0
ARC
  5
FBF5
330
1F
100
AcDbEntity
  8
freecads.com
100
AcDbCircle
 10
32709.45995478376
 20
30797.44687909347
 30
0.0
 40
364.5536333701774
100
AcDbArc
 50
140.3554607326629
 51
159.8511602053667
  0
ARC
  5
FBF6
330
1F
100
AcDbEntity
  8
freecads.com
100
AcDbCircle
 10
32554.33452310926
 20
30854.36471196751
 30
0.0
 40
199.3158070371172
100
AcDbArc
 50
159.8511602053667
 51
186.3252995690327
  0
ARC
  5
FBF7
330
1F
100
AcDbEntity
  8
freecads.com
100
AcDbCircle
 10
33111.51259171123
 20
30916.12678223941
 30
0.0
 40
759.9065253470893
100
AcDbArc
 50
186.3252995690327
 51
190.1803606224957
  0
ARC
  5
FBF8
330
1F
100
AcDbEntity
  8
freecads.com
100
AcDbCircle
 10
31777.24766507685
 20
30676.52675537016
 30
0.0
 40
595.7007434894251
100
AcDbArc
 50
5.826045352477354
 51
10.18036062249572
  0
ARC
  5
FBF9
330
1F
100
AcDbEntity
  8
freecads.com
100
AcDbCircle
 10
31877.39498258445
 20
30686.74534544011
 30
0.0
 40
495.0334459842996
100
AcDbArc
 50
359.2313345006142
 51
5.826045352477354
  0
ARC
  5
FBFA
330
1F
100
AcDbEntity
  8
freecads.com
100
AcDbCircle
 10
31550.64525106509
 20
30691.12919913647
 30
0.0
 40
821.8125842737617
100
AcDbArc
 50
354.114148160141
 51
359.2313345006142
  0
ARC
  5
FBFB
330
1F
100
AcDbEntity
  8
freecads.com
100
AcDbCircle
 10
32991.95935162702
 20
30152.65908544578
 30
0.0
 40
116.5655863889806
100
AcDbArc
 50
253.3915350185082
 51
259.2633829309936
  0
ARC
  5
FBFC
330
1F
100
AcDbEntity
  8
freecads.com
100
AcDbCircle
 10
33857.5794316677
 20
33054.75777256394
 30
0.0
 40
3145.009892091583
100
AcDbArc
 50
250.9163807953698
 51
253.391535021518
  0
ARC
  5
FBFD
330
1F
100
AcDbEntity
  8
freecads.com
100
AcDbCircle
 10
34494.87191760854
 20
34896.85174840343
 30
0.0
 40
5094.228178600515
100
AcDbArc
 50
249.8713303723163
 51
250.9163807953206
  0
ARC
  5
FBFE
330
1F
100
AcDbEntity
  8
freecads.com
100
AcDbCircle
 10
33029.85987661641
 20
30899.7167418753
 30
0.0
 40
837.0755455998359
100
AcDbArc
 50
247.2930820889163
 51
249.8713303724875
  0
ARC
  5
FBFF
330
1F
100
AcDbEntity
  8
freecads.com
100
AcDbCircle
 10
32737.30652342552
 20
30200.58255964004
 30
0.0
 40
79.19952062411927
100
AcDbArc
 50
231.4146128511715
 51
247.2930820884596
  0
ARC
  5
FC00
330
1F
100
AcDbEntity
  8
freecads.com
100
AcDbCircle
 10
32650.4025305176
 20
30091.662845468
 30
0.0
 40
60.14109843097462
100
AcDbArc
 50
51.4146128494139
 51
69.65479024892464
  0
ARC
  5
FC01
330
1F
100
AcDbEntity
  8
freecads.com
100
AcDbCircle
 10
32659.05998910246
 20
30115.01036320553
 30
0.0
 40
35.24013110733771
100
AcDbArc
 50
69.65479024750935
 51
93.94835836018792
  0
ARC
  5
FC02
330
1F
100
AcDbEntity
  8
freecads.com
100
AcDbCircle
 10
32656.93874770007
 20
30145.7435740978
 30
0.0
 40
4.433801938868699
100
AcDbArc
 50
93.94835836289123
 51
166.719155627696
  0
ARC
  5
FC03
330
1F
100
AcDbEntity
  8
freecads.com
100
AcDbCircle
 10
32658.75090115299
 20
30145.31583883368
 30
0.0
 40
6.295751882647524
100
AcDbArc
 50
166.7191556272783
 51
233.4208230746421
  0
ARC
  5
FC04
330
1F
100
AcDbEntity
  8
freecads.com
100
AcDbCircle
 10
32646.5620421205
 20
30128.89105876882
 30
0.0
 40
14.15765088297498
100
AcDbArc
 50
10.40739422564502
 51
53.42082308168773
  0
ARC
  5
FC05
330
1F
100
AcDbEntity
  8
freecads.com
100
AcDbCircle
 10
32584.62178912562
 20
30117.51463196843
 30
0.0
 40
77.13397999014848
100
AcDbArc
 50
2.728618569035941
 51
10.40739422013116
  0
ARC
  5
FC06
330
1F
100
AcDbEntity
  8
freecads.com
100
AcDbCircle
 10
32646.39545473793
 20
30120.45872865714
 30
0.0
 40
15.29019721051739
100
AcDbArc
 50
345.4290944265576
 51
2.728618580721441
  0
ARC
  5
FC07
330
1F
100
AcDbEntity
  8
freecads.com
100
AcDbCircle
 10
32623.11309813507
 20
30126.5107051706
 30
0.0
 40
39.34626814287527
100
AcDbArc
 50
333.1820745462825
 51
345.4290944248388
  0
ARC
  5
FC08
330
1F
100
AcDbEntity
  8
freecads.com
100
AcDbCircle
 10
32344.09213723852
 20
30267.56391991324
 30
0.0
 40
351.9941627605502
100
AcDbArc
 50
329.094370139149
 51
333.182074542123
  0
ARC
  5
FC09
330
1F
100
AcDbEntity
  8
freecads.com
100
AcDbCircle
 10
32479.69349696621
 20
30186.39008256482
 30
0.0
 40
193.953279980599
100
AcDbArc
 50
320.2995305885813
 51
329.0943701392159
  0
ARC
  5
FC0A
330
1F
100
AcDbEntity
  8
freecads.com
100
AcDbCircle
 10
32691.2501756518
 20
30010.74941606771
 30
0.0
 40
81.01193968186247
100
AcDbArc
 50
140.2995305895889
 51
153.9265098210391
  0
ARC
  5
FC0B
330
1F
100
AcDbEntity
  8
freecads.com
100
AcDbCircle
 10
32794.99934630924
 20
29959.98273196178
 30
0.0
 40
196.5158211197523
100
AcDbArc
 50
153.9265098205501
 51
162.1604008135232
  0
ARC
  5
FC0C
330
1F
100
AcDbEntity
  8
freecads.com
100
AcDbCircle
 10
34514.64331752062
 20
29406.55414047252
 30
0.0
 40
2003.020344668321
100
AcDbArc
 50
162.160400813944
 51
164.7374578139181
  0
ARC
  5
FC0D
330
1F
100
AcDbEntity
  8
freecads.com
100
AcDbCircle
 10
34172.27249012557
 20
29499.97566257562
 30
0.0
 40
1648.132525430701
100
AcDbArc
 50
164.7374578126225
 51
166.1589958140334
  0
ARC
  5
FC0E
330
1F
100
AcDbEntity
  8
freecads.com
100
AcDbCircle
 10
32042.41926525027
 20
30024.73428092043
 30
0.0
 40
545.4140017801683
100
AcDbArc
 50
343.687761520423
 51
346.158995815771
  0
ARC
  5
FC0F
330
1F
100
AcDbEntity
  8
freecads.com
100
AcDbCircle
 10
32393.35833159612
 20
29922.0311400734
 30
0.0
 40
179.7554678615121
100
AcDbArc
 50
339.2227314449903
 51
343.687761519557
  0
ARC
  5
FC10
330
1F
100
AcDbEntity
  8
freecads.com
100
AcDbCircle
 10
30072.65610024674
 20
30802.52981134181
 30
0.0
 40
2661.878904899931
100
AcDbArc
 50
338.0627025336865
 51
339.2227314458807
  0
ARC
  5
FC11
330
1F
100
AcDbEntity
  8
freecads.com
100
AcDbCircle
 10
32471.74552747916
 20
29836.28747332506
 30
0.0
 40
75.51962289086931
100
AcDbArc
 50
314.9045278063216
 51
338.0627025336768
  0
ARC
  5
FC12
330
1F
100
AcDbEntity
  8
freecads.com
100
AcDbCircle
 10
32536.88147309081
 20
29770.93409260918
 30
0.0
 40
16.75039272482086
100
AcDbArc
 50
134.9045278050133
 51
185.3572434564892
  0
ARC
  5
FC13
330
1F
100
AcDbEntity
  8
freecads.com
100
AcDbCircle
 10
32525.98320396598
 20
29769.91210770939
 30
0.0
 40
5.804310181164878
100
AcDbArc
 50
185.3572434560693
 51
242.7041424652691
  0
ARC
  5
FC14
330
1F
100
AcDbEntity
  8
freecads.com
100
AcDbCircle
 10
32546.65804639158
 20
29809.97598794193
 30
0.0
 40
50.88827194819292
100
AcDbArc
 50
242.7041424682506
 51
261.3556518866321
  0
ARC
  5
FC15
330
1F
100
AcDbEntity
  8
freecads.com
100
AcDbCircle
 10
32548.00834722885
 20
29818.85793343852
 30
0.0
 40
59.87227262470604
100
AcDbArc
 50
261.3556518885236
 51
277.7840016556646
  0
ARC
  5
FC16
330
1F
100
AcDbEntity
  8
freecads.com
100
AcDbCircle
 10
32564.64925956696
 20
29697.12352280292
 30
0.0
 40
62.9942675570793
100
AcDbArc
 50
81.77065949558921
 51
97.78400165369777
  0
ARC
  5
FC17
330
1F
100
AcDbEntity
  8
freecads.com
100
AcDbCircle
 10
32512.12185640634
 20
29333.92617151482
 30
0.0
 40
429.9703486107161
100
AcDbArc
 50
73.64725022139087
 51
81.77065949659487
  0
ARC
  5
FC18
330
1F
100
AcDbEntity
  8
freecads.com
100
AcDbCircle
 10
32457.59791877782
 20
29148.10408684447
 30
0.0
 40
623.6265050472073
100
AcDbArc
 50
66.90379952904724
 51
73.6472502219409
  0
ARC
  5
FC19
330
1F
100
AcDbEntity
  8
freecads.com
100
AcDbCircle
 10
30411.99342202532
 20
24351.37005142828
 30
0.0
 40
5838.332169191074
100
AcDbArc
 50
66.54766513687487
 51
66.90379952828454
  0
ARC
  5
FC1A
330
1F
100
AcDbEntity
  8
freecads.com
100
AcDbCircle
 10
35164.02291511075
 20
35305.20058681064
 30
0.0
 40
6101.859944046831
100
AcDbArc
 50
246.5476651364221
 51
246.8960242426559
  0
ARC
  5
FC1B
330
1F
100
AcDbEntity
  8
freecads.com
100
AcDbCircle
 10
33560.82568264397
 20
31547.2798708479
 30
0.0
 40
2016.249894904715
100
AcDbArc
 50
246.8960242436822
 51
247.9812301572734
  0
ARC
  5
FC1C
330
1F
100
AcDbEntity
  8
freecads.com
100
AcDbCircle
 10
31643.74693708694
 20
26806.8151964602
 30
0.0
 40
3097.183026898813
100
AcDbArc
 50
67.10564451790649
 51
67.98123015617509
  0
ARC
  5
FC1D
330
1F
100
AcDbEntity
  8
freecads.com
100
AcDbCircle
 10
32834.70094281845
 20
29626.97323436435
 30
0.0
 40
35.86585899162524
100
AcDbArc
 50
1.15038844036181
 51
67.10564451778648
  0
ARC
  5
FC1E
330
1F
100
AcDbEntity
  8
freecads.com
100
AcDbCircle
 10
32883.28373170776
 20
29627.94881390298
 30
0.0
 40
12.72672410189402
100
AcDbArc
 50
181.1503884420295
 51
313.2094965957284
  0
ARC
  5
FC1F
330
1F
100
AcDbEntity
  8
freecads.com
100
AcDbCircle
 10
32844.29125379314
 20
29669.45779615344
 30
0.0
 40
69.67765861039257
100
AcDbArc
 50
313.2094965932004
 51
318.5232853799255
  0
ARC
  5
FC20
330
1F
100
AcDbEntity
  8
freecads.com
100
AcDbCircle
 10
32930.36206322219
 20
29593.37111384837
 30
0.0
 40
45.20213708912894
100
AcDbArc
 50
131.9246221612448
 51
138.5232853872647
  0
ARC
  5
FC21
330
1F
100
AcDbEntity
  8
freecads.com
100
AcDbCircle
 10
33155.74743065148
 20
29342.39208003268
 30
0.0
 40
382.5284468639448
100
AcDbArc
 50
130.61218329667
 51
131.9246221538314
  0
ARC
  5
FC22
330
1F
100
AcDbEntity
  8
freecads.com
100
AcDbCircle
 10
32476.81205813559
 20
30134.17876891449
 30
0.0
 40
660.4861267368906
100
AcDbArc
 50
310.6121832955537
 51
311.610975405809
  0
ARC
  5
FC23
330
1F
100
AcDbEntity
  8
freecads.com
100
AcDbCircle
 10
32770.90966709908
 20
29803.05643777343
 30
0.0
 40
217.6143599935851
100
AcDbArc
 50
311.6109754077889
 51
317.9183267783452
  0
ARC
  5
FC24
330
1F
100
AcDbEntity
  8
freecads.com
100
AcDbCircle
 10
32874.95698692162
 20
29709.10290506763
 30
0.0
 40
77.42480592426288
100
AcDbArc
 50
317.9183267778612
 51
328.502308574553
  0
ARC
  5
FC25
330
1F
100
AcDbEntity
  8
freecads.com
100
AcDbCircle
 10
32921.70777319858
 20
29680.45657739398
 30
0.0
 40
22.5955426910261
100
AcDbArc
 50
328.502308573665
 51
12.44506176832777
  0
ARC
  5
FC26
330
1F
100
AcDbEntity
  8
freecads.com
100
AcDbCircle
 10
32988.51491381761
 20
29695.20017156195
 30
0.0
 40
45.81913122240332
100
AcDbArc
 50
161.9796634497375
 51
192.4450617683278
  0
ARC
  5
FC27
330
1F
100
AcDbEntity
  8
freecads.com
100
AcDbCircle
 10
33901.04849535423
 20
29398.34190724455
 30
0.0
 40
1005.424449322289
100
AcDbArc
 50
160.6552149833138
 51
161.9796634506029
  0
ARC
  5
FC28
330
1F
100
AcDbEntity
  8
freecads.com
100
AcDbCircle
 10
33327.00487177311
 20
29992.8365446426
 30
0.0
 40
75.51962289105843
100
AcDbArc
 50
310.5086455144093
 51
333.6668202418275
  0
ARC
  5
FC29
330
1F
100
AcDbEntity
  8
freecads.com
100
AcDbCircle
 10
33411.43583558277
 20
29959.6178151392
 30
0.0
 40
16.75039272492571
100
AcDbArc
 50
130.5086455111734
 51
180.9613611624055
  0
ARC
  5
FC2A
330
1F
100
AcDbEntity
  8
freecads.com
100
AcDbCircle
 10
33403.6046923791
 20
29977.29208330477
 30
0.0
 40
5.804310180915118
100
AcDbArc
 50
180.9613611674087
 51
238.3082601766857
  0
ARC
  5
FC2B
330
1F
100
AcDbEntity
  8
freecads.com
100
AcDbCircle
 10
33409.28338239543
 20
30026.7706566395
 30
0.0
 40
50.88827194920982
100
AcDbArc
 50
238.3082601758237
 51
256.9597695940857
  0
ARC
  5
FC2C
330
1F
100
AcDbEntity
  8
freecads.com
100
AcDbCircle
 10
33379.01086604697
 20
30043.23811701233
 30
0.0
 40
59.87227262423113
100
AcDbArc
 50
256.9597695966166
 51
273.3881193637722
  0
ARC
  5
FC2D
330
1F
100
AcDbEntity
  8
freecads.com
100
AcDbCircle
 10
33351.73274058146
 20
29923.4387318229
 30
0.0
 40
62.99426755673339
100
AcDbArc
 50
77.37477720338155
 51
93.38811936156144
  0
ARC
  5
FC2E
330
1F
100
AcDbEntity
  8
freecads.com
100
AcDbCircle
 10
33195.68477690491
 20
29584.23884298981
 30
0.0
 40
429.9703486106078
100
AcDbArc
 50
69.25136792942189
 51
77.37477720464223
  0
ARC
  5
FC2F
330
1F
100
AcDbEntity
  8
freecads.com
100
AcDbCircle
 10
33001.78238275745
 20
29450.60953089035
 30
0.0
 40
623.6265050519944
100
AcDbArc
 50
62.50791723684351
 51
69.25136792968991
  0
ARC
  5
FC30
330
1F
100
AcDbEntity
  8
freecads.com
100
AcDbCircle
 10
30495.44842408284
 20
24871.60564138224
 30
0.0
 40
5838.33216905507
100
AcDbArc
 50
62.15178284465975
 51
62.50791723609637
  0
ARC
  5
FC31
330
1F
100
AcDbEntity
  8
freecads.com
100
AcDbCircle
 10
36008.08654165704
 20
35463.06484334449
 30
0.0
 40
6101.859944065004
100
AcDbArc
 50
242.1517828453843
 51
242.5001419515302
  0
ARC
  5
FC32
330
1F
100
AcDbEntity
  8
freecads.com
100
AcDbCircle
 10
34054.67670314243
 20
31873.62185821691
 30
0.0
 40
2016.249894923784
100
AcDbArc
 50
242.5001419505058
 51
243.5853478640031
  0
ARC
  5
FC33
330
1F
100
AcDbEntity
  8
freecads.com
100
AcDbCircle
 10
31703.62787604167
 20
27332.73184930758
 30
0.0
 40
3097.183026914331
100
AcDbArc
 50
62.70976222595254
 51
63.58534786416651
  0
ARC
  5
FC34
330
1F
100
AcDbEntity
  8
freecads.com
100
AcDbCircle
 10
33045.64546283398
 20
30108.59337145768
 30
0.0
 40
35.86585899130959
100
AcDbArc
 50
356.7545061484163
 51
62.70976222541406
  0
ARC
  5
FC35
330
1F
100
AcDbEntity
  8
freecads.com
100
AcDbCircle
 10
33054.11292220062
 20
30150.38371823344
 30
0.0
 40
12.7267241019426
100
AcDbArc
 50
176.7545061500871
 51
308.8136143038852
  0
ARC
  5
FC36
330
1F
100
AcDbEntity
  8
freecads.com
100
AcDbCircle
 10
32992.89310986384
 20
30201.11839436917
 30
0.0
 40
69.67765861201836
100
AcDbArc
 50
308.8136143046947
 51
314.1274030913411
  0
ARC
  5
FC37
330
1F
100
AcDbEntity
  8
freecads.com
100
AcDbCircle
 10
33064.10160043257
 20
30110.97886644379
 30
0.0
 40
45.20213708987595
100
AcDbArc
 50
127.5287398590869
 51
134.127403085203
  0
ARC
  5
FC38
330
1F
100
AcDbEntity
  8
freecads.com
100
AcDbCircle
 10
33258.64061569514
 20
29834.80367540426
 30
0.0
 40
382.5284468469844
100
AcDbArc
 50
126.2163010071828
 51
127.528739864212
  0
ARC
  5
FC39
330
1F
100
AcDbEntity
  8
freecads.com
100
AcDbCircle
 10
32626.15195316124
 20
30664.15879919907
 30
0.0
 40
660.4861267630383
100
AcDbArc
 50
306.2163010052457
 51
307.2150931153747
  0
ARC
  5
FC3A
330
1F
100
AcDbEntity
  8
freecads.com
100
AcDbCircle
 10
32866.53276079041
 20
30289.07689972433
 30
0.0
 40
217.6143599924166
100
AcDbArc
 50
307.2150931151256
 51
313.522444485708
  0
ARC
  5
FC3B
330
1F
100
AcDbEntity
  8
freecads.com
100
AcDbCircle
 10
32935.4254582724
 20
30161.16794730838
 30
0.0
 40
77.42480592353635
100
AcDbArc
 50
313.5224444859158
 51
324.1064262822943
  0
ARC
  5
FC3C
330
1F
100
AcDbEntity
  8
freecads.com
100
AcDbCircle
 10
32966.3702369968
 20
30101.86296268256
 30
0.0
 40
22.59554269119719
100
AcDbArc
 50
324.1064262812063
 51
8.049179475969996
  0
ARC
  5
FC3D
330
1F
100
AcDbEntity
  8
freecads.com
100
AcDbCircle
 10
33027.03200520837
 20
30071.14330968979
 30
0.0
 40
45.81913122208129
100
AcDbArc
 50
157.5837811581914
 51
188.0491794768174
  0
ARC
  5
FC3E
330
1F
100
AcDbEntity
  8
freecads.com
100
AcDbCircle
 10
33892.49594019019
 20
29638.9764781465
 30
0.0
 40
1005.424449332418
100
AcDbArc
 50
154.9471483435208
 51
157.5837811581715
  0
ARC
  5
FC3F
330
1F
100
AcDbEntity
  8
freecads.com
100
AcDbCircle
 10
34464.84981551856
 20
29254.2490084936
 30
0.0
 40
1686.84429892057
100
AcDbArc
 50
152.9116470014277
 51
154.947148343565
  0
ARC
  5
FC40
330
1F
100
AcDbEntity
  8
freecads.com
100
AcDbCircle
 10
34293.12578492833
 20
29187.44173875147
 30
0.0
 40
1565.247486251633
100
AcDbArc
 50
150.0640298577444
 51
152.91164700187
  0
ARC
  5
FC41
330
1F
100
AcDbEntity
  8
freecads.com
100
AcDbCircle
 10
32701.1899239456
 20
29981.30282319865
 30
0.0
 40
214.3256083171424
100
AcDbArc
 50
330.0640298572401
 51
337.7645185205599
  0
LINE
  5
FC42
330
1F
100
AcDbEntity
  8
freecads.com
100
AcDbLine
 10
32886.92098734624
 20
29874.34751258444
 30
0.0
 11
32863.89785390094
 21
29818.03076283218
 31
0.0
  0
LINE
  5
FC43
330
1F
100
AcDbEntity
  8
freecads.com
100
AcDbLine
 10
32863.89785390094
 20
29818.03076283218
 30
0.0
 11
32846.13714949161
 21
29774.58640943773
 31
0.0
  0
ARC
  5
FC44
330
1F
100
AcDbEntity
  8
freecads.com
100
AcDbCircle
 10
32852.94952759618
 20
29752.56113263702
 30
0.0
 40
23.05474601004094
100
AcDbArc
 50
107.1867432766377
 51
157.7645185210345
  0
ARC
  5
FC45
330
1F
100
AcDbEntity
  8
freecads.com
100
AcDbCircle
 10
32830.06075989573
 20
29756.88337577573
 30
0.0
 40
4.666400465996748
100
AcDbArc
 50
287.1867432751206
 51
70.62006876375047
  0
ARC
  5
FC46
330
1F
100
AcDbEntity
  8
freecads.com
100
AcDbCircle
 10
32832.12315891308
 20
29743.2474258386
 30
0.0
 40
9.203337923089947
100
AcDbArc
 50
70.62006876987405
 51
94.25931910962738
  0
ARC
  5
FC47
330
1F
100
AcDbEntity
  8
freecads.com
100
AcDbCircle
 10
32839.89359977312
 20
29785.564508246
 30
0.0
 40
33.96428995764912
100
AcDbArc
 50
262.0177589158465
 51
274.2593191049714
  0
ARC
  5
FC48
330
1F
100
AcDbEntity
  8
freecads.com
100
AcDbCircle
 10
32892.61911297545
 20
29940.62678752498
 30
0.0
 40
195.4889425360696
100
AcDbArc
 50
255.1193051651904
 51
262.0177589172914
  0
ARC
  5
FC49
330
1F
100
AcDbEntity
  8
freecads.com
100
AcDbCircle
 10
32841.50767413746
 20
29569.27993968179
 30
0.0
 40
179.3601563073571
100
AcDbArc
 50
75.11930516541703
 51
82.32164310345252
  0
ARC
  5
FC4A
330
1F
100
AcDbEntity
  8
freecads.com
100
AcDbCircle
 10
32893.1716090801
 20
29671.61998328003
 30
0.0
 40
71.22557111661435
100
AcDbArc
 50
82.32164310223891
 51
94.51183515694223
  0
ARC
  5
FC4B
330
1F
100
AcDbEntity
  8
freecads.com
100
AcDbCircle
 10
32912.0594842307
 20
29807.87586124329
 30
0.0
 40
66.33422977643561
100
AcDbArc
 50
261.8784316877569
 51
274.5118351580071
  0
ARC
  5
FC4C
330
1F
100
AcDbEntity
  8
freecads.com
100
AcDbCircle
 10
32959.05929467178
 20
29850.56737424993
 30
0.0
 40
116.5655863873971
100
AcDbArc
 50
248.9956527291219
 51
261.8784316865888
  0
ARC
  5
FC4D
330
1F
100
AcDbEntity
  8
freecads.com
100
AcDbCircle
 10
34195.62944860206
 20
32619.78236191997
 30
0.0
 40
3145.009892091936
100
AcDbArc
 50
246.5204985033577
 51
248.9956527294625
  0
ARC
  5
FC4E
330
1F
100
AcDbEntity
  8
freecads.com
100
AcDbCircle
 10
35182.86412624034
 20
34318.39288225393
 30
0.0
 40
5094.228178600682
100
AcDbArc
 50
245.4754480800429
 51
246.5204985029287
  0
ARC
  5
FC4F
330
1F
100
AcDbEntity
  8
freecads.com
100
AcDbCircle
 10
33534.57881507931
 20
30391.10990312128
 30
0.0
 40
837.0755456023267
100
AcDbArc
 50
242.8971997970571
 51
245.4754480807612
  0
ARC
  5
FC50
330
1F
100
AcDbEntity
  8
freecads.com
100
AcDbCircle
 10
33241.11787917256
 20
29687.49291205591
 30
0.0
 40
79.19952062415688
100
AcDbArc
 50
227.0187305595372
 51
242.8971997967787
  0
ARC
  5
FC51
330
1F
100
AcDbEntity
  8
freecads.com
100
AcDbCircle
 10
33179.86533044972
 20
29562.36960608629
 30
0.0
 40
60.14109843153661
100
AcDbArc
 50
47.01873055775064
 51
65.25890795710825
  0
ARC
  5
FC52
330
1F
100
AcDbEntity
  8
freecads.com
100
AcDbCircle
 10
33220.59183019774
 20
29571.12837112532
 30
0.0
 40
35.2401311076398
100
AcDbArc
 50
65.2589079553395
 51
89.55247606806553
  0
ARC
  5
FC53
330
1F
100
AcDbEntity
  8
freecads.com
100
AcDbCircle
 10
33239.56493797521
 20
29601.78744251544
 30
0.0
 40
4.433801938598611
100
AcDbArc
 50
89.55247607731482
 51
162.3232733419563
  0
ARC
  5
FC54
330
1F
100
AcDbEntity
  8
freecads.com
100
AcDbCircle
 10
33243.72788518134
 20
29610.97437096741
 30
0.0
 40
6.29575188248612
100
AcDbArc
 50
162.3232733332133
 51
229.0249407805528
  0
ARC
  5
FC55
330
1F
100
AcDbEntity
  8
freecads.com
100
AcDbCircle
 10
33223.64959168814
 20
29611.40334482479
 30
0.0
 40
14.1576508826596
100
AcDbArc
 50
6.011511932472846
 51
49.02494078876859
  0
ARC
  5
FC56
330
1F
100
AcDbEntity
  8
freecads.com
100
AcDbCircle
 10
33155.83186927909
 20
29624.33652528793
 30
0.0
 40
77.13397999443933
100
AcDbArc
 50
358.3327362783226
 51
6.011511929117931
  0
ARC
  5
FC57
330
1F
100
AcDbEntity
  8
freecads.com
100
AcDbCircle
 10
33218.08163113602
 20
29637.38425465787
 30
0.0
 40
15.29019720945673
100
AcDbArc
 50
341.0332121310989
 51
358.3327362854127
  0
ARC
  5
FC58
330
1F
100
AcDbEntity
  8
freecads.com
100
AcDbCircle
 10
33199.71487660566
 20
29657.32992396605
 30
0.0
 40
39.34626814217359
100
AcDbArc
 50
328.7861922554867
 51
341.0332121337861
  0
ARC
  5
FC59
330
1F
100
AcDbEntity
  8
freecads.com
100
AcDbCircle
 10
32949.65462375145
 20
29847.95169153693
 30
0.0
 40
351.994162758094
100
AcDbArc
 50
324.6984878473905
 51
328.7861922506386
  0
ARC
  5
FC5A
330
1F
100
AcDbEntity
  8
freecads.com
100
AcDbCircle
 10
33111.40235369223
 20
29800.50235552474
 30
0.0
 40
193.953279981444
100
AcDbArc
 50
315.9036482957844
 51
324.6984878463185
  0
ARC
  5
FC5B
330
1F
100
AcDbEntity
  8
freecads.com
100
AcDbCircle
 10
33339.51617676158
 20
29647.34144779065
 30
0.0
 40
81.01193968182156
100
AcDbArc
 50
135.9036482982874
 51
149.530627529775
  0
ARC
  5
FC5C
330
1F
100
AcDbEntity
  8
freecads.com
100
AcDbCircle
 10
33463.23798434707
 20
29629.35063572898
 30
0.0
 40
196.5158211200351
100
AcDbArc
 50
149.5306275287657
 51
157.7645185219048
  0
ARC
  5
FC5D
330
1F
100
AcDbEntity
  8
freecads.com
100
AcDbCircle
 10
35180.13504094027
 20
29055.15932576141
 30
0.0
 40
2003.020344670362
100
AcDbArc
 50
157.7645185214795
 51
160.3415755213233
  0
ARC
  5
FC5E
330
1F
100
AcDbEntity
  8
freecads.com
100
AcDbCircle
 10
34891.4145635383
 20
29297.35321952065
 30
0.0
 40
1648.132525428184
100
AcDbArc
 50
160.3415755213145
 51
161.7631135225291
  0
ARC
  5
FC5F
330
1F
100
AcDbEntity
  8
freecads.com
100
AcDbCircle
 10
32829.16665955466
 20
30044.66723685524
 30
0.0
 40
545.414001781378
100
AcDbArc
 50
339.2918792282549
 51
341.7631135234107
  0
ARC
  5
FC60
330
1F
100
AcDbEntity
  8
freecads.com
100
AcDbCircle
 10
33184.50148190068
 20
29950.44179816821
 30
0.0
 40
179.7554678608988
100
AcDbArc
 50
334.8268491540737
 51
339.2918792282917
  0
ARC
  5
FC61
330
1F
100
AcDbEntity
  8
freecads.com
100
AcDbCircle
 10
30966.988723437
 20
31067.66250754908
 30
0.0
 40
2661.878904900035
100
AcDbArc
 50
333.6668202414076
 51
334.82684915363
  0
ARC
  5
FC62
330
1F
100
AcDbEntity
  8
freecads.com
100
AcDbCircle
 10
32874.0787544882
 20
34352.90811917955
 30
0.0
 40
3780.066646521551
100
AcDbArc
 50
260.5049799422746
 51
262.3080044673033
  0
ARC
  5
FC63
330
1F
100
AcDbEntity
  8
freecads.com
100
AcDbCircle
 10
32677.42718049543
 20
33177.13687283526
 30
0.0
 40
2587.9635195716
100
AcDbArc
 50
258.3258629706449
 51
260.5049799422233
  0
ARC
  5
FC64
330
1F
100
AcDbEntity
  8
freecads.com
100
AcDbCircle
 10
32662.82188020105
 20
33106.4498761975
 30
0.0
 40
2515.783423351415
100
AcDbArc
 50
256.8095972311719
 51
258.3258629706194
  0
ARC
  5
FC65
330
1F
100
AcDbEntity
  8
freecads.com
100
AcDbCircle
 10
32044.44803578731
 20
30468.01170622602
 30
0.0
 40
194.1505589104206
100
AcDbArc
 50
76.80959723076603
 51
82.26961799539337
  0
ARC
  5
FC66
330
1F
100
AcDbEntity
  8
freecads.com
100
AcDbCircle
 10
32062.74441473322
 20
30602.79632528474
 30
0.0
 40
58.12978469802978
100
AcDbArc
 50
82.26961799539337
 51
100.7275607942499
  0
ARC
  5
FC67
330
1F
100
AcDbEntity
  8
freecads.com
100
AcDbCircle
 10
32808.49795655179
 20
26666.38711497556
 30
0.0
 40
4064.557846718101
100
AcDbArc
 50
100.7275607942499
 51
102.9255371048079
  0
ARC
  5
FC68
330
1F
100
AcDbEntity
  8
freecads.com
100
AcDbCircle
 10
32046.36780032349
 20
29987.21990447395
 30
0.0
 40
657.3929268998317
100
AcDbArc
 50
102.9255371048079
 51
105.9351885371047
  0
ARC
  5
FC69
330
1F
100
AcDbEntity
  8
freecads.com
100
AcDbCircle
 10
32369.72006558366
 20
28854.72322178489
 30
0.0
 40
1835.147325639488
100
AcDbArc
 50
105.9351885367147
 51
107.736385468534
  0
ENDSEC
  0
SECTION
  2
OBJECTS
  0
DICTIONARY
  5
C
330
0
100
AcDbDictionary
281
     1
  3
ACAD_ASSOCPERSSUBENTMANAGER
350
694D
  3
ACAD_BACKGROUND
350
8FB0
  3
ACAD_CIP_PREVIOUS_PRODUCT_INFO
350
1A5
  3
ACAD_COLOR
350
73
  3
ACAD_DETAILVIEWSTYLE
350
1AB
  3
ACAD_GROUP
350
D
  3
ACAD_LAYOUT
350
1A
  3
ACAD_MATERIAL
350
72
  3
ACAD_MLEADERSTYLE
350
D7
  3
ACAD_MLINESTYLE
350
17
  3
ACAD_PLOTSETTINGS
350
19
  3
ACAD_PLOTSTYLENAME
350
E
  3
ACAD_SCALELIST
350
B6
  3
ACAD_SECTIONVIEWSTYLE
350
1A8
  3
ACAD_TABLESTYLE
350
86
  3
ACAD_VISUALSTYLE
350
99
  3
ACAD_WIPEOUT_VARS
350
22E3
  3
ACDB_RECOMPOSE_DATA
350
FD11
  3
AcDbVariableDictionary
350
66
  3
AEC_PROPERTY_SET_DEFS
350
22E1
  0
DICTIONARY
  5
18E
330
2
100
AcDbDictionary
280
     1
281
     1
  3
ACAD_LAYERSTATES
360
18F
  0
DICTIONARY
  5
E6
330
10
100
AcDbDictionary
280
     1
281
     1
  0
DICTIONARY
  5
15D
330
1F
100
AcDbDictionary
280
     1
281
     1
  3
ACAD_SORTENTS
360
28E
  0
ACDBASSOCPERSSUBENTMANAGER
  5
694D
102
{ACAD_REACTORS
330
C
102
}
330
C
100
AcDbAssocPersSubentManager
 90
        2
 90
        3
 90
        0
 90
        2
 90
       51
 90
        0
 90
        0
 90
        0
 90
        0
290
     0
  0
DICTIONARY
  5
8FB0
102
{ACAD_REACTORS
330
C
102
}
330
C
100
AcDbDictionary
281
     1
  0
XRECORD
  5
1A5
102
{ACAD_REACTORS
330
C
102
}
330
C
100
AcDbXrecord
280
     1
300
ACD
300
2022
300

  0
DICTIONARY
  5
73
102
{ACAD_REACTORS
330
C
102
}
330
C
100
AcDbDictionary
281
     1
  0
DICTIONARY
  5
1AB
102
{ACAD_REACTORS
330
C
102
}
330
C
100
AcDbDictionary
281
     1
  3
Imperial24
350
1AC
  3
Metric50
350
224
  0
DICTIONARY
  5
D
102
{ACAD_REACTORS
330
C
102
}
330
C
100
AcDbDictionary
281
     1
  0
DICTIONARY
  5
1A
102
{ACAD_REACTORS
330
C
102
}
330
C
100
AcDbDictionary
281
     1
  3
Layout1
350
59
  3
Layout2
350
5E
  3
Model
350
22
  0
DICTIONARY
  5
72
102
{ACAD_REACTORS
330
C
102
}
330
C
100
AcDbDictionary
281
     1
  3
ByBlock
350
97
  3
ByLayer
350
96
  3
Global
350
98
  0
DICTIONARY
  5
D7
102
{ACAD_REACTORS
330
C
102
}
330
C
100
AcDbDictionary
281
     1
  3
Standard
350
D8
  0
DICTIONARY
  5
17
102
{ACAD_REACTORS
330
C
102
}
330
C
100
AcDbDictionary
281
     1
  3
Standard
350
18
  0
DICTIONARY
  5
19
102
{ACAD_REACTORS
330
C
102
}
330
C
100
AcDbDictionary
281
     1
  0
ACDBDICTIONARYWDFLT
  5
E
102
{ACAD_REACTORS
330
C
102
}
330
C
100
AcDbDictionary
281
     1
  3
Normal
350
F
100
AcDbDictionaryWithDefault
340
F
  0
DICTIONARY
  5
B6
102
{ACAD_REACTORS
330
C
102
}
330
C
100
AcDbDictionary
281
     1
  3
A0
350
B7
  3
A1
350
124
  3
A2
350
125
  3
A3
350
126
  3
A4
350
127
  3
A5
350
128
  3
A6
350
129
  3
A7
350
12A
  3
A8
350
12B
  3
A9
350
12C
  3
B0
350
12D
  3
B1
350
12E
  3
B2
350
12F
  3
B3
350
130
  3
B4
350
131
  3
B5
350
132
  3
B6
350
133
  3
B7
350
134
  3
B8
350
135
  3
B9
350
136
  3
C0
350
137
  3
C1
350
138
  3
C2
350
139
  3
C3
350
13A
  3
C4
350
13B
  3
C5
350
13C
  3
C6
350
13D
  3
C7
350
13E
  3
C8
350
13F
  3
C9
350
140
  3
D0
350
141
  3
D1
350
142
  3
D2
350
143
  0
DICTIONARY
  5
1A8
102
{ACAD_REACTORS
330
C
102
}
330
C
100
AcDbDictionary
281
     1
  3
Imperial24
350
1AA
  3
Metric50
350
223
  0
DICTIONARY
  5
86
102
{ACAD_REACTORS
330
C
102
}
330
C
100
AcDbDictionary
281
     1
  3
Standard
350
87
  0
DICTIONARY
  5
99
102
{ACAD_REACTORS
330
C
102
}
330
C
100
AcDbDictionary
281
     1
  3
2dWireframe
350
9F
  3
Basic
350
9E
  3
Brighten
350
A5
  3
ColorChange
350
A9
  3
Conceptual
350
A2
  3
Dim
350
A4
  3
EdgeColorOff
350
175
  3
Facepattern
350
A8
  3
Flat
350
9A
  3
FlatWithEdges
350
9B
  3
Gouraud
350
9C
  3
GouraudWithEdges
350
9D
  3
Hidden
350
A1
  3
JitterOff
350
173
  3
Linepattern
350
A7
  3
OverhangOff
350
174
  3
Realistic
350
A3
  3
Shaded
350
182
  3
Shaded with edges
350
181
  3
Shades of Gray
350
17E
  3
Sketchy
350
17F
  3
Thicken
350
A6
  3
Wireframe
350
A0
  3
X-Ray
350
180
  0
WIPEOUTVARIABLES
  5
22E3
102
{ACAD_REACTORS
330
C
102
}
330
C
100
AcDbWipeoutVariables
 70
     1
  0
XRECORD
  5
FD11
102
{ACAD_REACTORS
330
C
102
}
330
C
100
AcDbXrecord
280
     1
 90
        1
330
87
  0
DICTIONARY
  5
66
102
{ACAD_REACTORS
330
C
102
}
330
C
100
AcDbDictionary
281
     1
  3
CANNOSCALE
350
F0
  3
CMLEADERSTYLE
350
EF
  3
CTABLESTYLE
350
89
  3
CVIEWDETAILSTYLE
350
1B7
  3
CVIEWSECTIONSTYLE
350
1B8
  3
DIMASSOC
350
67
  3
HIDETEXT
350
6B
  3
LAYEREVAL
350
14D
  3
LAYERNOTIFY
350
14E
  0
DICTIONARY
  5
22E1
102
{ACAD_REACTORS
330
C
102
}
330
C
100
AcDbDictionary
281
     1
  0
DICTIONARY
  5
18F
102
{ACAD_REACTORS
330
18E
102
}
330
18E
100
AcDbDictionary
281
     1
  0
SORTENTSTABLE
  5
28E
102
{ACAD_REACTORS
330
15D
102
}
330
15D
100
AcDbSortentsTable
330
1F
331
FB7F
  5
FB87
331
FB83
  5
FBC7
331
FB84
  5
FBC9
331
FB88
  5
FBCD
331
FB89
  5
FBCE
331
FBC6
  5
FC12
331
FBC7
  5
FC13
331
FBC9
  5
FC41
331
FBCA
  5
FC42
331
FBCB
  5
FC43
331
FBCC
  5
FC44
331
FBCD
  5
FC45
331
FBCE
  5
FC46
331
FBCF
  5
FC47
331
FBD0
  5
FC48
331
FBD1
  5
FC49
331
FBD2
  5
FC4A
331
FBD3
  5
FC4B
331
FBD4
  5
FC4C
331
FBD5
  5
FC4D
331
FBD6
  5
FC4E
331
FBD7
  5
FC4F
331
FBD8
  5
FC50
331
FBD9
  5
FC51
331
FBDA
  5
FC52
331
FBDB
  5
FC53
331
FBDC
  5
FC54
331
FBDD
  5
FC55
331
FBDE
  5
FC56
331
FBDF
  5
FC57
331
FBE0
  5
FC58
331
FBE1
  5
FC59
331
FBE5
  5
FC5D
331
FBE6
  5
FC5E
331
FBE7
  5
FC5F
331
FBE8
  5
FC60
331
FBE9
  5
FC61
331
FBF3
  5
FC68
331
FBF4
  5
FC69
331
FBF5
  5
FC62
331
FBF6
  5
FC63
331
FBF7
  5
FC64
331
FBF8
  5
FC65
331
FBF9
  5
FC66
331
FBFA
  5
FC67
331
FBFB
  5
FC14
331
FBFC
  5
FC15
331
FBFD
  5
FC16
331
FBFE
  5
FC17
331
FBFF
  5
FC18
331
FC00
  5
FC19
331
FC01
  5
FC1A
331
FC02
  5
FC1B
331
FC03
  5
FC1C
331
FC04
  5
FC1D
331
FC05
  5
FC1E
331
FC06
  5
FC1F
331
FC07
  5
FC20
331
FC08
  5
FC21
331
FC09
  5
FC22
331
FC0A
  5
FC23
331
FC0B
  5
FC24
331
FC0C
  5
FC25
331
FC0D
  5
FC26
331
FC0E
  5
FC27
331
FC0F
  5
FC28
331
FC10
  5
FC29
331
FC11
  5
FC2A
331
FC12
  5
FC2B
331
FC13
  5
FC2C
331
FC14
  5
FC2D
331
FC15
  5
FC2E
331
FC16
  5
FC2F
331
FC17
  5
FC30
331
FC18
  5
FC31
331
FC19
  5
FC32
331
FC1A
  5
FC33
331
FC1B
  5
FC34
331
FC1C
  5
FC35
331
FC1D
  5
FC36
331
FC1E
  5
FC37
331
FC1F
  5
FC38
331
FC20
  5
FC39
331
FC21
  5
FC3A
331
FC22
  5
FC3B
331
FC23
  5
FC3C
331
FC24
  5
FC3D
331
FC25
  5
FC3E
331
FC26
  5
FC3F
331
FC27
  5
FC40
331
FC28
  5
FBCF
331
FC29
  5
FBD0
331
FC2A
  5
FBD1
331
FC2B
  5
FBD2
331
FC2C
  5
FBD3
331
FC2D
  5
FBD4
331
FC2E
  5
FBD5
331
FC2F
  5
FBD6
331
FC30
  5
FBD7
331
FC31
  5
FBD8
331
FC32
  5
FBD9
331
FC33
  5
FBDA
331
FC34
  5
FBDB
331
FC35
  5
FBDC
331
FC36
  5
FBDD
331
FC37
  5
FBDE
331
FC38
  5
FBDF
331
FC39
  5
FBE0
331
FC3A
  5
FBE1
331
FC3B
  5
FBE2
331
FC3C
  5
FBE3
331
FC3D
  5
FBE4
331
FC3E
  5
FBE5
331
FC3F
  5
FBE6
331
FC40
  5
FBE7
331
FC41
  5
FBE8
331
FC42
  5
FBE9
331
FC43
  5
FBF3
331
FC44
  5
FBF4
331
FC45
  5
FBF5
331
FC46
  5
FBF6
331
FC47
  5
FBF7
331
FC48
  5
FBF8
331
FC49
  5
FBF9
331
FC4A
  5
FBFA
331
FC4B
  5
FBFB
331
FC4C
  5
FBFC
331
FC4D
  5
FBFD
331
FC4E
  5
FBFE
331
FC4F
  5
FBFF
331
FC50
  5
FC00
331
FC51
  5
FC01
331
FC52
  5
FC02
331
FC53
  5
FC03
331
FC54
  5
FC04
331
FC55
  5
FC05
331
FC56
  5
FC06
331
FC57
  5
FC07
331
FC58
  5
FC08
331
FC59
  5
FC09
331
FC5A
  5
FC0A
331
FC5B
  5
FC0B
331
FC5C
  5
FC0C
331
FC5D
  5
FC0D
331
FC5E
  5
FC0E
331
FC5F
  5
FC0F
331
FC60
  5
FC10
331
FC61
  5
FC11
331
FC62
  5
FB7F
331
FC63
  5
FB80
331
FC64
  5
FB81
331
FC65
  5
FB82
331
FC66
  5
FB83
331
FC67
  5
FB84
331
FC68
  5
FB85
331
FC69
  5
FB86
  0
ACDBDETAILVIEWSTYLE
  5
1AC
102
{ACAD_REACTORS
330
1AB
102
}
330
1AB
100
AcDbModelDocViewStyle
 70
     0
  3
Imperial24
290
     0
300
Imperial24
 90
        0
100
AcDbDetailViewStyle
 70
     0
 71
     0
 90
        3
 71
     1
340
11
 62
   256
 40
0.24
340
0
 62
   256
 40
0.24
300

 40
0.36
280
     3
 71
     2
340
16
 90
       25
 62
   256
 71
     3
340
11
 62
   256
 40
0.24
 90
        1
 40
0.75
 90
        1
300
%<\AcVar ViewType \f "%tc1">% %<\AcVar ViewDetailId>%\PSCALE %<\AcVar ViewScale \f "%sn">%
 71
     4
340
16
 90
       25
 62
   256
340
16
 90
       25
 62
   256
280
     0
  0
ACDBDETAILVIEWSTYLE
  5
224
102
{ACAD_REACTORS
330
1AB
102
}
330
1AB
100
AcDbModelDocViewStyle
 70
     0
  3
Metric50
290
     0
300
Metric50
 90
        0
100
AcDbDetailViewStyle
 70
     0
 71
     0
 90
        3
 71
     1
340
11
 62
   256
 40
5.0
340
0
 62
   256
 40
5.0
300

 40
0.0
280
     1
 71
     2
340
16
 90
       25
 62
   256
 71
     3
340
11
 62
   256
 40
5.0
 90
        0
 40
15.0
 90
        1
300
%<\AcVar ViewDetailId>% (%<\AcVar ViewScale \f "%sn">%)
 71
     4
340
16
 90
       25
 62
   256
340
16
 90
       25
 62
   256
280
     0
  0
LAYOUT
  5
59
102
{ACAD_REACTORS
330
1A
102
}
330
1A
100
AcDbPlotSettings
  1

  2
None
  4

  6

 40
0.0
 41
0.0
 42
0.0
 43
0.0
 44
0.0
 45
0.0
 46
0.0
 47
0.0
 48
0.0
 49
0.0
140
0.0
141
0.0
142
1.0
143
1.0
 70
   688
 72
     0
 73
     0
 74
     5
  7

 75
    16
147
1.0
 76
     0
 77
     2
 78
   300
148
0.0
149
0.0
100
AcDbLayout
  1
Layout1
 70
     1
 71
     1
 10
0.0
 20
0.0
 11
12.0
 21
9.0
 12
0.0
 22
0.0
 32
0.0
 14
0.0
 24
0.0
 34
0.0
 15
0.0
 25
0.0
 35
0.0
146
0.0
 13
0.0
 23
0.0
 33
0.0
 16
1.0
 26
0.0
 36
0.0
 17
0.0
 27
1.0
 37
0.0
 76
     0
330
58
  0
LAYOUT
  5
5E
102
{ACAD_REACTORS
330
1A
102
}
330
1A
100
AcDbPlotSettings
  1

  2
None
  4

  6

 40
0.0
 41
0.0
 42
0.0
 43
0.0
 44
0.0
 45
0.0
 46
0.0
 47
0.0
 48
0.0
 49
0.0
140
0.0
141
0.0
142
1.0
143
1.0
 70
   688
 72
     0
 73
     0
 74
     5
  7

 75
    16
147
1.0
 76
     0
 77
     2
 78
   300
148
0.0
149
0.0
100
AcDbLayout
  1
Layout2
 70
     1
 71
     2
 10
0.0
 20
0.0
 11
12.0
 21
9.0
 12
0.0
 22
0.0
 32
0.0
 14
0.0
 24
0.0
 34
0.0
 15
0.0
 25
0.0
 35
0.0
146
0.0
 13
0.0
 23
0.0
 33
0.0
 16
1.0
 26
0.0
 36
0.0
 17
0.0
 27
1.0
 37
0.0
 76
     0
330
5D
  0
LAYOUT
  5
22
102
{ACAD_XDICTIONARY
360
194
102
}
102
{ACAD_REACTORS
330
1A
102
}
330
1A
100
AcDbPlotSettings
  1

  2
none_device
  4
ANSI_A_(8.50_x_11.00_Inches)
  6

 40
6.349999904632568
 41
19.04999923706055
 42
6.350006103515625
 43
19.04998779296875
 44
215.8999938964844
 45
279.3999938964844
 46
0.0
 47
0.0
 48
0.0
 49
0.0
140
0.0
141
0.0
142
1.0
143
2.584895464708373
 70
 11952
 72
     0
 73
     1
 74
     0
  7

 75
     0
147
0.3868628397755418
 76
     0
 77
     2
 78
   300
148
0.0
149
0.0
100
AcDbLayout
  1
Model
 70
     1
 71
     0
 10
0.0
 20
0.0
 11
12.0
 21
9.0
 12
0.0
 22
0.0
 32
0.0
 14
0.0
 24
0.0
 34
0.0
 15
0.0
 25
0.0
 35
0.0
146
0.0
 13
0.0
 23
0.0
 33
0.0
 16
1.0
 26
0.0
 36
0.0
 17
0.0
 27
1.0
 37
0.0
 76
     0
330
1F
331
94
  0
MATERIAL
  5
97
102
{ACAD_XDICTIONARY
360
188
102
}
102
{ACAD_REACTORS
330
72
102
}
330
72
100
AcDbMaterial
  1
ByBlock
 94
       63
  0
MATERIAL
  5
96
102
{ACAD_XDICTIONARY
360
186
102
}
102
{ACAD_REACTORS
330
72
102
}
330
72
100
AcDbMaterial
  1
ByLayer
 94
       63
  0
MATERIAL
  5
98
102
{ACAD_XDICTIONARY
360
110
102
}
102
{ACAD_REACTORS
330
72
102
}
330
72
100
AcDbMaterial
  1
Global
 43
0.0208000000566244
 43
0.0
 43
0.0
 43
0.0
 43
0.0
 43
0.0208000000566244
 43
0.0
 43
0.0
 43
0.0
 43
0.0
 43
1.0
 43
0.0
 43
0.0
 43
0.0
 43
0.0
 43
1.0
 49
0.0208000000566244
 49
0.0
 49
0.0
 49
0.0
 49
0.0
 49
0.0208000000566244
 49
0.0
 49
0.0
 49
0.0
 49
0.0
 49
1.0
 49
0.0
 49
0.0
 49
0.0
 49
0.0
 49
1.0
142
0.0208000000566244
142
0.0
142
0.0
142
0.0
142
0.0
142
0.0208000000566244
142
0.0
142
0.0
142
0.0
142
0.0
142
1.0
142
0.0
142
0.0
142
0.0
142
0.0
142
1.0
144
0.0208000000566244
144
0.0
144
0.0
144
0.0
144
0.0
144
0.0208000000566244
144
0.0
144
0.0
144
0.0
144
0.0
144
1.0
144
0.0
144
0.0
144
0.0
144
0.0
144
1.0
 94
       63
1001
ACAD
1070
    -1
1070
     3
1070
     0
1000

1071
        0
1070
     0
  0
MLEADERSTYLE
  5
D8
102
{ACAD_REACTORS
330
D7
102
}
330
D7
100
AcDbMLeaderStyle
179
     2
170
     2
171
     1
172
     0
 90
        2
 40
0.0
 41
0.0
173
     1
 91
-1056964608
340
14
 92
       -2
290
     1
 42
0.09
291
     1
 43
0.36
  3
Standard
 44
0.18
300

342
11
174
     1
178
     1
175
     1
176
     0
 93
-1056964608
 45
0.18
292
     0
297
     0
 46
0.18
 94
-1056964608
 47
1.0
 49
1.0
140
1.0
293
     1
141
0.0
294
     1
177
     0
142
1.0
295
     0
296
     0
143
0.125
271
     0
272
     9
273
     9
298
     0
  0
MLINESTYLE
  5
18
102
{ACAD_REACTORS
330
17
102
}
330
17
100
AcDbMlineStyle
  2
STANDARD
 70
     0
  3

 62
   256
 51
90.0
 52
90.0
 71
     2
 49
0.5
 62
   256
  6
BYLAYER
 49
-0.5
 62
   256
  6
BYLAYER
  0
ACDBPLACEHOLDER
  5
F
102
{ACAD_REACTORS
330
E
102
}
330
E
  0
SCALE
  5
B7
102
{ACAD_REACTORS
330
B6
102
}
330
B6
100
AcDbScale
 70
     0
300
1:1
140
1.0
141
1.0
290
     1
  0
SCALE
  5
124
102
{ACAD_REACTORS
330
B6
102
}
330
B6
100
AcDbScale
 70
     0
300
1:2
140
1.0
141
2.0
290
     0
  0
SCALE
  5
125
102
{ACAD_REACTORS
330
B6
102
}
330
B6
100
AcDbScale
 70
     0
300
1:4
140
1.0
141
4.0
290
     0
  0
SCALE
  5
126
102
{ACAD_REACTORS
330
B6
102
}
330
B6
100
AcDbScale
 70
     0
300
1:5
140
1.0
141
5.0
290
     0
  0
SCALE
  5
127
102
{ACAD_REACTORS
330
B6
102
}
330
B6
100
AcDbScale
 70
     0
300
1:8
140
1.0
141
8.0
290
     0
  0
SCALE
  5
128
102
{ACAD_REACTORS
330
B6
102
}
330
B6
100
AcDbScale
 70
     0
300
1:10
140
1.0
141
10.0
290
     0
  0
SCALE
  5
129
102
{ACAD_REACTORS
330
B6
102
}
330
B6
100
AcDbScale
 70
     0
300
1:16
140
1.0
141
16.0
290
     0
  0
SCALE
  5
12A
102
{ACAD_REACTORS
330
B6
102
}
330
B6
100
AcDbScale
 70
     0
300
1:20
140
1.0
141
20.0
290
     0
  0
SCALE
  5
12B
102
{ACAD_REACTORS
330
B6
102
}
330
B6
100
AcDbScale
 70
     0
300
1:30
140
1.0
141
30.0
290
     0
  0
SCALE
  5
12C
102
{ACAD_REACTORS
330
B6
102
}
330
B6
100
AcDbScale
 70
     0
300
1:40
140
1.0
141
40.0
290
     0
  0
SCALE
  5
12D
102
{ACAD_REACTORS
330
B6
102
}
330
B6
100
AcDbScale
 70
     0
300
1:50
140
1.0
141
50.0
290
     0
  0
SCALE
  5
12E
102
{ACAD_REACTORS
330
B6
102
}
330
B6
100
AcDbScale
 70
     0
300
1:100
140
1.0
141
100.0
290
     0
  0
SCALE
  5
12F
102
{ACAD_REACTORS
330
B6
102
}
330
B6
100
AcDbScale
 70
     0
300
2:1
140
2.0
141
1.0
290
     0
  0
SCALE
  5
130
102
{ACAD_REACTORS
330
B6
102
}
330
B6
100
AcDbScale
 70
     0
300
4:1
140
4.0
141
1.0
290
     0
  0
SCALE
  5
131
102
{ACAD_REACTORS
330
B6
102
}
330
B6
100
AcDbScale
 70
     0
300
8:1
140
8.0
141
1.0
290
     0
  0
SCALE
  5
132
102
{ACAD_REACTORS
330
B6
102
}
330
B6
100
AcDbScale
 70
     0
300
10:1
140
10.0
141
1.0
290
     0
  0
SCALE
  5
133
102
{ACAD_REACTORS
330
B6
102
}
330
B6
100
AcDbScale
 70
     0
300
100:1
140
100.0
141
1.0
290
     0
  0
SCALE
  5
134
102
{ACAD_REACTORS
330
B6
102
}
330
B6
100
AcDbScale
 70
     0
300
1/128" = 1'-0"
140
0.0078125
141
12.0
290
     0
  0
SCALE
  5
135
102
{ACAD_REACTORS
330
B6
102
}
330
B6
100
AcDbScale
 70
     0
300
1/64" = 1'-0"
140
0.015625
141
12.0
290
     0
  0
SCALE
  5
136
102
{ACAD_REACTORS
330
B6
102
}
330
B6
100
AcDbScale
 70
     0
300
1/32" = 1'-0"
140
0.03125
141
12.0
290
     0
  0
SCALE
  5
137
102
{ACAD_REACTORS
330
B6
102
}
330
B6
100
AcDbScale
 70
     0
300
1/16" = 1'-0"
140
0.0625
141
12.0
290
     0
  0
SCALE
  5
138
102
{ACAD_REACTORS
330
B6
102
}
330
B6
100
AcDbScale
 70
     0
300
3/32" = 1'-0"
140
0.09375
141
12.0
290
     0
  0
SCALE
  5
139
102
{ACAD_REACTORS
330
B6
102
}
330
B6
100
AcDbScale
 70
     0
300
1/8" = 1'-0"
140
0.125
141
12.0
290
     0
  0
SCALE
  5
13A
102
{ACAD_REACTORS
330
B6
102
}
330
B6
100
AcDbScale
 70
     0
300
3/16" = 1'-0"
140
0.1875
141
12.0
290
     0
  0
SCALE
  5
13B
102
{ACAD_REACTORS
330
B6
102
}
330
B6
100
AcDbScale
 70
     0
300
1/4" = 1'-0"
140
0.25
141
12.0
290
     0
  0
SCALE
  5
13C
102
{ACAD_REACTORS
330
B6
102
}
330
B6
100
AcDbScale
 70
     0
300
3/8" = 1'-0"
140
0.375
141
12.0
290
     0
  0
SCALE
  5
13D
102
{ACAD_REACTORS
330
B6
102
}
330
B6
100
AcDbScale
 70
     0
300
1/2" = 1'-0"
140
0.5
141
12.0
290
     0
  0
SCALE
  5
13E
102
{ACAD_REACTORS
330
B6
102
}
330
B6
100
AcDbScale
 70
     0
300
3/4" = 1'-0"
140
0.75
141
12.0
290
     0
  0
SCALE
  5
13F
102
{ACAD_REACTORS
330
B6
102
}
330
B6
100
AcDbScale
 70
     0
300
1" = 1'-0"
140
1.0
141
12.0
290
     0
  0
SCALE
  5
140
102
{ACAD_REACTORS
330
B6
102
}
330
B6
100
AcDbScale
 70
     0
300
1-1/2" = 1'-0"
140
1.5
141
12.0
290
     0
  0
SCALE
  5
141
102
{ACAD_REACTORS
330
B6
102
}
330
B6
100
AcDbScale
 70
     0
300
3" = 1'-0"
140
3.0
141
12.0
290
     0
  0
SCALE
  5
142
102
{ACAD_REACTORS
330
B6
102
}
330
B6
100
AcDbScale
 70
     0
300
6" = 1'-0"
140
6.0
141
12.0
290
     0
  0
SCALE
  5
143
102
{ACAD_REACTORS
330
B6
102
}
330
B6
100
AcDbScale
 70
     0
300
1'-0" = 1'-0"
140
12.0
141
12.0
290
     0
  0
ACDBSECTIONVIEWSTYLE
  5
1AA
102
{ACAD_REACTORS
330
1A8
102
}
330
1A8
100
AcDbModelDocViewStyle
 70
     0
  3
Imperial24
290
     0
300
Imperial24
 90
        0
100
AcDbSectionViewStyle
 70
     0
 71
     0
 90
       78
 71
     1
340
11
 62
   256
 40
0.24
340
0
340
0
 62
   256
 40
0.24
300
I, O, Q, S, X, Z
 40
0.48
 90
        3
 40
0.18
 90
        1
 71
     2
340
16
 90
       25
 62
   256
340
16
 90
       50
 62
   256
 40
0.24
 40
0.0
 40
0.24
 71
     3
340
11
 62
   256
 40
0.24
 90
        1
 40
0.75
 90
        1
300
%<\AcVar ViewType \f "%tc1">% %<\AcVar ViewSectionStartId>%-%<\AcVar ViewSectionEndId>%\PSCALE %<\AcVar ViewScale \f "%sn">%
 71
     4
 62
   256
 62
   257
300
ANSI31
 40
1.0
 90
        0
290
     0
290
     0
 90
        6
 40
0.0
 40
1.570796326794896
 40
0.2617993877991494
 40
1.308996938995747
 40
-0.2617993877991494
 40
1.832595714594046
  0
ACDBSECTIONVIEWSTYLE
  5
223
102
{ACAD_REACTORS
330
1A8
102
}
330
1A8
100
AcDbModelDocViewStyle
 70
     0
  3
Metric50
290
     0
300
Metric50
 90
        0
100
AcDbSectionViewStyle
 70
     0
 71
     0
 90
      102
 71
     1
340
11
 62
   256
 40
5.0
340
0
340
0
 62
   256
 40
5.0
300
I, O, Q, S, X, Z
 40
10.0
 90
        0
 40
2.5
 90
        0
 71
     2
340
16
 90
       25
 62
   256
340
16
 90
       50
 62
   256
 40
5.0
 40
2.5
 40
5.0
 71
     3
340
11
 62
   256
 40
5.0
 90
        0
 40
15.0
 90
        1
300
%<\AcVar ViewSectionStartId>%-%<\AcVar ViewSectionEndId>% (%<\AcVar ViewScale \f "%sn">%)
 71
     4
 62
   256
 62
   257
300
ANSI31
 40
1.0
 90
        0
290
     0
290
     0
 90
        6
 40
0.0
 40
1.570796326794896
 40
0.2617993877991494
 40
1.308996938995747
 40
-0.2617993877991494
 40
1.832595714594046
  0
TABLESTYLE
  5
87
102
{ACAD_XDICTIONARY
360
104
102
}
102
{ACAD_REACTORS
330
86
102
}
330
86
100
AcDbTableStyle
280
     0
  3
Standard
 70
     0
 71
     0
 40
0.06
 41
0.06
280
     0
281
     0
  7
Standard
140
0.18
170
     2
 62
     0
 63
     7
283
     0
 90
      512
 91
        0
  1

274
    -2
284
     1
 64
     0
275
    -2
285
     1
 65
     0
276
    -2
286
     1
 66
     0
277
    -2
287
     1
 67
     0
278
    -2
288
     1
 68
     0
279
    -2
289
     1
 69
     0
  7
Standard
140
0.25
170
     5
 62
     0
 63
     7
283
     0
 90
      512
 91
        0
  1

274
    -2
284
     1
 64
     0
275
    -2
285
     1
 65
     0
276
    -2
286
     1
 66
     0
277
    -2
287
     1
 67
     0
278
    -2
288
     1
 68
     0
279
    -2
289
     1
 69
     0
  7
Standard
140
0.18
170
     5
 62
     0
 63
     7
283
     0
 90
      512
 91
        0
  1

274
    -2
284
     1
 64
     0
275
    -2
285
     1
 65
     0
276
    -2
286
     1
 66
     0
277
    -2
287
     1
 67
     0
278
    -2
288
     1
 68
     0
279
    -2
289
     1
 69
     0
  0
VISUALSTYLE
  5
9F
102
{ACAD_REACTORS
330
99
102
}
330
99
100
AcDbVisualStyle
  2
2dWireframe
 70
     4
177
     3
291
     0
 70
    58
 90
        0
176
     1
 90
        2
176
     1
 90
        1
176
     1
 90
        0
176
     1
 40
0.6
176
     1
 40
30.0
176
     1
 62
     7
420
 16777215
176
     1
 90
        1
176
     1
 90
        4
176
     1
 62
     7
176
     1
 62
   257
176
     1
 90
        1
176
     1
 90
        1
176
     1
 40
1.0
176
     1
 90
        0
176
     1
 62
   257
176
     1
 40
1.0
176
     1
 90
        1
176
     1
 90
        6
176
     1
 90
        2
176
     1
 62
     7
176
     1
 90
        5
176
     1
 90
        0
176
     1
 90
        0
176
     1
290
     0
176
     1
 90
        1
176
     1
 40
0.0
176
     1
 90
        0
176
     1
290
     1
176
     1
290
     1
176
     1
290
     0
176
     1
290
     0
176
     1
290
     0
176
     1
290
     0
176
     1
290
     0
176
     1
290
     0
176
     1
290
     0
176
     1
 90
       50
176
     1
 40
0.0
176
     1
 40
1.0
176
     1
 90
        0
176
     1
 62
    18
420
        0
176
     1
 90
       50
176
     1
 90
        3
176
     1
 62
     5
420
      255
176
     1
290
     0
176
     1
 90
       50
176
     1
 90
       50
176
     1
 90
       50
176
     1
290
     0
176
     1
 90
       50
176
     1
 62
   256
176
     0
 40
1.0
176
     0
 90
        2
176
     1
  1
strokes_ogs.tif
176
     1
290
     0
176
     1
 40
1.0
176
     1
 40
1.0
176
     1
  0
VISUALSTYLE
  5
9E
102
{ACAD_REACTORS
330
99
102
}
330
99
100
AcDbVisualStyle
  2
Basic
 70
     7
177
     3
291
     1
 70
    58
 90
        1
176
     1
 90
        0
176
     1
 90
        1
176
     1
 90
        0
176
     1
 40
0.6
176
     1
 40
30.0
176
     1
 62
     7
420
 16777215
176
     1
 90
        0
176
     1
 90
        4
176
     1
 62
     7
176
     1
 62
   257
176
     1
 90
        1
176
     1
 90
        1
176
     1
 40
1.0
176
     1
 90
        8
176
     1
 62
     7
176
     1
 40
1.0
176
     1
 90
        1
176
     1
 90
        6
176
     1
 90
        2
176
     1
 62
     7
176
     1
 90
        5
176
     1
 90
        0
176
     1
 90
        0
176
     1
290
     0
176
     1
 90
        1
176
     1
 40
0.0
176
     1
 90
        0
176
     1
290
     0
176
     1
290
     1
176
     1
290
     1
176
     1
290
     0
176
     1
290
     0
176
     1
290
     0
176
     1
290
     0
176
     1
290
     0
176
     1
290
     0
176
     1
 90
       50
176
     1
 40
0.0
176
     1
 40
1.0
176
     1
 90
        0
176
     1
 62
    18
420
        0
176
     1
 90
       50
176
     1
 90
        3
176
     1
 62
     5
420
      255
176
     1
290
     0
176
     1
 90
       50
176
     1
 90
       50
176
     1
 90
       50
176
     1
290
     0
176
     1
 90
       50
176
     1
 62
   256
176
     0
 40
1.0
176
     0
 90
        2
176
     1
  1
strokes_ogs.tif
176
     1
290
     0
176
     1
 40
1.0
176
     1
 40
1.0
176
     1
  0
VISUALSTYLE
  5
A5
102
{ACAD_REACTORS
330
99
102
}
330
99
100
AcDbVisualStyle
  2
Brighten
 70
    12
177
     3
291
     1
 70
    58
 90
        2
176
     1
 90
        2
176
     1
 90
        1
176
     1
 90
        0
176
     1
 40
0.6
176
     1
 40
30.0
176
     1
 62
     7
420
 16777215
176
     1
 90
        1
176
     1
 90
        4
176
     1
 62
     7
176
     1
 62
   257
176
     1
 90
        1
176
     1
 90
        1
176
     1
 40
1.0
176
     1
 90
        8
176
     1
 62
     7
176
     1
 40
1.0
176
     1
 90
        1
176
     1
 90
        6
176
     1
 90
        2
176
     1
 62
     7
176
     1
 90
        5
176
     1
 90
        0
176
     1
 90
        0
176
     1
290
     0
176
     1
 90
        1
176
     1
 40
50.0
176
     1
 90
        0
176
     1
290
     0
176
     1
290
     1
176
     1
290
     1
176
     1
290
     0
176
     1
290
     0
176
     1
290
     0
176
     1
290
     0
176
     1
290
     0
176
     1
290
     0
176
     1
 90
       50
176
     1
 40
0.0
176
     1
 40
1.0
176
     1
 90
        0
176
     1
 62
    18
420
        0
176
     1
 90
       50
176
     1
 90
        3
176
     1
 62
     5
420
      255
176
     1
290
     0
176
     1
 90
       50
176
     1
 90
       50
176
     1
 90
       50
176
     1
290
     0
176
     1
 90
       50
176
     1
 62
   256
176
     0
 40
1.0
176
     0
 90
        2
176
     1
  1
strokes_ogs.tif
176
     1
290
     0
176
     1
 40
1.0
176
     1
 40
1.0
176
     1
  0
VISUALSTYLE
  5
A9
102
{ACAD_REACTORS
330
99
102
}
330
99
100
AcDbVisualStyle
  2
ColorChange
 70
    16
177
     3
291
     1
 70
    58
 90
        2
176
     1
 90
        2
176
     1
 90
        3
176
     1
 90
        0
176
     1
 40
0.6
176
     1
 40
30.0
176
     1
 62
     8
420
  8421504
176
     1
 90
        1
176
     1
 90
        4
176
     1
 62
     7
176
     1
 62
   257
176
     1
 90
        1
176
     1
 90
        1
176
     1
 40
1.0
176
     1
 90
        8
176
     1
 62
     8
420
  8421504
176
     1
 40
1.0
176
     1
 90
        1
176
     1
 90
        6
176
     1
 90
        2
176
     1
 62
     7
176
     1
 90
        5
176
     1
 90
        0
176
     1
 90
        0
176
     1
290
     0
176
     1
 90
        1
176
     1
 40
0.0
176
     1
 90
        0
176
     1
290
     0
176
     1
290
     1
176
     1
290
     1
176
     1
290
     0
176
     1
290
     0
176
     1
290
     0
176
     1
290
     0
176
     1
290
     0
176
     1
290
     0
176
     1
 90
       50
176
     1
 40
0.0
176
     1
 40
1.0
176
     1
 90
        0
176
     1
 62
    18
420
        0
176
     1
 90
       50
176
     1
 90
        3
176
     1
 62
     5
420
      255
176
     1
290
     0
176
     1
 90
       50
176
     1
 90
       50
176
     1
 90
       50
176
     1
290
     0
176
     1
 90
       50
176
     1
 62
   256
176
     0
 40
1.0
176
     0
 90
        2
176
     1
  1
strokes_ogs.tif
176
     1
290
     0
176
     1
 40
1.0
176
     1
 40
1.0
176
     1
  0
VISUALSTYLE
  5
A2
102
{ACAD_REACTORS
330
99
102
}
330
99
100
AcDbVisualStyle
  2
Conceptual
 70
     9
177
     3
291
     0
 70
    58
 90
        3
176
     1
 90
        2
176
     1
 90
        1
176
     1
 90
        0
176
     1
 40
0.6
176
     1
 40
30.0
176
     1
 62
     7
420
 16777215
176
     1
 90
        2
176
     1
 90
        2
176
     1
 62
     7
176
     1
 62
   257
176
     1
 90
        1
176
     1
 90
        1
176
     1
 40
40.0
176
     1
 90
        8
176
     1
 62
     7
176
     1
 40
1.0
176
     1
 90
        1
176
     1
 90
        6
176
     1
 90
        2
176
     1
 62
     7
176
     1
 90
        3
176
     1
 90
        0
176
     1
 90
        0
176
     1
290
     0
176
     1
 90
        1
176
     1
 40
0.0
176
     1
 90
        0
176
     1
290
     0
176
     1
290
     1
176
     1
290
     1
176
     1
290
     0
176
     1
290
     0
176
     1
290
     0
176
     1
290
     0
176
     1
290
     0
176
     1
290
     0
176
     1
 90
       50
176
     1
 40
0.0
176
     1
 40
1.0
176
     1
 90
        0
176
     1
 62
    18
420
        0
176
     1
 90
       50
176
     1
 90
        3
176
     1
 62
     5
420
      255
176
     1
290
     0
176
     1
 90
       50
176
     1
 90
       50
176
     1
 90
       50
176
     1
290
     0
176
     1
 90
       50
176
     1
 62
   256
176
     0
 40
1.0
176
     0
 90
        2
176
     1
  1
strokes_ogs.tif
176
     1
290
     0
176
     1
 40
1.0
176
     1
 40
1.0
176
     1
  0
VISUALSTYLE
  5
A4
102
{ACAD_REACTORS
330
99
102
}
330
99
100
AcDbVisualStyle
  2
Dim
 70
    11
177
     3
291
     1
 70
    58
 90
        2
176
     1
 90
        2
176
     1
 90
        1
176
     1
 90
        0
176
     1
 40
0.6
176
     1
 40
30.0
176
     1
 62
     7
420
 16777215
176
     1
 90
        1
176
     1
 90
        4
176
     1
 62
     7
176
     1
 62
   257
176
     1
 90
        1
176
     1
 90
        1
176
     1
 40
1.0
176
     1
 90
        8
176
     1
 62
     7
176
     1
 40
1.0
176
     1
 90
        1
176
     1
 90
        6
176
     1
 90
        2
176
     1
 62
     7
176
     1
 90
        5
176
     1
 90
        0
176
     1
 90
        0
176
     1
290
     0
176
     1
 90
        1
176
     1
 40
-50.0
176
     1
 90
        0
176
     1
290
     0
176
     1
290
     1
176
     1
290
     1
176
     1
290
     0
176
     1
290
     0
176
     1
290
     0
176
     1
290
     0
176
     1
290
     0
176
     1
290
     0
176
     1
 90
       50
176
     1
 40
0.0
176
     1
 40
1.0
176
     1
 90
        0
176
     1
 62
    18
420
        0
176
     1
 90
       50
176
     1
 90
        3
176
     1
 62
     5
420
      255
176
     1
290
     0
176
     1
 90
       50
176
     1
 90
       50
176
     1
 90
       50
176
     1
290
     0
176
     1
 90
       50
176
     1
 62
   256
176
     0
 40
1.0
176
     0
 90
        2
176
     1
  1
strokes_ogs.tif
176
     1
290
     0
176
     1
 40
1.0
176
     1
 40
1.0
176
     1
  0
VISUALSTYLE
  5
175
102
{ACAD_REACTORS
330
99
102
}
330
99
100
AcDbVisualStyle
  2
EdgeColorOff
 70
    22
177
     3
291
     1
 70
    58
 90
        2
176
     0
 90
        2
176
     0
 90
        0
176
     0
 90
        0
176
     0
 40
0.6
176
     0
 40
30.0
176
     0
 62
     7
420
 16777215
176
     0
 90
        1
176
     0
 90
        4
176
     0
 62
     7
176
     0
 62
   257
176
     0
 90
        1
176
     0
 90
        1
176
     0
 40
1.0
176
     0
 90
        8
176
     2
 62
     7
176
     0
 40
1.0
176
     0
 90
        1
176
     0
 90
        6
176
     0
 90
        2
176
     0
 62
     7
176
     0
 90
        5
176
     0
 90
        0
176
     0
 90
        0
176
     0
290
     0
176
     0
 90
        1
176
     0
 40
0.0
176
     0
 90
        0
176
     0
290
     0
176
     1
290
     1
176
     1
290
     1
176
     1
290
     0
176
     1
290
     0
176
     1
290
     0
176
     1
290
     0
176
     1
290
     0
176
     1
290
     0
176
     1
 90
       50
176
     1
 40
0.0
176
     1
 40
1.0
176
     1
 90
        0
176
     1
 62
    18
420
        0
176
     1
 90
       50
176
     1
 90
        3
176
     1
 62
     5
420
      255
176
     1
290
     0
176
     1
 90
       50
176
     1
 90
       50
176
     1
 90
       50
176
     1
290
     0
176
     1
 90
       50
176
     1
 62
   256
176
     0
 40
1.0
176
     0
 90
        2
176
     1
  1
strokes_ogs.tif
176
     1
290
     0
176
     1
 40
1.0
176
     1
 40
1.0
176
     1
  0
VISUALSTYLE
  5
A8
102
{ACAD_REACTORS
330
99
102
}
330
99
100
AcDbVisualStyle
  2
Facepattern
 70
    15
177
     3
291
     1
 70
    58
 90
        2
176
     1
 90
        2
176
     1
 90
        1
176
     1
 90
        0
176
     1
 40
0.6
176
     1
 40
30.0
176
     1
 62
     7
420
 16777215
176
     1
 90
        1
176
     1
 90
        4
176
     1
 62
     7
176
     1
 62
   257
176
     1
 90
        1
176
     1
 90
        1
176
     1
 40
1.0
176
     1
 90
        8
176
     1
 62
     7
176
     1
 40
1.0
176
     1
 90
        1
176
     1
 90
        6
176
     1
 90
        2
176
     1
 62
     7
176
     1
 90
        5
176
     1
 90
        0
176
     1
 90
        0
176
     1
290
     0
176
     1
 90
        1
176
     1
 40
0.0
176
     1
 90
        0
176
     1
290
     0
176
     1
290
     1
176
     1
290
     1
176
     1
290
     0
176
     1
290
     0
176
     1
290
     0
176
     1
290
     0
176
     1
290
     0
176
     1
290
     0
176
     1
 90
       50
176
     1
 40
0.0
176
     1
 40
1.0
176
     1
 90
        0
176
     1
 62
    18
420
        0
176
     1
 90
       50
176
     1
 90
        3
176
     1
 62
     5
420
      255
176
     1
290
     0
176
     1
 90
       50
176
     1
 90
       50
176
     1
 90
       50
176
     1
290
     0
176
     1
 90
       50
176
     1
 62
   256
176
     0
 40
1.0
176
     0
 90
        2
176
     1
  1
strokes_ogs.tif
176
     1
290
     0
176
     1
 40
1.0
176
     1
 40
1.0
176
     1
  0
VISUALSTYLE
  5
9A
102
{ACAD_REACTORS
330
99
102
}
330
99
100
AcDbVisualStyle
  2
Flat
 70
     0
177
     3
291
     1
 70
    58
 90
        2
176
     1
 90
        1
176
     1
 90
        1
176
     1
 90
        2
176
     1
 40
0.6
176
     1
 40
30.0
176
     1
 62
     7
420
 16777215
176
     1
 90
        0
176
     1
 90
        0
176
     1
 62
     7
176
     1
 62
   257
176
     1
 90
        1
176
     1
 90
        1
176
     1
 40
1.0
176
     1
 90
        8
176
     1
 62
     7
176
     1
 40
1.0
176
     1
 90
        1
176
     1
 90
        6
176
     1
 90
        2
176
     1
 62
     7
176
     1
 90
        5
176
     1
 90
        0
176
     1
 90
        0
176
     1
290
     0
176
     1
 90
       13
176
     1
 40
0.0
176
     1
 90
        0
176
     1
290
     0
176
     1
290
     1
176
     1
290
     1
176
     1
290
     0
176
     1
290
     0
176
     1
290
     0
176
     1
290
     0
176
     1
290
     0
176
     1
290
     0
176
     1
 90
       50
176
     1
 40
0.0
176
     1
 40
1.0
176
     1
 90
        0
176
     1
 62
    18
420
        0
176
     1
 90
       50
176
     1
 90
        3
176
     1
 62
     5
420
      255
176
     1
290
     0
176
     1
 90
       50
176
     1
 90
       50
176
     1
 90
       50
176
     1
290
     0
176
     1
 90
       50
176
     1
 62
   256
176
     0
 40
1.0
176
     0
 90
        2
176
     1
  1
strokes_ogs.tif
176
     1
290
     0
176
     1
 40
1.0
176
     1
 40
1.0
176
     1
  0
VISUALSTYLE
  5
9B
102
{ACAD_REACTORS
330
99
102
}
330
99
100
AcDbVisualStyle
  2
FlatWithEdges
 70
     1
177
     3
291
     1
 70
    58
 90
        2
176
     1
 90
        1
176
     1
 90
        1
176
     1
 90
        2
176
     1
 40
0.6
176
     1
 40
30.0
176
     1
 62
     7
420
 16777215
176
     1
 90
        1
176
     1
 90
        0
176
     1
 62
     7
176
     1
 62
   257
176
     1
 90
        1
176
     1
 90
        1
176
     1
 40
1.0
176
     1
 90
        0
176
     1
 62
   257
176
     1
 40
1.0
176
     1
 90
        1
176
     1
 90
        6
176
     1
 90
        2
176
     1
 62
     7
176
     1
 90
        5
176
     1
 90
        0
176
     1
 90
        0
176
     1
290
     0
176
     1
 90
       13
176
     1
 40
0.0
176
     1
 90
        0
176
     1
290
     0
176
     1
290
     1
176
     1
290
     1
176
     1
290
     0
176
     1
290
     0
176
     1
290
     0
176
     1
290
     0
176
     1
290
     0
176
     1
290
     0
176
     1
 90
       50
176
     1
 40
0.0
176
     1
 40
1.0
176
     1
 90
        0
176
     1
 62
    18
420
        0
176
     1
 90
       50
176
     1
 90
        3
176
     1
 62
     5
420
      255
176
     1
290
     0
176
     1
 90
       50
176
     1
 90
       50
176
     1
 90
       50
176
     1
290
     0
176
     1
 90
       50
176
     1
 62
   256
176
     0
 40
1.0
176
     0
 90
        2
176
     1
  1
strokes_ogs.tif
176
     1
290
     0
176
     1
 40
1.0
176
     1
 40
1.0
176
     1
  0
VISUALSTYLE
  5
9C
102
{ACAD_REACTORS
330
99
102
}
330
99
100
AcDbVisualStyle
  2
Gouraud
 70
     2
177
     3
291
     1
 70
    58
 90
        2
176
     1
 90
        2
176
     1
 90
        1
176
     1
 90
        2
176
     1
 40
0.6
176
     1
 40
30.0
176
     1
 62
     7
420
 16777215
176
     1
 90
        0
176
     1
 90
        0
176
     1
 62
     7
176
     1
 62
   257
176
     1
 90
        1
176
     1
 90
        1
176
     1
 40
1.0
176
     1
 90
        0
176
     1
 62
     7
176
     1
 40
1.0
176
     1
 90
        1
176
     1
 90
        6
176
     1
 90
        2
176
     1
 62
     7
176
     1
 90
        5
176
     1
 90
        0
176
     1
 90
        0
176
     1
290
     0
176
     1
 90
       13
176
     1
 40
0.0
176
     1
 90
        0
176
     1
290
     0
176
     1
290
     1
176
     1
290
     1
176
     1
290
     0
176
     1
290
     0
176
     1
290
     0
176
     1
290
     0
176
     1
290
     0
176
     1
290
     0
176
     1
 90
       50
176
     1
 40
0.0
176
     1
 40
1.0
176
     1
 90
        0
176
     1
 62
    18
420
        0
176
     1
 90
       50
176
     1
 90
        3
176
     1
 62
     5
420
      255
176
     1
290
     0
176
     1
 90
       50
176
     1
 90
       50
176
     1
 90
       50
176
     1
290
     0
176
     1
 90
       50
176
     1
 62
   256
176
     0
 40
1.0
176
     0
 90
        2
176
     1
  1
strokes_ogs.tif
176
     1
290
     0
176
     1
 40
1.0
176
     1
 40
1.0
176
     1
  0
VISUALSTYLE
  5
9D
102
{ACAD_REACTORS
330
99
102
}
330
99
100
AcDbVisualStyle
  2
GouraudWithEdges
 70
     3
177
     3
291
     1
 70
    58
 90
        2
176
     1
 90
        2
176
     1
 90
        1
176
     1
 90
        2
176
     1
 40
0.6
176
     1
 40
30.0
176
     1
 62
     7
420
 16777215
176
     1
 90
        1
176
     1
 90
        0
176
     1
 62
     7
176
     1
 62
   257
176
     1
 90
        1
176
     1
 90
        1
176
     1
 40
1.0
176
     1
 90
        0
176
     1
 62
   257
176
     1
 40
1.0
176
     1
 90
        1
176
     1
 90
        6
176
     1
 90
        2
176
     1
 62
     7
176
     1
 90
        5
176
     1
 90
        0
176
     1
 90
        0
176
     1
290
     0
176
     1
 90
       13
176
     1
 40
0.0
176
     1
 90
        0
176
     1
290
     0
176
     1
290
     1
176
     1
290
     1
176
     1
290
     0
176
     1
290
     0
176
     1
290
     0
176
     1
290
     0
176
     1
290
     0
176
     1
290
     0
176
     1
 90
       50
176
     1
 40
0.0
176
     1
 40
1.0
176
     1
 90
        0
176
     1
 62
    18
420
        0
176
     1
 90
       50
176
     1
 90
        3
176
     1
 62
     5
420
      255
176
     1
290
     0
176
     1
 90
       50
176
     1
 90
       50
176
     1
 90
       50
176
     1
290
     0
176
     1
 90
       50
176
     1
 62
   256
176
     0
 40
1.0
176
     0
 90
        2
176
     1
  1
strokes_ogs.tif
176
     1
290
     0
176
     1
 40
1.0
176
     1
 40
1.0
176
     1
  0
VISUALSTYLE
  5
A1
102
{ACAD_REACTORS
330
99
102
}
330
99
100
AcDbVisualStyle
  2
Hidden
 70
     6
177
     3
291
     0
 70
    58
 90
        1
176
     1
 90
        2
176
     1
 90
        2
176
     1
 90
        0
176
     1
 40
0.6
176
     1
 40
30.0
176
     1
 62
     7
420
 16777215
176
     1
 90
        2
176
     1
 90
        2
176
     1
 62
     7
176
     1
 62
   257
176
     1
 90
        2
176
     1
 90
        1
176
     1
 40
40.0
176
     1
 90
        0
176
     1
 62
   257
176
     1
 40
1.0
176
     1
 90
        1
176
     1
 90
        6
176
     1
 90
        2
176
     1
 62
     7
176
     1
 90
        3
176
     1
 90
        0
176
     1
 90
        0
176
     1
290
     0
176
     1
 90
        1
176
     1
 40
0.0
176
     1
 90
        0
176
     1
290
     0
176
     1
290
     1
176
     1
290
     1
176
     1
290
     0
176
     1
290
     0
176
     1
290
     0
176
     1
290
     0
176
     1
290
     0
176
     1
290
     0
176
     1
 90
       50
176
     1
 40
0.0
176
     1
 40
1.0
176
     1
 90
        0
176
     1
 62
    18
420
        0
176
     1
 90
       50
176
     1
 90
        3
176
     1
 62
     5
420
      255
176
     1
290
     0
176
     1
 90
       50
176
     1
 90
       50
176
     1
 90
       50
176
     1
290
     0
176
     1
 90
       50
176
     1
 62
   256
176
     0
 40
1.0
176
     0
 90
        2
176
     1
  1
strokes_ogs.tif
176
     1
290
     0
176
     1
 40
1.0
176
     1
 40
1.0
176
     1
  0
VISUALSTYLE
  5
173
102
{ACAD_REACTORS
330
99
102
}
330
99
100
AcDbVisualStyle
  2
JitterOff
 70
    20
177
     3
291
     1
 70
    58
 90
        2
176
     0
 90
        2
176
     0
 90
        0
176
     0
 90
        0
176
     0
 40
0.6
176
     0
 40
30.0
176
     0
 62
     7
420
 16777215
176
     0
 90
        1
176
     0
 90
        4
176
     0
 62
     7
176
     0
 62
   257
176
     0
 90
        1
176
     0
 90
        1
176
     0
 40
1.0
176
     0
 90
       10
176
     2
 62
     7
176
     0
 40
1.0
176
     0
 90
        1
176
     0
 90
        6
176
     0
 90
        2
176
     0
 62
     7
176
     0
 90
        5
176
     0
 90
        0
176
     0
 90
        0
176
     0
290
     0
176
     0
 90
        1
176
     0
 40
0.0
176
     0
 90
        0
176
     0
290
     0
176
     1
290
     1
176
     1
290
     1
176
     1
290
     0
176
     1
290
     0
176
     1
290
     0
176
     1
290
     0
176
     1
290
     0
176
     1
290
     0
176
     1
 90
       50
176
     1
 40
0.0
176
     1
 40
1.0
176
     1
 90
        0
176
     1
 62
    18
420
        0
176
     1
 90
       50
176
     1
 90
        3
176
     1
 62
     5
420
      255
176
     1
290
     0
176
     1
 90
       50
176
     1
 90
       50
176
     1
 90
       50
176
     1
290
     0
176
     1
 90
       50
176
     1
 62
   256
176
     0
 40
1.0
176
     0
 90
        2
176
     1
  1
strokes_ogs.tif
176
     1
290
     0
176
     1
 40
1.0
176
     1
 40
1.0
176
     1
  0
VISUALSTYLE
  5
A7
102
{ACAD_REACTORS
330
99
102
}
330
99
100
AcDbVisualStyle
  2
Linepattern
 70
    14
177
     3
291
     1
 70
    58
 90
        2
176
     1
 90
        2
176
     1
 90
        1
176
     1
 90
        0
176
     1
 40
0.6
176
     1
 40
30.0
176
     1
 62
     7
420
 16777215
176
     1
 90
        1
176
     1
 90
        4
176
     1
 62
     7
176
     1
 62
   257
176
     1
 90
        7
176
     1
 90
        7
176
     1
 40
1.0
176
     1
 90
        8
176
     1
 62
     7
176
     1
 40
1.0
176
     1
 90
        1
176
     1
 90
        6
176
     1
 90
        2
176
     1
 62
     7
176
     1
 90
        5
176
     1
 90
        0
176
     1
 90
        0
176
     1
290
     0
176
     1
 90
        1
176
     1
 40
0.0
176
     1
 90
        0
176
     1
290
     0
176
     1
290
     1
176
     1
290
     1
176
     1
290
     0
176
     1
290
     0
176
     1
290
     0
176
     1
290
     0
176
     1
290
     0
176
     1
290
     0
176
     1
 90
       50
176
     1
 40
0.0
176
     1
 40
1.0
176
     1
 90
        0
176
     1
 62
    18
420
        0
176
     1
 90
       50
176
     1
 90
        3
176
     1
 62
     5
420
      255
176
     1
290
     0
176
     1
 90
       50
176
     1
 90
       50
176
     1
 90
       50
176
     1
290
     0
176
     1
 90
       50
176
     1
 62
   256
176
     0
 40
1.0
176
     0
 90
        2
176
     1
  1
strokes_ogs.tif
176
     1
290
     0
176
     1
 40
1.0
176
     1
 40
1.0
176
     1
  0
VISUALSTYLE
  5
174
102
{ACAD_REACTORS
330
99
102
}
330
99
100
AcDbVisualStyle
  2
OverhangOff
 70
    21
177
     3
291
     1
 70
    58
 90
        2
176
     0
 90
        2
176
     0
 90
        0
176
     0
 90
        0
176
     0
 40
0.6
176
     0
 40
30.0
176
     0
 62
     7
420
 16777215
176
     0
 90
        1
176
     0
 90
        4
176
     0
 62
     7
176
     0
 62
   257
176
     0
 90
        1
176
     0
 90
        1
176
     0
 40
1.0
176
     0
 90
        9
176
     2
 62
     7
176
     0
 40
1.0
176
     0
 90
        1
176
     0
 90
        6
176
     0
 90
        2
176
     0
 62
     7
176
     0
 90
        5
176
     0
 90
        0
176
     0
 90
        0
176
     0
290
     0
176
     0
 90
        1
176
     0
 40
0.0
176
     0
 90
        0
176
     0
290
     0
176
     1
290
     1
176
     1
290
     1
176
     1
290
     0
176
     1
290
     0
176
     1
290
     0
176
     1
290
     0
176
     1
290
     0
176
     1
290
     0
176
     1
 90
       50
176
     1
 40
0.0
176
     1
 40
1.0
176
     1
 90
        0
176
     1
 62
    18
420
        0
176
     1
 90
       50
176
     1
 90
        3
176
     1
 62
     5
420
      255
176
     1
290
     0
176
     1
 90
       50
176
     1
 90
       50
176
     1
 90
       50
176
     1
290
     0
176
     1
 90
       50
176
     1
 62
   256
176
     0
 40
1.0
176
     0
 90
        2
176
     1
  1
strokes_ogs.tif
176
     1
290
     0
176
     1
 40
1.0
176
     1
 40
1.0
176
     1
  0
VISUALSTYLE
  5
A3
102
{ACAD_REACTORS
330
99
102
}
330
99
100
AcDbVisualStyle
  2
Realistic
 70
     8
177
     3
291
     0
 70
    58
 90
        2
176
     1
 90
        2
176
     1
 90
        0
176
     1
 90
        2
176
     1
 40
0.6
176
     1
 40
30.0
176
     1
 62
     7
420
 16777215
176
     1
 90
        0
176
     1
 90
        0
176
     1
 62
     7
176
     1
 62
   257
176
     1
 90
        1
176
     1
 90
        1
176
     1
 40
1.0
176
     1
 90
        8
176
     1
 62
   257
176
     1
 40
1.0
176
     1
 90
        1
176
     1
 90
        6
176
     1
 90
        2
176
     1
 62
     7
176
     1
 90
        3
176
     1
 90
        0
176
     1
 90
        0
176
     1
290
     0
176
     1
 90
       13
176
     1
 40
0.0
176
     1
 90
        0
176
     1
290
     0
176
     1
290
     1
176
     1
290
     1
176
     1
290
     0
176
     1
290
     0
176
     1
290
     0
176
     1
290
     0
176
     1
290
     0
176
     1
290
     0
176
     1
 90
       50
176
     1
 40
0.0
176
     1
 40
1.0
176
     1
 90
        0
176
     1
 62
    18
420
        0
176
     1
 90
       50
176
     1
 90
        3
176
     1
 62
     5
420
      255
176
     1
290
     0
176
     1
 90
       50
176
     1
 90
       50
176
     1
 90
       50
176
     1
290
     0
176
     1
 90
       50
176
     1
 62
   256
176
     0
 40
1.0
176
     0
 90
        2
176
     1
  1
strokes_ogs.tif
176
     1
290
     0
176
     1
 40
1.0
176
     1
 40
1.0
176
     1
  0
VISUALSTYLE
  5
182
102
{ACAD_REACTORS
330
99
102
}
330
99
100
AcDbVisualStyle
  2
Shaded
 70
    27
177
     3
291
     0
 70
    58
 90
        2
176
     1
 90
        2
176
     1
 90
        1
176
     1
 90
        2
176
     1
 40
0.6
176
     1
 40
30.0
176
     1
 62
     7
420
 16777215
176
     1
 90
        0
176
     1
 90
        4
176
     1
 62
     7
176
     1
 62
   257
176
     1
 90
        1
176
     1
 90
        1
176
     1
 40
1.0
176
     1
 90
        8
176
     1
 62
   257
176
     1
 40
1.0
176
     1
 90
        1
176
     1
 90
        6
176
     1
 90
        2
176
     1
 62
     8
420
  7895160
176
     1
 90
        3
176
     1
 90
        0
176
     1
 90
        0
176
     1
290
     0
176
     1
 90
        5
176
     1
 40
0.0
176
     1
 90
        0
176
     1
290
     0
176
     1
290
     1
176
     1
290
     1
176
     1
290
     0
176
     1
290
     0
176
     1
290
     0
176
     1
290
     0
176
     1
290
     0
176
     1
290
     0
176
     1
 90
       50
176
     1
 40
0.0
176
     1
 40
1.0
176
     1
 90
        0
176
     1
 62
    18
420
        0
176
     1
 90
       50
176
     1
 90
        3
176
     1
 62
     5
420
      255
176
     1
290
     0
176
     1
 90
       50
176
     1
 90
       50
176
     1
 90
       50
176
     1
290
     0
176
     1
 90
       50
176
     1
 62
   256
176
     0
 40
1.0
176
     0
 90
        2
176
     1
  1
strokes_ogs.tif
176
     1
290
     0
176
     1
 40
1.0
176
     1
 40
1.0
176
     1
  0
VISUALSTYLE
  5
181
102
{ACAD_REACTORS
330
99
102
}
330
99
100
AcDbVisualStyle
  2
Shaded with edges
 70
    26
177
     3
291
     0
 70
    58
 90
        2
176
     1
 90
        2
176
     1
 90
        1
176
     1
 90
        2
176
     1
 40
0.6
176
     1
 40
30.0
176
     1
 62
     7
420
 16777215
176
     1
 90
        1
176
     1
 90
        2
176
     1
 62
     7
176
     1
 62
   257
176
     1
 90
        2
176
     1
 90
        1
176
     1
 40
1.0
176
     1
 90
        8
176
     1
 62
   257
176
     1
 40
1.0
176
     1
 90
        1
176
     1
 90
        6
176
     1
 90
        2
176
     1
 62
     7
176
     1
 90
        3
176
     1
 90
        0
176
     1
 90
        0
176
     1
290
     0
176
     1
 90
        5
176
     1
 40
0.0
176
     1
 90
        0
176
     1
290
     0
176
     1
290
     1
176
     1
290
     1
176
     1
290
     0
176
     1
290
     0
176
     1
290
     0
176
     1
290
     0
176
     1
290
     0
176
     1
290
     0
176
     1
 90
       50
176
     1
 40
0.0
176
     1
 40
1.0
176
     1
 90
        0
176
     1
 62
    18
420
        0
176
     1
 90
       50
176
     1
 90
        3
176
     1
 62
     5
420
      255
176
     1
290
     0
176
     1
 90
       50
176
     1
 90
       50
176
     1
 90
       50
176
     1
290
     0
176
     1
 90
       50
176
     1
 62
   256
176
     0
 40
1.0
176
     0
 90
        2
176
     1
  1
strokes_ogs.tif
176
     1
290
     0
176
     1
 40
1.0
176
     1
 40
1.0
176
     1
  0
VISUALSTYLE
  5
17E
102
{ACAD_REACTORS
330
99
102
}
330
99
100
AcDbVisualStyle
  2
Shades of Gray
 70
    23
177
     3
291
     0
 70
    58
 90
        2
176
     1
 90
        2
176
     1
 90
        3
176
     1
 90
        0
176
     1
 40
0.6
176
     1
 40
30.0
176
     1
 62
     7
420
 16777215
176
     1
 90
        2
176
     1
 90
        2
176
     1
 62
     7
176
     1
 62
     7
176
     1
 90
        1
176
     1
 90
        1
176
     1
 40
40.0
176
     1
 90
        8
176
     1
 62
     7
176
     1
 40
1.0
176
     1
 90
        1
176
     1
 90
        6
176
     1
 90
        2
176
     1
 62
     7
176
     1
 90
        3
176
     1
 90
        0
176
     1
 90
        0
176
     1
290
     0
176
     1
 90
        1
176
     1
 40
0.0
176
     1
 90
        0
176
     1
290
     0
176
     1
290
     1
176
     1
290
     1
176
     1
290
     0
176
     1
290
     0
176
     1
290
     0
176
     1
290
     0
176
     1
290
     0
176
     1
290
     0
176
     1
 90
       50
176
     1
 40
0.0
176
     1
 40
1.0
176
     1
 90
        0
176
     1
 62
    18
420
        0
176
     1
 90
       50
176
     1
 90
        3
176
     1
 62
     5
420
      255
176
     1
290
     0
176
     1
 90
       50
176
     1
 90
       50
176
     1
 90
       50
176
     1
290
     0
176
     1
 90
       50
176
     1
 62
   256
176
     0
 40
1.0
176
     0
 90
        2
176
     1
  1
strokes_ogs.tif
176
     1
290
     0
176
     1
 40
1.0
176
     1
 40
1.0
176
     1
  0
VISUALSTYLE
  5
17F
102
{ACAD_REACTORS
330
99
102
}
330
99
100
AcDbVisualStyle
  2
Sketchy
 70
    24
177
     3
291
     0
 70
    58
 90
        1
176
     1
 90
        2
176
     1
 90
        2
176
     1
 90
        0
176
     1
 40
0.6
176
     1
 40
30.0
176
     1
 62
     7
420
 16777215
176
     1
 90
        2
176
     1
 90
        2
176
     1
 62
     7
176
     1
 62
     7
176
     1
 90
        1
176
     1
 90
        1
176
     1
 40
40.0
176
     1
 90
       11
176
     1
 62
     7
176
     1
 40
1.0
176
     1
 90
        1
176
     1
 90
        6
176
     1
 90
        2
176
     1
 62
     7
176
     1
 90
        6
176
     1
 90
        0
176
     1
 90
        0
176
     1
290
     0
176
     1
 90
        1
176
     1
 40
0.0
176
     1
 90
        0
176
     1
290
     0
176
     1
290
     1
176
     1
290
     1
176
     1
290
     0
176
     1
290
     0
176
     1
290
     0
176
     1
290
     0
176
     1
290
     0
176
     1
290
     0
176
     1
 90
       50
176
     1
 40
0.0
176
     1
 40
1.0
176
     1
 90
        0
176
     1
 62
    18
420
        0
176
     1
 90
       50
176
     1
 90
        3
176
     1
 62
     5
420
      255
176
     1
290
     0
176
     1
 90
       50
176
     1
 90
       50
176
     1
 90
       50
176
     1
290
     0
176
     1
 90
       50
176
     1
 62
   256
176
     0
 40
1.0
176
     0
 90
        2
176
     1
  1
strokes_ogs.tif
176
     1
290
     0
176
     1
 40
1.0
176
     1
 40
1.0
176
     1
  0
VISUALSTYLE
  5
A6
102
{ACAD_REACTORS
330
99
102
}
330
99
100
AcDbVisualStyle
  2
Thicken
 70
    13
177
     3
291
     1
 70
    58
 90
        2
176
     1
 90
        2
176
     1
 90
        1
176
     1
 90
        0
176
     1
 40
0.6
176
     1
 40
30.0
176
     1
 62
     7
420
 16777215
176
     1
 90
        1
176
     1
 90
        4
176
     1
 62
     7
176
     1
 62
   257
176
     1
 90
        1
176
     1
 90
        1
176
     1
 40
1.0
176
     1
 90
       12
176
     1
 62
     7
176
     1
 40
1.0
176
     1
 90
        1
176
     1
 90
        6
176
     1
 90
        2
176
     1
 62
     7
176
     1
 90
        5
176
     1
 90
        0
176
     1
 90
        0
176
     1
290
     0
176
     1
 90
        1
176
     1
 40
0.0
176
     1
 90
        0
176
     1
290
     0
176
     1
290
     1
176
     1
290
     1
176
     1
290
     0
176
     1
290
     0
176
     1
290
     0
176
     1
290
     0
176
     1
290
     0
176
     1
290
     0
176
     1
 90
       50
176
     1
 40
0.0
176
     1
 40
1.0
176
     1
 90
        0
176
     1
 62
    18
420
        0
176
     1
 90
       50
176
     1
 90
        3
176
     1
 62
     5
420
      255
176
     1
290
     0
176
     1
 90
       50
176
     1
 90
       50
176
     1
 90
       50
176
     1
290
     0
176
     1
 90
       50
176
     1
 62
   256
176
     0
 40
1.0
176
     0
 90
        2
176
     1
  1
strokes_ogs.tif
176
     1
290
     0
176
     1
 40
1.0
176
     1
 40
1.0
176
     1
  0
VISUALSTYLE
  5
A0
102
{ACAD_REACTORS
330
99
102
}
330
99
100
AcDbVisualStyle
  2
Wireframe
 70
     5
177
     3
291
     0
 70
    58
 90
        0
176
     1
 90
        2
176
     1
 90
        0
176
     1
 90
        0
176
     1
 40
0.6
176
     1
 40
30.0
176
     1
 62
     7
420
 16777215
176
     1
 90
        1
176
     1
 90
        4
176
     1
 62
     7
176
     1
 62
   257
176
     1
 90
        1
176
     1
 90
        1
176
     1
 40
1.0
176
     1
 90
        0
176
     1
 62
   257
176
     1
 40
1.0
176
     1
 90
        1
176
     1
 90
        6
176
     1
 90
        2
176
     1
 62
     7
176
     1
 90
        3
176
     1
 90
        0
176
     1
 90
        0
176
     1
290
     0
176
     1
 90
        1
176
     1
 40
0.0
176
     1
 90
        0
176
     1
290
     0
176
     1
290
     1
176
     1
290
     1
176
     1
290
     0
176
     1
290
     0
176
     1
290
     0
176
     1
290
     0
176
     1
290
     0
176
     1
290
     0
176
     1
 90
       50
176
     1
 40
0.0
176
     1
 40
1.0
176
     1
 90
        0
176
     1
 62
    18
420
        0
176
     1
 90
       50
176
     1
 90
        3
176
     1
 62
     5
420
      255
176
     1
290
     0
176
     1
 90
       50
176
     1
 90
       50
176
     1
 90
       50
176
     1
290
     0
176
     1
 90
       50
176
     1
 62
   256
176
     0
 40
1.0
176
     0
 90
        2
176
     1
  1
strokes_ogs.tif
176
     1
290
     0
176
     1
 40
1.0
176
     1
 40
1.0
176
     1
  0
VISUALSTYLE
  5
180
102
{ACAD_REACTORS
330
99
102
}
330
99
100
AcDbVisualStyle
  2
X-Ray
 70
    25
177
     3
291
     0
 70
    58
 90
        2
176
     1
 90
        2
176
     1
 90
        1
176
     1
 90
        1
176
     1
 40
0.5
176
     1
 40
30.0
176
     1
 62
     7
420
 16777215
176
     1
 90
        1
176
     1
 90
        0
176
     1
 62
     7
176
     1
 62
   257
176
     1
 90
        1
176
     1
 90
        1
176
     1
 40
1.0
176
     1
 90
        8
176
     1
 62
     7
176
     1
 40
1.0
176
     1
 90
        1
176
     1
 90
        6
176
     1
 90
        2
176
     1
 62
     7
176
     1
 90
        3
176
     1
 90
        0
176
     1
 90
        0
176
     1
290
     0
176
     1
 90
       13
176
     1
 40
0.0
176
     1
 90
        0
176
     1
290
     0
176
     1
290
     1
176
     1
290
     1
176
     1
290
     0
176
     1
290
     0
176
     1
290
     0
176
     1
290
     0
176
     1
290
     0
176
     1
290
     0
176
     1
 90
       50
176
     1
 40
0.0
176
     1
 40
1.0
176
     1
 90
        0
176
     1
 62
    18
420
        0
176
     1
 90
       50
176
     1
 90
        3
176
     1
 62
     5
420
      255
176
     1
290
     0
176
     1
 90
       50
176
     1
 90
       50
176
     1
 90
       50
176
     1
290
     0
176
     1
 90
       50
176
     1
 62
   256
176
     0
 40
1.0
176
     0
 90
        2
176
     1
  1
strokes_ogs.tif
176
     1
290
     0
176
     1
 40
1.0
176
     1
 40
1.0
176
     1
  0
DICTIONARYVAR
  5
F0
102
{ACAD_REACTORS
330
66
102
}
330
66
100
DictionaryVariables
280
     0
  1
1:1
  0
DICTIONARYVAR
  5
EF
102
{ACAD_REACTORS
330
66
102
}
330
66
100
DictionaryVariables
280
     0
  1
STANDARD
  0
DICTIONARYVAR
  5
89
102
{ACAD_REACTORS
330
66
102
}
330
66
100
DictionaryVariables
280
     0
  1
STANDARD
  0
DICTIONARYVAR
  5
1B7
102
{ACAD_REACTORS
330
66
102
}
330
66
100
DictionaryVariables
280
     0
  1
Imperial24
  0
DICTIONARYVAR
  5
1B8
102
{ACAD_REACTORS
330
66
102
}
330
66
100
DictionaryVariables
280
     0
  1
Imperial24
  0
DICTIONARYVAR
  5
67
102
{ACAD_REACTORS
330
66
102
}
330
66
100
DictionaryVariables
280
     0
  1
2
  0
DICTIONARYVAR
  5
6B
102
{ACAD_REACTORS
330
66
102
}
330
66
100
DictionaryVariables
280
     0
  1
1
  0
DICTIONARYVAR
  5
14D
102
{ACAD_REACTORS
330
66
102
}
330
66
100
DictionaryVariables
280
     0
  1
0
  0
DICTIONARYVAR
  5
14E
102
{ACAD_REACTORS
330
66
102
}
330
66
100
DictionaryVariables
280
     0
  1
0
  0
DICTIONARY
  5
194
330
22
100
AcDbDictionary
280
     1
281
     1
  0
DICTIONARY
  5
188
330
97
100
AcDbDictionary
280
     1
281
     1
  3
FBXASSET
360
189
  0
DICTIONARY
  5
186
330
96
100
AcDbDictionary
280
     1
281
     1
  3
FBXASSET
360
187
  0
DICTIONARY
  5
110
330
98
100
AcDbDictionary
280
     1
281
     1
  3
BUMPTILE
360
112
  3
DIFFUSETILE
360
111
  3
FBXASSET
360
18A
  3
OPACITYTILE
360
113
  3
REFLECTIONTILE
360
114
  0
DICTIONARY
  5
104
330
87
100
AcDbDictionary
280
     1
281
     1
  3
ACAD_ROUNDTRIP_2008_TABLESTYLE_CELLSTYLEMAP
360
FD10
  0
XRECORD
  5
189
102
{ACAD_REACTORS
330
188
102
}
330
188
100
AcDbXrecord
280
     1
 70
     1
 90
429727718
  1
508B35C9-AEE7-456F-BE74-D52651303AC6
310
504B03040A0000080000B670623B3DEE336E79000000790000001B0000006175746F6465736B2D64657369676E2D7061636B6167652E786D6C3C3F786D6C2076657273696F6E3D22312E302220656E636F64696E673D227574662D3822203F3E3C666F726D6174733E3C666F726D61743E687474703A2F2F736368656D612E
310
6175746F6465736B2E636F6D2F64657369676E2D7061636B6167652F323030393C2F666F726D61743E3C2F666F726D6174733E504B0304140006080800B670623BD486FD9CA0000000F4000000130000005B436F6E74656E745F54797065735D2E786D6C7D8EC10E82300C865F65E91D8A1E8C310C0EEA1BF002731658846E
310
D98AC1B77784ABF1D8FE5FBFBF75BBCE937A534CCEB38643598122B6FEE978D0B0485F9C41B54DDD7D022595594E1A469170414C76A4D9A4D207E29CF43ECE46F218070CC6BECC4078ACAA135ACF422C856C0E68EA1BF5669944DDD7BCDE7B1F8E415D77AECB980613C2E4AC91FC167A2B244592486606FC29C8FD7F045B9A
310
EF7053A7E60B504B0304140006080800B670623B28ED286BEB0000007C01000008000000636F72652E786D6C8D90416EC3201045AF82665B6183218D6D61A254764FD00B204C5C94182C03558F5F9C3852BBEB6A467FFE9B197D71FA9E6FE8CBACC17AD7012D0820E3B41FAD9B3A48F1826B40272956EFE32F1B20A766D3C1
310
268314D3EAD3B24BDABB685CCCAAF3A3D94515828980F42D371D04FD696655A814B3235C8B45E9AB9A4C419F5D8653B2237A1CB163DE672FD6AC209BF3C08E0D1B30EB19C3FC9D72FCC6EB231EFA33EDE96BDD341517E5064B11EDFCBCAF57A3A2194156843498524CAA0FCA5B7268F9E185D42D21A2DCEC7FA0B48CFF8492
310
759155FBBB0F2C80A4F991FB408A72CB22977B50B96EB9C91F504B0304140006080800B670623B55019EA25F0000007C00000007000000636E782E786D6C4DCB3B0E80201045D1AD90E915ED2CF8AC45050C11660C8261F98AB1B07AC9C97D42D718D865D3E909258CFD00CCE24AC6E326A164D74DC0B4128928FF32603847
310
2BA13128B1252AC747C6BAB984FC68F0B87FE8960A5C09FE86CFB69FBA01504B0304140006080800B670623B7BC41AC871010000D40300000C0000006662782F636F72652E786D6CC553ED6E8320147D15C2DF4501B56B6D90A64BBB27D80B50A5CE54C120983EFEAE1F4DD7A56BBA5FF3879273EEE59E7310BE393735EA95
310
ED2AA333CC428A91D2B9292A5D66D8BB63B0C26823B835C67D2BC348CB46657880B1E0A535BE9DA1DC68A7B403549B42CDA0EC3AE530CA6B5864B8CB3F552343E91D5474A7B095F949962A6421D0502778E72C0840D390E18DC5F170E664C205F7BE2A66B62A605A75AC94C522DDEEE3651AEF837817C741F2CE92E02D592D
310
83FD6ECB76EC7595A651C2C9D02CB8AB9A8BBADC2AE954814544691A3016D0E883256BBA58278B17BA5A53CAC9507ED3E4DBE2C9265F691747B3DCA9ADC382819091F8E1162272A8933DE82182932144F88C09DF060D8140C84E1EEA8B8F1340BDCA9DB1093085F157AA97B557309586747CD0EF0B4EA64E983A6E0EAEEFCE
310
889E9EF17847386AA94B30211D2C0FDE0D3AF9A4610EAD5536E8DD1969631B593F67E381C33F5157F17725E5A636F6BF1491F980C8FC7B90E13E8A2F504B0304140006080800B670623B70102A487D0000009D0000000B0000006662782F636E782E786D6C4DCCD10A83201886E15B91FFDC95A5C30335ACCDFB886521330D
310
A76397BF1A1DECE883878F57749FD5A3B74D2F17830472A901D9F088930B8B849267CC01754AA418F3DF0D5018572BE160506249B16C274D761E8BCFBB7A179E27F65CB39A0F14D396184C9921B81F34C3ACA1B4B99ABB6E6F062A25AA5F69DF23ACBE504B0304140006080800B670623B3610CA3329010000120200003100
310
00006662782F42384135303843342D343331462D343546312D424341352D3532343432364645413344462F636F72652E786D6C8D515B6EC32010BC0AE22B55850D0E446E848992B43E412FE000495162B07854397EA176A4F62F3F2C9A9D991D58BEBB8F37F0AD7D30CE76905418026DA553C65E3A98E219B510EC04F7CEC5
310
3F3408EC30EA0E16180A7EF12E4D0B249D8DDAC68C5AA7F4020E21E80881BCE54B0783FCD2E3500D296646B856D320AFC34557A4CAEDCC133C449F0380794839A138B47B86DB2345744D7A44594FD0E1B867883594369BFE63BF7EEF793D0B054FC9A8456E548E63CE46FB674D8A58F068C6477CE9F510B582A2C1F80D1182
310
70F349E816B32D65AFB8DD62CCEB42FF274A937A52948C8DEB66893BCB021484D7734370E5D2E9F608A3EF93F3119479ABA0E50B14B8C298119A43CCC4FCFCECB8A18B6388CEE7EF5D5D4F994BD86CBBA182D76543B9FCAE2FD7B24DF103504B0304140006080800B670623B1B8617914E0100003303000030000000666278
310
2F42384135303843342D343331462D343546312D424341352D3532343432364645413344462F636E782E786D6CD593C16EC32010447F0571AD6CE3D489D20813A9877E410FBD62D82434182CC055F3F75D1292E692438FBD206B7698593D61BEFD1E2DF982108D773D6D6B460938E5B571FB9ECE6957AD29D90A1EBC4F7736
310
4A9C1CA1A759A682EF839FA72269D8C9D92654AD71C72206887E0E0A22CAF926B15E498B01E0AA19451807D01A34B919F16B070157417138917400F2F6FA41FCF0092A45DEE414C19BDC21783E4BD39D891265658C3D8DEA00A3ACE59CBC8678ACB54CB26EEB6BD7839D7E9348BE70AD9C8321B9BCA7F9A4A26C542347DEE0
310
50F09802D22BA6749A800A394DD62899107273365E3C82CFC6A55557BC06C10774B7ABE7AEC3B0F34CF06446280E154026D0542C187BA9DAB6628BF7B6DBB0E5A65B3EB1F58631DE64BBE083F7B65CC218087E22CABB042E51D1F2268F1FE12B3EA24D40D63E9CFE00120194D60B9D5BC67FE6D39CDF37E20AF817881F504B
310
0304140006080800B670623BBFEF2E3B690500003C100000340000006662782F42384135303843342D343331462D343546312D424341352D3532343432364645413344462F6F626A656374732E786D6CAD575D739B3814FD2B0CFB0C98D84E931D4227B6938EA793B6534F3BFB90198F0099B001899144EAECAFDF231018B0
310
D37A3FFC609090EEE7B94757C1FB7D915B2F54C88CB31BDB7727B64559CC938CA53776A576CE956DBD0F03C1B9EA2DB32D460A7A63EB693B0C52C1ABD24C257447AA5C8D66EF177F5832A68CDA569C13296F6C193FD182B8A4523CA1F2D94D88226EBADBBBBEDB2C1C8A4D05299F46424B222853B014F30C52ACC6287F389C
310
D85E1878FA7B18E87FB36AFAF62AAFF667A83F635211161F291B8999FAB3D5DDC5FCDA99CF6653677679E13B8BFBC5CAF1DF4D27CBCBE5F2FAF6EE1A8AA51290642C117467871F101B91C581D77CEA2C36869F3229E68CD1B8F61F1ED6361B89092D294B90C78C4A68EB793D190E7D1D9BDEE7A91E1B95FDE9F3BCEAEFE809
310
6A6D6F9F7D4B79F4275C90E7A04248AA51D5C4C738DAE06F72885AC4796EBE65D22A88A22223B995679120E2D50EB1542F098381188D4EA111AE3DB043FF20AF6F2B4AE3D7D83D65E5AECA730D4D3BAC91BD05FEA992B565D95F549CD6069B90AB2A63EACA38A45E4B6A87D781574F86817E4C2FCCC72690D62E2729520E37
310
9BAF234797BAF6D62B3BFC781FED37BA1E4F2B2F052FA9501A3E80569BB8F6A9A364D4FA67654E6F803383981F82F21591FF84F23D9882BC896C3FDBCF8C162508933B2E0AE4C69DD43F6BD2BE38DDDBF10BF86CB4FA784D37F3AF16075E67EC9030DECA1FC0A55373F5DFF3378C591FA9BDF485C10B0A8C8BA909E5262639
310
A8E72163488806A595734C81CB77D1DE0ED7604A303B76913CEC0272F412782FF88EFF4636D8AA56DF7B322474C4B767303F625997056C7B032C473C592B36CEBD15F3F9FF5233B7ABCDC74D257624A60F8658567497B14CE1EC3C80B76FD02011038F9EE9EB0F2E12387A9C844D3F09855125116D1D731DF8B43D2CF4E0A0
310
79A020C6BE946BCE0B7EA1E1219331CD73C228AF5A2DDD31A4B1DA918CE91350854D40A71723140BFA92E94E62B0626016CEFA5864A50E5977E8753CEDBEE1CBB7F52780D20E17AF0BA0F5F9B02A3AD07DCC732EB6D1EBB661421BE0C39E21BABF0FE16D22EA6929407C8DE596724C88B749B6DB5512BC7B228ADFD7CB7EA6
310
3A22397E690BA8D5D8D4E40CEC8CDA23C2C0B7D5898640101CEC9C6D331CE328CB93CAFBBAC70A642DF70DF95155945B52F08AA973C23469FD69ADEF84F7BB18F983A8F8C90E37F5D35980B2139A1C523540813E824EF83448CF7C72B598CE97D7CEEDDDDD3B6736BFBC771677EF66CE6A7E7139F7A793E9EDF2B2B3A8B624
310
0CDA13AA5F8388264EC4A0129909F3B7F5A16CEDF08128E97D680ACA4B9BE7B7B58BB638F0B00700EF36AE8B32A705658A68F83EE897FC2B41573190D1CCAF0B92D233A47CFEB019D9809933F67DD1A5467F8CF69AD9A5AE859342D45355448C64F968A371DC2D596ADC6E43D93D1B466F877A64E2893E54F23C4B40388995
310
525E5005DA3983ED45412510D3EFCA13737B3863F74BD30F2A12E5B4B5E489A025CE25500DB855B11ACE5BBFA185D35DD48D8DC3CE7DC69F2944DB42AA6F6CF09BCA622ADD08C7A36E7C6AE18000BAB08E040135C2D21C9D75B3A91B77BB746C403F38018DFE6EC939DD92F16B40BC05294B9CDA035AAD6D330AE27FE4786B
310
8E45145EA34A75BE1C263A676A35A8ACC6297337400BF16C54EF515F3F77CB77EB3583889C754FFA29081AA98E2222ADEF05DA3E63D2EDEA8B8756C05A7FB6CABC4A91CBF325398202CC952E70A008A830324BA200D5E5EF8F5F04C75DB4B0EE3340E071C98B823333B83577596BF3849B69F2085AA0FAFA212F26BEFF5877
310
FDE622B28D88A42E49E43326DA82D31E8CB006401E1DA726059ECEC168F97A6599036306A135688F9AD2E61A6EA178F4CD51974A9F2CCB9F36FE5EBD14601068D9C3BF01504B0304140006080000B670623B000000000000000000000000350000006662782F42384135303843342D343331462D343546312D424341352D35
310
32343432364645413344462F76657274696365732E62696E504B0304140006080800B670623BF270F1330600000004000000360000006662782F42384135303843342D343331462D343546312D424341352D3532343432364645413344462F747269616E676C65732E62696E636660600000504B0304140006080000B67062
310
3B000000000000000000000000370000006662782F42384135303843342D343331462D343546312D424341352D3532343432364645413344462F617474726962757465732E62696E504B0304140006080800B670623B08DA0BD19000000041010000360000006662782F42384135303843342D343331462D343546312D4243
310
41352D3532343432364645413344462F6469726563746F72792E786D6C858F410AC3201045AF22B36F53E9A60B35CBEEBAE80D244E44489C6234F4F835464A48035D0DF398FF9F8AF63D0E6CC63039F212F8F9020C7D47C6792B21C5FE7403D62A1188E2E60C98D7234A5830286103A55745067B9D86B8A3CF9C7F90C11DE6
310
07FB144396D7B6A82D282E9A152AD114D5EF2CB866EEE831B8EEA07A7BB5A8D7D61A2BAAEB7FD5F70921FF497D00504B0304140006080800B670623B3B4606F3FE000000A00100003B0000006662782F42384135303843342D343331462D343546312D424341352D3532343432364645413344462F7265736F75726365732F
310
636F72652E786D6C8D504B6E833010BD0A9A6D65B08134808CA354A427E8052C332156828DFCA97AFC9A40A576D7CDCCE87D344F8F9FBEE647F689CE6B6B7A6039850C8DB2A336530F315C4903D94970676DF82583CCC8197B5861107C72362E3BA4AC096842428D1D7107A5F71820538F74F4E0D50D6799CB1892C2DFF345
310
AABB9C306779A2934E701F5C0A906D4FD609C2A1B7D129F4BCD858C163D4E3AED163FAA9AF1A1D88F67CA98E6D35906AA82A52BFB39ABCD5CD915C86331BD86BD3B665CD8BD52C78D0F34F46E550061C419494B6843142CB0F5677F4D0D58717DA7494F26295FF31C565FCA7296A13AA728FBBD93C0896823C09C18BB5AFB4
310
9E65A6BD762BBE01504B010214000A0000080000B670623B3DEE336E79000000790000001B00000000000000000000000000000000006175746F6465736B2D64657369676E2D7061636B6167652E786D6C504B01021400140006080800B670623BD486FD9CA0000000F40000001300000000000000000000000000B2000000
310
5B436F6E74656E745F54797065735D2E786D6C504B01021400140006080800B670623B28ED286BEB0000007C010000080000000000000000000000000083010000636F72652E786D6C504B01021400140006080800B670623B55019EA25F0000007C000000070000000000000000000000000094020000636E782E786D6C50
310
4B01021400140006080800B670623B7BC41AC871010000D40300000C00000000000000000000000000180300006662782F636F72652E786D6C504B01021400140006080800B670623B70102A487D0000009D0000000B00000000000000000000000000B30400006662782F636E782E786D6C504B01021400140006080800B6
310
70623B3610CA3329010000120200003100000000000000000000000000590500006662782F42384135303843342D343331462D343546312D424341352D3532343432364645413344462F636F72652E786D6C504B01021400140006080800B670623B1B8617914E010000330300003000000000000000000000000000D10600
310
006662782F42384135303843342D343331462D343546312D424341352D3532343432364645413344462F636E782E786D6C504B01021400140006080800B670623BBFEF2E3B690500003C10000034000000000000000000000000006D0800006662782F42384135303843342D343331462D343546312D424341352D35323434
310
32364645413344462F6F626A656374732E786D6C504B01021400140006080000B670623B0000000000000000000000003500000000000000000000000000280E00006662782F42384135303843342D343331462D343546312D424341352D3532343432364645413344462F76657274696365732E62696E504B010214001400
310
06080800B670623BF270F133060000000400000036000000000000000000000000007B0E00006662782F42384135303843342D343331462D343546312D424341352D3532343432364645413344462F747269616E676C65732E62696E504B01021400140006080000B670623B00000000000000000000000037000000000000
310
00000000000000D50E00006662782F42384135303843342D343331462D343546312D424341352D3532343432364645413344462F617474726962757465732E62696E504B01021400140006080800B670623B08DA0BD1900000004101000036000000000000000000000000002A0F00006662782F42384135303843342D3433
310
31462D343546312D424341352D3532343432364645413344462F6469726563746F72792E786D6C504B01021400140006080800B670623B3B4606F3FE000000A00100003B000000000000000000000000000E1000006662782F42384135303843342D343331462D343546312D424341352D3532343432364645413344462F72
310
65736F75726365732F636F72652E786D6C504B0506000000000E000E0080040000651100000000
  0
XRECORD
  5
187
102
{ACAD_REACTORS
330
186
102
}
330
186
100
AcDbXrecord
280
     1
 70
     1
 90
429727718
  1
887D55A9-D0DD-414E-B741-A7DCD4DA2B4C
310
504B03040A0000080000B670623B3DEE336E79000000790000001B0000006175746F6465736B2D64657369676E2D7061636B6167652E786D6C3C3F786D6C2076657273696F6E3D22312E302220656E636F64696E673D227574662D3822203F3E3C666F726D6174733E3C666F726D61743E687474703A2F2F736368656D612E
310
6175746F6465736B2E636F6D2F64657369676E2D7061636B6167652F323030393C2F666F726D61743E3C2F666F726D6174733E504B0304140006080800B670623BD486FD9CA0000000F4000000130000005B436F6E74656E745F54797065735D2E786D6C7D8EC10E82300C865F65E91D8A1E8C310C0EEA1BF002731658846E
310
D98AC1B77784ABF1D8FE5FBFBF75BBCE937A534CCEB38643598122B6FEE978D0B0485F9C41B54DDD7D022595594E1A469170414C76A4D9A4D207E29CF43ECE46F218070CC6BECC4078ACAA135ACF422C856C0E68EA1BF5669944DDD7BCDE7B1F8E415D77AECB980613C2E4AC91FC167A2B244592486606FC29C8FD7F045B9A
310
EF7053A7E60B504B0304140006080800B670623BBC1638F5EC0000007C01000008000000636F72652E786D6C8D90416EC3201045AF82665B61836BE2D8C24471DB9CA01740401C94182C03558F5F9C3852BBEB6A467FFE9B197D7EF89E6EE8CB2CC17AD7032D0820E394D7D68D3DA478C67B4007C117EFE32F1B202727D3C3
310
2A83E0E3E2D3BC49CABB685CCCAAF3DA6CA20CC14440EA969B1E82BA98491632C5EC08D76296EA2A4753D06797E194AC468F2356E77DF66CCD02825543D50CACC62D39ED70FDC68EB8FD68F6F8787A6784342D1DDA1D2F5758F068A7E77DB518198D065111D2624A31A93E69DD11D6D5EC85EC3B4278B9DAFF4069D6FF8492
310
75F1B5DADE7D600104CD8FDC0782976B16B9DC83CA75CD4DFC00504B0304140006080800B670623B55019EA25F0000007C00000007000000636E782E786D6C4DCB3B0E80201045D1AD90E915ED2CF8AC45050C11660C8261F98AB1B07AC9C97D42D718D865D3E909258CFD00CCE24AC6E326A164D74DC0B4128928FF326038
310
472BA13128B1252AC747C6BAB984FC68F0B87FE8960A5C09FE86CFB69FBA01504B0304140006080800B670623B3586FFB671010000D40300000C0000006662782F636F72652E786D6CC553ED6E8320147D15C2DF4541A76D6D90A6DDD627D80B50A4CE54C120983EFEAE1F4DD7A55BBA5FF3879273EEE59E7310B6393735EA
310
95ED2AA3731C851423A5A5292A5DE6D8BB63B0C268C39935C67D29C3488B46E578803167A535BE9D2169B453DA01AA4DA16650749D7218C91A1639EEE4876A4428BC838AEE14B6429E44A9C228041AEA38EB9C0501681A32BC313F1ECE8C4C3867DE57C5CC56054CAB8E95B298A7F12E5EEED224C8E87E11242FE936C8DE96
310
AB60BB7F4D295D66D12E5B30323473E6AAE6A24E5A259C2A308F29CD82280A68FC1E256B9AAE93F489AED694323294DF34F9B678B0C957DA3DC7B3DCA9ADC33C022123F1CD2D44E450277AD04338234388F01913BE0D1A0281909D38D4171F27807A259DB1093085F157AA17B557309586747CD0CF0B46A64E983A6E0EAEEF
310
CE881F9EF1FB8E70D44297604238581EBC1B74B249C31C5AAB6CD0BB33D2C636A27ECCC62F0EFF445DC5DF95244D6DEC7F2922F30191F9F720C37DE49F504B0304140006080800B670623B4220A0FF7D0000009D0000000B0000006662782F636E782E786D6C4DCCD10A83201886E15B91FFDCE542CB0335D0EC3E6259C84A
310
C3E9D8E5AF46073BFAE0E1E315DD675BD1DBA5978F41C2FD4600B9F088930F8B849267CC01754AA418F3DF0D50183727E164506249B1EC174D6E1ECB9A0F5D7D785E68DB8151CD286E5A5363CA6B8A39E90D36D40E96B086F55A43A544F52B1D7B86D517504B0304140006080800B670623B2FA3FEDE290100001202000031
310
0000006662782F45374635344235342D363743322D343832342D383044432D4334454645303536354442422F636F72652E786D6C8D515B6EC32010BC0AE22B55850D2E386E848994D7097A0117488A1283C5A3CAF10BB523B57FF961D1ECCCECC0F2ED7DBC816FED8371B687A4C210682B9D32F6D2C314CFA883602BB8772E
310
FEA141608751F7B0C050F08B77695A20E96CD43666D43AA5177008414708E42D5F7A18E4971E876A483133C2B59A06791D2EBA22556E679EE021FA1C00CC43CA09C5717D6274C7286AD7FB06D1AEA1A8C3873DDAD3E3E98859CB0EBB1DAF67A1E02919B5C88DCA71CCD968FFAC49110B1ECDF8882FBD1EA256503418BF2342
310
106E3E08DD60B6A1EC15771B8C795DE8FF4469524F8A92B1F1AD59E2CEB20005E1F5DC105CB9F4797B84D1F7C9F908CABC55D0F2050A5C61CC1AD2F27A26E6E767C7962E8E213A9FBF7775FDCC5CC266DB960A5E970DE5F2BBBE5CCB36C50F504B0304140006080800B670623B1B8617914E01000033030000300000006662
310
782F45374635344235342D363743322D343832342D383044432D4334454645303536354442422F636E782E786D6CD593C16EC32010447F0571AD6CE3D489D20813A9877E410FBD62D82434182CC055F3F75D1292E692438FBD206B7698593D61BEFD1E2DF982108D773D6D6B460938E5B571FB9ECE6957AD29D90A1EBC4F77
310
364A9C1CA1A759A682EF839FA72269D8C9D92654AD71C72206887E0E0A22CAF926B15E498B01E0AA19451807D01A34B919F16B070157417138917400F2F6FA41FCF0092A45DEE414C19BDC21783E4BD39D891265658C3D8DEA00A3ACE59CBC8678ACB54CB26EEB6BD7839D7E9348BE70AD9C8321B9BCA7F9A4A26C542347DE
310
E050F09802D22BA6749A800A394DD62899107273365E3C82CFC6A55557BC06C10774B7ABE7AEC3B0F34CF06446280E154026D0542C187BA9DAB6628BF7B6DBB0E5A65B3EB1F58631DE64BBE083F7B65CC218087E22CABB042E51D1F2268F1FE12B3EA24D40D63E9CFE00120194D60B9D5BC67FE6D39CDF37E20AF817881F50
310
4B0304140006080800B670623B29652116630500003C100000340000006662782F45374635344235342D363743322D343832342D383044432D4334454645303536354442422F6F626A656374732E786D6CAD575D739B3814FD2B0CFB0C989834C90EA1639B24E3E9A6EDD4D3CE3E64C623834CD8006224913AFDF57B040203
310
B65BEF871F0C12D2FD3CF7E8CA7FBFCB33E3957291B2E2D674ED8969D02262715A24B76625B7D6B569BC0F7CCE98EC2D338D82E4F4D654D366E0279C55A59E8AE99654991CCDDECFFF3444440B6A1A514684B83545F44C7362934AB2988A173B2692D8C97667BB76B3702836E1A47C1E092D09A78584A5982F20C5688C7287
310
C389E904BEA3BE07BEFAD7ABA6A75739B53F43FD69212429A20365233153D70BEF2E2E6FAC4BCF9B5ADEBB0BD79ADFCF43CBBD9A4E16EF168B9BD9DD0D140BC921495BC2E9D60C1E101B9E46BED37CEA2CD6861F3329624541A3DA7F7858DBAC25C6B4A4458C3CA654405BCFEBC970E8AAD8F43E4FD558ABEC4F9FE7557F47
310
4F506B7BFBEC5BCA367FC105710E2AB8A00A554D7CB4A30DFE26FBA86D18CBF4B75418399194A72433B274C3097F33032C554B027F2046A1932B842B0FCCC0DDCBEBDB8AD2F835768F59B9ADB24C41D30C6A64AF817F2A456D59FA83F2E3DA60137255A585BCD60EC9B7929AC18DEFD49381AF1ED30BFDB109A4B1CD488294
310
C3CDE6EBC8D185AABD6568061FEE37BB95AAC7E3CA4BCE4ACAA5820FA0D526AE7DAA2869B5EE5999531BE0CC20E6FBA07C41E43FA27CF7A6206F3CDD793B4F6B919C1462CB788EDCD893FA674CDA17AB7B3B7C019F8D561FAEE966FED562DFE98C1D12C6A9FC015C2A35D7FF3D7FC398F591DA4B5FE0BFA2C0189FEA50AE22
310
92817A1ED3020951A03432862970F976B33383259812CC8E5D240BBA801CBCF8CE2BBEE3BF910DB6AAD5F79E05123AE2DB33981FB1ACCB02B69D00CB014FD68AB573A7627EF9BFD4CC2C5C7D58557C4B22FAA88925A4DBB44825CECE3D78FB060D1231F0E885BE7D673C86A3874958F593906B5502D1563157814FDAC3420D
310
F69A070A22EC4B98E23CFF171A1E5311D12C23056555ABA53B8614563B92D17D02AAB009E8F46284624E5F53D5490C560CCCC2591FF1B45421EB0EBD8EA7ED13BE7C5D7E0428CD60FEF60779EB13E6664FF711CB185F6FDED60D139A001FF60CD1FD6D086F1D51474901E26B2CB794A343BC8ED3EDB612E0DD2351FCB65CF4
310
33D511C9E14B5B40ADC6A6263DB0336A8F700DDF56271A024E70B0B3629DE21847591E55DED73D56206AB927E46FAABC5C939C55853C274C93D69FD6FA4E78BF8B11DF898C9ECD60553FAD39283BA6F18984AA23E8884F83F45C5F5F859797B31B2B9C84A1E5B9DE9D35BFF25C6B76152E422F9C5DCC3D847F5801ED09D5AF
310
41441327A25FF15487F9EB725FB666F048A4701E9A827292E6F97569A32DF61DEC01C0BB8DCBBCCC684E0B49147C1FD54BF685A0AB18C868E6973949E819523E3DAC463660E68C7D9F55A9D1EFA3BD7A76A16AE1A810F95CE59B82A4D968A376DC2E8B44BBDD86B27B368CDE0ED548C7137DA860591A83706223A12CA712B4
310
7306DBF39C0A20A6DF95C7FAF670C6EED7A61F946493D1D6926782963813403548A78AE470DEF80D2D9CEAA26E4D1C76F60BFE74219A06527D6B82DF641A51616F703CAAC6A7160E08A00BEB4810A0274592A1B36E3675E36E978A0DE80727A0D6DF2D39A75BD27E0D8837276589537B40ABB56D5A41F48F1C6FCD3188C4EB
310
A6929D2FFB89CE995A4D00AE813BDD032DC48B56BD437DFDDC2DD7AED70C2272D63DE9A72068A45A92F0A4BE17A8A06B9366E16707AD80B1FC649459952097E74BB23805982B55E0401150A165964402AA8BDF9F3E7386BB686EDCA780C0D382E5392BF460A6EFB2C6EA1937D3F809B440D5F5435C4C5CF7A9EEFAF54564BD
310
2182DA24162F98680B4E7930C21A0079709CEAEB99A372305ABE0C0D7D6078105A83F6A0296DAEE1068A47DD1C55A9F4C9B2FC69E3EFD44B81028E963DF81B504B0304140006080000B670623B000000000000000000000000350000006662782F45374635344235342D363743322D343832342D383044432D433445464530
310
3536354442422F76657274696365732E62696E504B0304140006080800B670623BF270F1330600000004000000360000006662782F45374635344235342D363743322D343832342D383044432D4334454645303536354442422F747269616E676C65732E62696E636660600000504B0304140006080000B670623B00000000
310
0000000000000000370000006662782F45374635344235342D363743322D343832342D383044432D4334454645303536354442422F617474726962757465732E62696E504B0304140006080800B670623B08DA0BD19000000041010000360000006662782F45374635344235342D363743322D343832342D383044432D4334
310
454645303536354442422F6469726563746F72792E786D6C858F410AC3201045AF22B36F53E9A60B35CBEEBAE80D244E44489C6234F4F835464A48035D0DF398FF9F8AF63D0E6CC63039F212F8F9020C7D47C6792B21C5FE7403D62A1188E2E60C98D7234A5830286103A55745067B9D86B8A3CF9C7F90C11DE607FB144396
310
D7B6A82D282E9A152AD114D5EF2CB866EEE831B8EEA07A7BB5A8D7D61A2BAAEB7FD5F70921FF497D00504B0304140006080800B670623B6378F24DFF000000A00100003B0000006662782F45374635344235342D363743322D343832342D383044432D4334454645303536354442422F7265736F75726365732F636F72652E
310
786D6C8D504B6E833010BD0A9A6D65B0094E42641C85B639412F6099496225D8C89FAAC7AF09546A77DDCC8CDE47F3F4C4F16B7C149FE88371B603565228D06A37187BED20C50BD9437194C23B177FC9A0B06AC40E6618A4B87A97A615D2CE46B431A3D60DB8822A048C50E8473E3A08FA86A32A558A5911EEE5A4F45D5DB1
310
6465A6B34E8A107D0E502C4FE609D26370C96B0CA25A58295232C3AA3143FE692E063D485EF7F5AEE71BD2D2F39634AFFC44DAF7DD9E9CCE6F9CD25DCBFA762BAAD92C4534E34F46ED51451C40D694B6843142EB0FD61C283F34FC85EE0F948A6A96FF31A569F8A729191B37F51A77B105902C0779125254735F793DCBCC7B
310
EE567E03504B010214000A0000080000B670623B3DEE336E79000000790000001B00000000000000000000000000000000006175746F6465736B2D64657369676E2D7061636B6167652E786D6C504B01021400140006080800B670623BD486FD9CA0000000F40000001300000000000000000000000000B20000005B436F6E
310
74656E745F54797065735D2E786D6C504B01021400140006080800B670623BBC1638F5EC0000007C010000080000000000000000000000000083010000636F72652E786D6C504B01021400140006080800B670623B55019EA25F0000007C000000070000000000000000000000000095020000636E782E786D6C504B010214
310
00140006080800B670623B3586FFB671010000D40300000C00000000000000000000000000190300006662782F636F72652E786D6C504B01021400140006080800B670623B4220A0FF7D0000009D0000000B00000000000000000000000000B40400006662782F636E782E786D6C504B01021400140006080800B670623B2F
310
A3FEDE290100001202000031000000000000000000000000005A0500006662782F45374635344235342D363743322D343832342D383044432D4334454645303536354442422F636F72652E786D6C504B01021400140006080800B670623B1B8617914E010000330300003000000000000000000000000000D2060000666278
310
2F45374635344235342D363743322D343832342D383044432D4334454645303536354442422F636E782E786D6C504B01021400140006080800B670623B29652116630500003C10000034000000000000000000000000006E0800006662782F45374635344235342D363743322D343832342D383044432D4334454645303536
310
354442422F6F626A656374732E786D6C504B01021400140006080000B670623B0000000000000000000000003500000000000000000000000000230E00006662782F45374635344235342D363743322D343832342D383044432D4334454645303536354442422F76657274696365732E62696E504B01021400140006080800
310
B670623BF270F13306000000040000003600000000000000000000000000760E00006662782F45374635344235342D363743322D343832342D383044432D4334454645303536354442422F747269616E676C65732E62696E504B01021400140006080000B670623B0000000000000000000000003700000000000000000000
310
000000D00E00006662782F45374635344235342D363743322D343832342D383044432D4334454645303536354442422F617474726962757465732E62696E504B01021400140006080800B670623B08DA0BD190000000410100003600000000000000000000000000250F00006662782F45374635344235342D363743322D34
310
3832342D383044432D4334454645303536354442422F6469726563746F72792E786D6C504B01021400140006080800B670623B6378F24DFF000000A00100003B00000000000000000000000000091000006662782F45374635344235342D363743322D343832342D383044432D4334454645303536354442422F7265736F75
310
726365732F636F72652E786D6C504B0506000000000E000E0080040000611100000000
  0
XRECORD
  5
112
102
{ACAD_REACTORS
330
110
102
}
330
110
100
AcDbXrecord
280
     1
270
     1
271
     1
  0
XRECORD
  5
111
102
{ACAD_REACTORS
330
110
102
}
330
110
100
AcDbXrecord
280
     1
270
     1
271
     1
  0
XRECORD
  5
18A
102
{ACAD_REACTORS
330
110
102
}
330
110
100
AcDbXrecord
280
     1
 70
     0
 90
1778669749
  1
9BF507EE-FAF7-4A99-A33D-4EE51894BC40
310
504B03040A0000080000B670623B3DEE336E79000000790000001B0000006175746F6465736B2D64657369676E2D7061636B6167652E786D6C3C3F786D6C2076657273696F6E3D22312E302220656E636F64696E673D227574662D3822203F3E3C666F726D6174733E3C666F726D61743E687474703A2F2F736368656D612E
310
6175746F6465736B2E636F6D2F64657369676E2D7061636B6167652F323030393C2F666F726D61743E3C2F666F726D6174733E504B0304140006080800B670623BD486FD9CA0000000F4000000130000005B436F6E74656E745F54797065735D2E786D6C7D8EC10E82300C865F65E91D8A1E8C310C0EEA1BF002731658846E
310
D98AC1B77784ABF1D8FE5FBFBF75BBCE937A534CCEB38643598122B6FEE978D0B0485F9C41B54DDD7D022595594E1A469170414C76A4D9A4D207E29CF43ECE46F218070CC6BECC4078ACAA135ACF422C856C0E68EA1BF5669944DDD7BCDE7B1F8E415D77AECB980613C2E4AC91FC167A2B244592486606FC29C8FD7F045B9A
310
EF7053A7E60B504B0304140006080800B670623BCA089DFFEC0000007C01000008000000636F72652E786D6C8D90416E83301045AF62CDB632D8402020E32882F604BD80653BC44AB011B6AB1EBF262152BBEB6A467FFE9B197D76FA9EEFE84BAFDE38DB03CD08206DA553C64E3DC470C1474027CE56E7C22F1B202B66DDC3
310
260367D3EAE2B24BD2D9A06D48AA754AEFA2F05E0740F29E9A1EBCBCEA59642286E4F0B76C11F226269DD15797E0188D42CF2346A57DE662F40ABCAEC77628C6120F654571D50C04B7F5B9C1E3997CD4F550BE3745C3F20DE62C98F9755FAE5A04AD801784B498524C8A4F5A75E4D055873772EC0861F966FF03C545FD138A
310
C686B2D8DF7D621E384D8F3C069CE55B16A93C824A75CB8DFF00504B0304140006080800B670623B55019EA25F0000007C00000007000000636E782E786D6C4DCB3B0E80201045D1AD90E915ED2CF8AC45050C11660C8261F98AB1B07AC9C97D42D718D865D3E909258CFD00CCE24AC6E326A164D74DC0B4128928FF326038
310
472BA13128B1252AC747C6BAB984FC68F0B87FE8960A5C09FE86CFB69FBA01504B0304140006080800B670623B68FC0B7272010000D40300000C0000006662782F636F72652E786D6CC5535B6E833010BC8AE5DF0A6C1E8124328E22D29EA01770C0A128602363A31CBFCB234A53A555FA553EC09AD9F5CE8C31DB5DDA060D
310
D2F4B556190E7C8A9154852E6B5565D8D993B7C668C799D1DA7E29C3488956667884316795D1AE5BA0422B2B950554E9522EA0E87B69312A1A5864B82F3E642B7CE12C54F467BF13C55954D20F7CA0A18EB3DE1A1080E621E31BF3D3F1C2C88C73E65C5D2E6C5DC2B4FA544B8379921C36797888BC3C8A032F4E73EA6D927D
310
EA1DF6F42D49F2E8350D5346C666CE6CDD5ED515460A2B4BCC434A375E1078347C0FE22D5D6DE3D50B5D6F2965642CBF6B725DF96493AB958DC245EEDCD6631E809089F8E61622B2A81703E8219C913144F84C09DF070D8140C8561C9BAB8F3340832CAC363130A576376A108D933095FA747AD0CF0B46E64E983A6D0EAE1F
310
CE089F9EF1FB8E70D44255604258581E9D1D75B259C3125A278D37D80B52DAB4A279CEC62F0EFF44DDC43F9454E8469BFF5244960322CBEF41C6FBC83F01504B0304140006080800B670623B0F71DDB67E0000009D0000000B0000006662782F636E782E786D6C4DCCD10A83201886E15B91FFDCA54DB73F502386BB8F5816
310
32D3703976F9ABD1C18E3E78F87855FB990379BBFCF2296AE02706C4C5471A7C9C349475A408A4352AA7B4FEDD80C47E761A7606A3A69CCA72D0E0C6BE8475D3E0E3F3409428EA6B27A84079A782899AA2EC1A7AE3ECCC2FD858CB2D544655BFD2B67BD87C01504B0304140006080800B670623BE134B4FB28010000120200
310
00310000006662782F38353834323741342D343835462D343034322D383541392D4331303331363839454531452F636F72652E786D6C8D515B6EC32010BC0AE22B55850D0EA424C24451959EA0172086A42831583CAA1CBF503B52FB971F16CDCECC0EACD8DFC71BF836215AEF7A481A0C817183D7D65D7A98D3197108F652
310
04EFD31F1A044E8DA6871586525C82CFD3020DDE25E352419DD76601558C264130DCCAA58771F832A36A544E8511AFCDA486ABBA988634A55D7852C4144A00300FA927949C71DABD1D28A29C7D208A6987383B6CD13BC16BB2E1DBE3911C453B0BA5C8D9EA456E758963CFD684674DAA588A64C747FC2118958C86B2C3788B
310
0841B8FB247487D98EB257CC77188BB6D2FF89F2A49F1465EBD2BA5BE2CEB2082511EDDC9042FB7CBA3DC298FBE4430275DE2A9AE1054ADC60CC08E3A29D89E5F9C5714317C7987C28DFBBBA9E0A97B0D97643A568EB864AF95D5FA9759BF207504B0304140006080800B670623B1B8617914E010000330300003000000066
310
62782F38353834323741342D343835462D343034322D383541392D4331303331363839454531452F636E782E786D6CD593C16EC32010447F0571AD6CE3D489D20813A9877E410FBD62D82434182CC055F3F75D1292E692438FBD206B7698593D61BEFD1E2DF982108D773D6D6B460938E5B571FB9ECE6957AD29D90A1EBC4F
310
77364A9C1CA1A759A682EF839FA72269D8C9D92654AD71C72206887E0E0A22CAF926B15E498B01E0AA19451807D01A34B919F16B070157417138917400F2F6FA41FCF0092A45DEE414C19BDC21783E4BD39D891265658C3D8DEA00A3ACE59CBC8678ACB54CB26EEB6BD7839D7E9348BE70AD9C8321B9BCA7F9A4A26C542347
310
DEE050F09802D22BA6749A800A394DD62899107273365E3C82CFC6A55557BC06C10774B7ABE7AEC3B0F34CF06446280E154026D0542C187BA9DAB6628BF7B6DBB0E5A65B3EB1F58631DE64BBE083F7B65CC218087E22CABB042E51D1F2268F1FE12B3EA24D40D63E9CFE00120194D60B9D5BC67FE6D39CDF37E20AF817881F
310
504B0304140006080800B670623B5933D422630500003B100000340000006662782F38353834323741342D343835462D343034322D383541392D4331303331363839454531452F6F626A656374732E786D6CAD575B6FA33814FE2B887D0642934E9B156594264D158D3A534DD4D13E548A0C38942D60649B4EBABF7E3F8321
310
40924EF6928780CDF1B97EE762EFF32E4B8D37CA45C2F21BD3B547A641F39045491EDF98A5DC5AD7A6F1D9F73863B243661A39C9E88DA9B64DDF8B392B0BBD15D12D295339D85DDEFE618890E6D434C2940871638AF08566C426A5641115AF764424B1E3EDCE76ED9AB0CF36E6A47819302D08A7B984A6D8CFC1C5A89572FB
310
CB91E9F89EA3BEFB9EFAD754E3D3544E654F5F7E920B49F2F040D880CDD89D2CEE2E2EA7D6E56432B6269F2E5CEB7679BBB0DCABF168FE693E9FCEEEA6102C240727AD09A75BD3BF876F78127A4EFDA9D5582B7E4CA590E5390D2BFB6161A5B3E618D182E611E2985001691DAB47FDA5AB7CD3F93C566B2DB2BB7D9E55DD13
310
1D468DEECDB3AB290BFE8409E21C54704115AA6AFF68436BFC8DF65E0B184BF5B74418199194272435D224E084BF9B3E481589EFF5D828747285706581E9BB7B7E5D5D911ABFC6EE312DB7659A2A689A7E85EC0DF04FA5A8344BFEA2FCB834E8845895492EAFB541F2BDA0A63FF59C6AD3F7D4637CA13FD68E34B629891172
310
98597F1D183A57B9B75A98FE9765B05BAB7C3C2EBCE0ACA05C2AF8005A4DE09AA7F29216EB9E15397500C6F47CBE77CA7778FE2BD277AF0AE2C693DD6437D1522427B9D8329E2136F6A8FA19A3E6C56ADF0E5F50CF06D48734EDCEBF22F69C56D97EC138153F804B85E6FABFC7AFEFB32E523BE1F3BD372418E363EDCA7548
310
52949E8724474014288D94610BB57C1BEC4C7F854A89CA8E5324F55B871CBC78CE1BBEE3BFE68D6A5589EF3C730474506FCFA8FCF0659516D0ED04580EEA6425581B77CAE797FF4BCECC16EB2FEB926F49481F746159D06D922712BD730FDEAE42BD40F42C7AA5EF3F198F60E86110D6DD20645A9480B795CF95E3E3A659A8
310
C55E724F408873315335CFFB8584874484344D494E59D94869DB90C26A5B64F49C802CAC1D3ABE18A098D3B7444D123D8A9E5AE8F5214F0AE5B2B6E9B575DA3E61CBD3EA2B4009FA940524DD1305FB6A1FB294F14DF0BEA90BA109ECE1481FDC3FFAE8D60E75141700BE82725371B4873751B2DD960265F788137FACE6DD40
310
B575E4F0A5C99F46629D92131467A41EE11ABD8D4CCC039CA0AFB37C93A08B232B8F0AEFCA1E0A1015DF13FC83322B362463652ECF71D3A8B1A7D1BE65DE1D62C44F22C317D35F574FEB16153BA2D13E543D10A80E74C4A65E78A6B7CBCBD1D5DD9DB59C2DAFACC96C3AB566E3F1C29ADCDD5DBAD7D3C9ED7C822ED74F80A6
310
41755310DE4443F44A9E68373FADF6596BFA0F440AE7BECE2727AE9F4F2B1B53B1E7E00CF0DD1E5C65454A339A4BA2D0FBA05ED2EF0443458F47BDBFCA484CCFE0F2ED7E3DD0013B679C7B5499467F0ECEEADDB9CA85A34CE44B99053949D2C1416DB85DE4B136BB7165FBAC0B7AB3542BED4F8CA182A549847A1319316519
310
95A83A67147B9E5101C47487F2485F1ECE38FD568F839204296D3479219888530154036E6528FBFBC66F98E0D4107563A2D7D9AFF8D389681A08F58D89F22693900A3B407754734FC51C10C010D6D640809EE4718AC1BA3ED4AEDB53CA37283F68805A7E4B72CEB0A4EDEAD5DD8C14059A76AFAA56BA6901E13F32BC51C720
310
12AF41295B5BF61BAD3195181FB506E6B40F4C10AF5AF40EF9F5B159AE5DD1F43C72D635E94310D45C2D49785C5D0B94D3B54AB3C5A38349C0587D338AB48C11CBF339599C02CCA54A70A008A8D03C0B2201D5F9EFCF8F9CE12A9A19CB0410789EB32C63B95ECCF455D658BFE0621A3DA32C5075FB101723D77DAE867E7D0F
310
D90444509B44E2151B4DC2290B065803200FBAA9BE9D392A0603F2D5C2D00D6302A615680F66D2FA166E2079D4C551A54AB758161FCEFD4E450A14704CECFEDF504B0304140006080000B670623B000000000000000000000000350000006662782F38353834323741342D343835462D343034322D383541392D4331303331
310
363839454531452F76657274696365732E62696E504B0304140006080800B670623BF270F1330600000004000000360000006662782F38353834323741342D343835462D343034322D383541392D4331303331363839454531452F747269616E676C65732E62696E636660600000504B0304140006080000B670623B000000
310
000000000000000000370000006662782F38353834323741342D343835462D343034322D383541392D4331303331363839454531452F617474726962757465732E62696E504B0304140006080800B670623B08DA0BD19000000041010000360000006662782F38353834323741342D343835462D343034322D383541392D43
310
31303331363839454531452F6469726563746F72792E786D6C858F410AC3201045AF22B36F53E9A60B35CBEEBAE80D244E44489C6234F4F835464A48035D0DF398FF9F8AF63D0E6CC63039F212F8F9020C7D47C6792B21C5FE7403D62A1188E2E60C98D7234A5830286103A55745067B9D86B8A3CF9C7F90C11DE607FB1443
310
96D7B6A82D282E9A152AD114D5EF2CB866EEE831B8EEA07A7BB5A8D7D61A2BAAEB7FD5F70921FF497D00504B0304140006080800B670623BD9A3B367FE000000A00100003B0000006662782F38353834323741342D343835462D343034322D383541392D4331303331363839454531452F7265736F75726365732F636F7265
310
2E786D6C8D504B6E833010BD0A9A6D65B01D0201194711694FD00B586642AD043BF2A7EAF16B122AB5BB6E6646EFA3797AE2F8B5DC8A4FF4C1383B002B291468B59B8C9D0748F1420E501CA5F0CEC55F3228AC5A708015062966EFD27D83B4B3116DCCA875136EA00A012314FA968F0182FEC045952AC5AC08D7F2AEF455CD
310
58B232D3592745883E07289E4FD609D26370C96B0CA27AB252A464A64D63A6FCD35C0C7A904D73EE467EE664DCD58CD4ED4849D79C5A723ED1B7A61977AF2D6F45B59AA58866F9C9A83DAA8813484E6947182394BFB3BAA7FBBEDEBFD0434FA9A856F91F53BA4FFF342563E38E6F719FB60092E5200F428A6AED2BAF479979
310
AFDDCA6F504B010214000A0000080000B670623B3DEE336E79000000790000001B00000000000000000000000000000000006175746F6465736B2D64657369676E2D7061636B6167652E786D6C504B01021400140006080800B670623BD486FD9CA0000000F40000001300000000000000000000000000B20000005B436F6E
310
74656E745F54797065735D2E786D6C504B01021400140006080800B670623BCA089DFFEC0000007C010000080000000000000000000000000083010000636F72652E786D6C504B01021400140006080800B670623B55019EA25F0000007C000000070000000000000000000000000095020000636E782E786D6C504B010214
310
00140006080800B670623B68FC0B7272010000D40300000C00000000000000000000000000190300006662782F636F72652E786D6C504B01021400140006080800B670623B0F71DDB67E0000009D0000000B00000000000000000000000000B50400006662782F636E782E786D6C504B01021400140006080800B670623BE1
310
34B4FB280100001202000031000000000000000000000000005C0500006662782F38353834323741342D343835462D343034322D383541392D4331303331363839454531452F636F72652E786D6C504B01021400140006080800B670623B1B8617914E010000330300003000000000000000000000000000D3060000666278
310
2F38353834323741342D343835462D343034322D383541392D4331303331363839454531452F636E782E786D6C504B01021400140006080800B670623B5933D422630500003B10000034000000000000000000000000006F0800006662782F38353834323741342D343835462D343034322D383541392D4331303331363839
310
454531452F6F626A656374732E786D6C504B01021400140006080000B670623B0000000000000000000000003500000000000000000000000000240E00006662782F38353834323741342D343835462D343034322D383541392D4331303331363839454531452F76657274696365732E62696E504B01021400140006080800
310
B670623BF270F13306000000040000003600000000000000000000000000770E00006662782F38353834323741342D343835462D343034322D383541392D4331303331363839454531452F747269616E676C65732E62696E504B01021400140006080000B670623B0000000000000000000000003700000000000000000000
310
000000D10E00006662782F38353834323741342D343835462D343034322D383541392D4331303331363839454531452F617474726962757465732E62696E504B01021400140006080800B670623B08DA0BD190000000410100003600000000000000000000000000260F00006662782F38353834323741342D343835462D34
310
3034322D383541392D4331303331363839454531452F6469726563746F72792E786D6C504B01021400140006080800B670623BD9A3B367FE000000A00100003B000000000000000000000000000A1000006662782F38353834323741342D343835462D343034322D383541392D4331303331363839454531452F7265736F75
310
726365732F636F72652E786D6C504B0506000000000E000E0080040000611100000000
  0
XRECORD
  5
113
102
{ACAD_REACTORS
330
110
102
}
330
110
100
AcDbXrecord
280
     1
270
     1
271
     1
  0
XRECORD
  5
114
102
{ACAD_REACTORS
330
110
102
}
330
110
100
AcDbXrecord
280
     1
270
     1
271
     1
  0
CELLSTYLEMAP
  5
FD10
102
{ACAD_REACTORS
330
104
102
}
330
104
100
AcDbCellStyleMap
 90
        3
300
CELLSTYLE
  1
TABLEFORMAT_BEGIN
 90
        5
170
     1
 91
        0
 92
    32768
 62
   257
 93
        1
300
CONTENTFORMAT
  1
CONTENTFORMAT_BEGIN
 90
        0
 91
        0
 92
      512
 93
        0
300

 40
0.0
140
1.0
 94
        5
 62
     0
340
11
144
0.25
309
CONTENTFORMAT_END
171
     1
301
MARGIN
  1
CELLMARGIN_BEGIN
 40
0.06
 40
0.06
 40
0.06
 40
0.06
 40
0.18
 40
0.18
309
CELLMARGIN_END
 94
        6
 95
        1
302
GRIDFORMAT
  1
GRIDFORMAT_BEGIN
 90
        0
 91
        1
 62
     0
 92
       -2
340
0
 93
        0
 40
0.045
309
GRIDFORMAT_END
 95
        2
302
GRIDFORMAT
  1
GRIDFORMAT_BEGIN
 90
        0
 91
        1
 62
     0
 92
       -2
340
0
 93
        0
 40
0.045
309
GRIDFORMAT_END
 95
        4
302
GRIDFORMAT
  1
GRIDFORMAT_BEGIN
 90
        0
 91
        1
 62
     0
 92
       -2
340
0
 93
        0
 40
0.045
309
GRIDFORMAT_END
 95
        8
302
GRIDFORMAT
  1
GRIDFORMAT_BEGIN
 90
        0
 91
        1
 62
     0
 92
       -2
340
0
 93
        0
 40
0.045
309
GRIDFORMAT_END
 95
       16
302
GRIDFORMAT
  1
GRIDFORMAT_BEGIN
 90
        0
 91
        1
 62
     0
 92
       -2
340
0
 93
        0
 40
0.045
309
GRIDFORMAT_END
 95
       32
302
GRIDFORMAT
  1
GRIDFORMAT_BEGIN
 90
        0
 91
        1
 62
     0
 92
       -2
340
0
 93
        0
 40
0.045
309
GRIDFORMAT_END
309
TABLEFORMAT_END
  1
CELLSTYLE_BEGIN
 90
        1
 91
        1
300
_TITLE
309
CELLSTYLE_END
300
CELLSTYLE
  1
TABLEFORMAT_BEGIN
 90
        5
170
     1
 91
        0
 92
        0
 62
   257
 93
        1
300
CONTENTFORMAT
  1
CONTENTFORMAT_BEGIN
 90
        0
 91
        0
 92
      512
 93
        0
300

 40
0.0
140
1.0
 94
        5
 62
     0
340
11
144
0.18
309
CONTENTFORMAT_END
171
     1
301
MARGIN
  1
CELLMARGIN_BEGIN
 40
0.06
 40
0.06
 40
0.06
 40
0.06
 40
0.18
 40
0.18
309
CELLMARGIN_END
 94
        6
 95
        1
302
GRIDFORMAT
  1
GRIDFORMAT_BEGIN
 90
        0
 91
        1
 62
     0
 92
       -2
340
0
 93
        0
 40
0.045
309
GRIDFORMAT_END
 95
        2
302
GRIDFORMAT
  1
GRIDFORMAT_BEGIN
 90
        0
 91
        1
 62
     0
 92
       -2
340
0
 93
        0
 40
0.045
309
GRIDFORMAT_END
 95
        4
302
GRIDFORMAT
  1
GRIDFORMAT_BEGIN
 90
        0
 91
        1
 62
     0
 92
       -2
340
0
 93
        0
 40
0.045
309
GRIDFORMAT_END
 95
        8
302
GRIDFORMAT
  1
GRIDFORMAT_BEGIN
 90
        0
 91
        1
 62
     0
 92
       -2
340
0
 93
        0
 40
0.045
309
GRIDFORMAT_END
 95
       16
302
GRIDFORMAT
  1
GRIDFORMAT_BEGIN
 90
        0
 91
        1
 62
     0
 92
       -2
340
0
 93
        0
 40
0.045
309
GRIDFORMAT_END
 95
       32
302
GRIDFORMAT
  1
GRIDFORMAT_BEGIN
 90
        0
 91
        1
 62
     0
 92
       -2
340
0
 93
        0
 40
0.045
309
GRIDFORMAT_END
309
TABLEFORMAT_END
  1
CELLSTYLE_BEGIN
 90
        2
 91
        1
300
_HEADER
309
CELLSTYLE_END
300
CELLSTYLE
  1
TABLEFORMAT_BEGIN
 90
        5
170
     1
 91
        0
 92
        0
 62
   257
 93
        1
300
CONTENTFORMAT
  1
CONTENTFORMAT_BEGIN
 90
        0
 91
        0
 92
      512
 93
        0
300

 40
0.0
140
1.0
 94
        2
 62
     0
340
11
144
0.18
309
CONTENTFORMAT_END
171
     1
301
MARGIN
  1
CELLMARGIN_BEGIN
 40
0.06
 40
0.06
 40
0.06
 40
0.06
 40
0.18
 40
0.18
309
CELLMARGIN_END
 94
        6
 95
        1
302
GRIDFORMAT
  1
GRIDFORMAT_BEGIN
 90
        0
 91
        1
 62
     0
 92
       -2
340
0
 93
        0
 40
0.045
309
GRIDFORMAT_END
 95
        2
302
GRIDFORMAT
  1
GRIDFORMAT_BEGIN
 90
        0
 91
        1
 62
     0
 92
       -2
340
0
 93
        0
 40
0.045
309
GRIDFORMAT_END
 95
        4
302
GRIDFORMAT
  1
GRIDFORMAT_BEGIN
 90
        0
 91
        1
 62
     0
 92
       -2
340
0
 93
        0
 40
0.045
309
GRIDFORMAT_END
 95
        8
302
GRIDFORMAT
  1
GRIDFORMAT_BEGIN
 90
        0
 91
        1
 62
     0
 92
       -2
340
0
 93
        0
 40
0.045
309
GRIDFORMAT_END
 95
       16
302
GRIDFORMAT
  1
GRIDFORMAT_BEGIN
 90
        0
 91
        1
 62
     0
 92
       -2
340
0
 93
        0
 40
0.045
309
GRIDFORMAT_END
 95
       32
302
GRIDFORMAT
  1
GRIDFORMAT_BEGIN
 90
        0
 91
        1
 62
     0
 92
       -2
340
0
 93
        0
 40
0.045
309
GRIDFORMAT_END
309
TABLEFORMAT_END
  1
CELLSTYLE_BEGIN
 90
        3
 91
        2
300
_DATA
309
CELLSTYLE_END
  0
ENDSEC
  0
SECTION
  2
ACDSDATA
 70
     2
 71
     8
  0
ACDSSCHEMA
 90
        0
  1
AcDb_Thumbnail_Schema
  2
AcDbDs::ID
280
    10
 91
        8
  2
Thumbnail_Data
280
    15
 91
        0
101
ACDSRECORD
 95
        0
 90
        1
  2
AcDbDs::TreatedAsObjectData
280
     1
291
     1
101
ACDSRECORD
 95
        0
 90
        2
  2
AcDbDs::Legacy
280
     1
291
     1
101
ACDSRECORD
  1
AcDbDs::ID
 90
        3
  2
AcDs:Indexable
280
     1
291
     1
101
ACDSRECORD
  1
AcDbDs::ID
 90
        4
  2
AcDbDs::HandleAttribute
280
     7
282
     1
  0
ACDSSCHEMA
 90
        1
  1
AcDbDs::TreatedAsObjectDataSchema
  2
AcDbDs::TreatedAsObjectData
280
     1
 91
        0
  0
ACDSSCHEMA
 90
        2
  1
AcDbDs::LegacySchema
  2
AcDbDs::Legacy
280
     1
 91
        0
  0
ACDSSCHEMA
 90
        3
  1
AcDbDs::IndexedPropertySchema
  2
AcDs:Indexable
280
     1
 91
        0
  0
ACDSSCHEMA
 90
        4
  1
AcDbDs::HandleAttributeSchema
  2
AcDbDs::HandleAttribute
280
     7
 91
        1
284
     1
  0
ACDSRECORD
 90
        0
  2
AcDbDs::ID
280
    10
320
22
  2
Thumbnail_Data
280
    15
 94
     1521
310
89504E470D0A1A0A0000000D4948445200000100000000670803000000D82A6C0200000300504C5445949494FFFFFF9494940000000000000000000000000000000000000000000000000000330000660000990000CC0000FF0033000033330033660033990033CC0033FF0066000066330066660066990066CC0066FF0099
310
000099330099660099990099CC0099FF00CC0000CC3300CC6600CC9900CCCC00CCFF00FF0000FF3300FF6600FF9900FFCC00FFFF3300003300333300663300993300CC3300FF3333003333333333663333993333CC3333FF3366003366333366663366993366CC3366FF3399003399333399663399993399CC3399FF33CC00
310
33CC3333CC6633CC9933CCCC33CCFF33FF0033FF3333FF6633FF9933FFCC33FFFF6600006600336600666600996600CC6600FF6633006633336633666633996633CC6633FF6666006666336666666666996666CC6666FF6699006699336699666699996699CC6699FF66CC0066CC3366CC6666CC9966CCCC66CCFF66FF0066
310
FF3366FF6666FF9966FFCC66FFFF9900009900339900669900999900CC9900FF9933009933339933669933999933CC9933FF9966009966339966669966999966CC9966FF9999009999339999669999999999CC9999FF99CC0099CC3399CC6699CC9999CCCC99CCFF99FF0099FF3399FF6699FF9999FFCC99FFFFCC0000CC00
310
33CC0066CC0099CC00CCCC00FFCC3300CC3333CC3366CC3399CC33CCCC33FFCC6600CC6633CC6666CC6699CC66CCCC66FFCC9900CC9933CC9966CC9999CC99CCCC99FFCCCC00CCCC33CCCC66CCCC99CCCCCCCCCCFFCCFF00CCFF33CCFF66CCFF99CCFFCCCCFFFFFF0000FF0033FF0066FF0099FF00CCFF00FFFF3300FF3333
310
FF3366FF3399FF33CCFF33FFFF6600FF6633FF6666FF6699FF66CCFF66FFFF9900FF9933FF9966FF9999FF99CCFF99FFFFCC00FFCC33FFCC66FFCC99FFCCCCFFCCFFFFFF00FFFF33FFFF66FFFF99FFFFCCFFFFFF0000000D0D0D1A1A1A2828283535354343435050505D5D5D6B6B6B787878868686939393A1A1A1AEAEAEBB
310
BBBBC9C9C9D6D6D6E4E4E4F1F1F1FFFFFF00000000000000000000000000000000000000000000000000000000000018B0B0CD000002AC4944415478DAED9D5B72C3300845D9FF32EF4A3A6E1B47A087A5B19CF6029ECCE423D816C73292401091AD073E70C87F3E1200F8EFB0A979C7A3EA3EAEFA415E498312807E270AA9
310
E303ABE440BA106702A074B1AF317AB6A336263FC0D80048A14A4BB07762435A75083E00ED36637062ADBF500218A8DBD0B2FBDBA13DD801C81200690C10D4AFC0CC70DE97A6ED01BBBA801E04BC00C0CA3B20F0084096004802706604B1B4C62105204B002401D42BBF8000DAEA3904D01C05FBDE1E783182C50249AE1D22
310
4D691E7FC0F70CD6BAF34E5F00AAA90E7AD27AD6C402000DB797343D1C8BD26C2EB1E9B5D0589A722ACC7A8704F068F36E4745B801DC8DEB40B8234310DCBE3E3100406E0360EE01900DFAF30278CDE9A202C0AE218C134031410E09607689EC140076EA4F08601C22F40F00121A00B07722C83613C4DE8510DB2E31AC84FF
310
1CF680B5E8973B1B30B32DC63380CBF8866F00EF9D71AAC96100E0B45628BE10054077ACDAD27686DDE24397480000E437480009200124800490001240024800092001248004900012400248000920017CB27D0804A00E14CCEC03F503A011EB9ED908EC0B80C904905000CE3C9077918D4EE6886300BA320ACE7A2988F10A
310
8849052AAC22A200109D64364E9FF406403F6BC85CB11CAF00AA6CC25E828C1B00262914CA28AAE24BDE0108CA3990C92AF00BC06EA703EAB1519AA546FCF500555AAD02E0D4080245FF86C9B91EA608BA015054DB135342AE6F00DC00308BC033D3DEF67ABF00AA733A5B8C4300805D138F3A800F00306934BDEA4B8FEDB6
310
FC63005589D468006C01513DE45DE498B9728949E9132AFC42310014E65F79C622013817416A8FFDB018ADC7C0C86F9D1CE831715065DA1B003B039661729CCFD058A5703400AD4AE3080560FE32D4293304D7DFF2E81E6C2178B2C61EFB7F8DFC8F9104B0B7C55F247567BD7C1F5CA40000000049454E44AE426082
  0
ENDSEC
  0
EOF
