  0
SECTION
  2
HEADER
  9
$ACADVER
  1
AC1032
  9
$ACADMAINTVER
 90
      197
  9
$DWGCODEPAGE
  3
ANSI_1252
  9
$LASTSAVEDBY
  1
gregb
  9
$REQUIREDVERSIONS
160
                 0
  9
$INSBASE
 10
0.0
 20
0.0
 30
0.0
  9
$EXTMIN
 10
106990.7789058524
 20
97402.72937167787
 30
0.0
  9
$EXTMAX
 10
106993.454636332
 20
97406.23141232131
 30
0.0
  9
$LIMMIN
 10
0.0
 20
0.0
  9
$LIMMAX
 10
12.0
 20
9.0
  9
$ORTHOMODE
 70
     1
  9
$REGENMODE
 70
     1
  9
$FILLMODE
 70
     1
  9
$QTEXTMODE
 70
     0
  9
$MIRRTEXT
 70
     0
  9
$LTSCALE
 40
1.0
  9
$ATTMODE
 70
     1
  9
$TEXTSIZE
 40
0.2
  9
$TRACEWID
 40
0.05
  9
$TEXTSTYLE
  7
Standard
  9
$CLAYER
  8
freecads.com
  9
$CELTYPE
  6
ByLayer
  9
$CECOLOR
 62
   256
  9
$CELTSCALE
 40
1.0
  9
$DISPSILH
 70
     1
  9
$DIMSCALE
 40
1.0
  9
$DIMASZ
 40
0.18
  9
$DIMEXO
 40
0.0625
  9
$DIMDLI
 40
0.38
  9
$DIMRND
 40
0.0
  9
$DIMDLE
 40
0.0
  9
$DIMEXE
 40
0.18
  9
$DIMTP
 40
0.0
  9
$DIMTM
 40
0.0
  9
$DIMTXT
 40
0.18
  9
$DIMCEN
 40
0.09
  9
$DIMTSZ
 40
0.0
  9
$DIMTOL
 70
     0
  9
$DIMLIM
 70
     0
  9
$DIMTIH
 70
     1
  9
$DIMTOH
 70
     1
  9
$DIMSE1
 70
     0
  9
$DIMSE2
 70
     0
  9
$DIMTAD
 70
     0
  9
$DIMZIN
 70
     0
  9
$DIMBLK
  1

  9
$DIMASO
 70
     1
  9
$DIMSHO
 70
     1
  9
$DIMPOST
  1

  9
$DIMAPOST
  1

  9
$DIMALT
 70
     0
  9
$DIMALTD
 70
     2
  9
$DIMALTF
 40
25.4
  9
$DIMLFAC
 40
1.0
  9
$DIMTOFL
 70
     0
  9
$DIMTVP
 40
0.0
  9
$DIMTIX
 70
     0
  9
$DIMSOXD
 70
     0
  9
$DIMSAH
 70
     0
  9
$DIMBLK1
  1

  9
$DIMBLK2
  1

  9
$DIMSTYLE
  2
Standard
  9
$DIMCLRD
 70
     0
  9
$DIMCLRE
 70
     0
  9
$DIMCLRT
 70
     0
  9
$DIMTFAC
 40
1.0
  9
$DIMGAP
 40
0.09
  9
$DIMJUST
 70
     0
  9
$DIMSD1
 70
     0
  9
$DIMSD2
 70
     0
  9
$DIMTOLJ
 70
     1
  9
$DIMTZIN
 70
     0
  9
$DIMALTZ
 70
     0
  9
$DIMALTTZ
 70
     0
  9
$DIMUPT
 70
     0
  9
$DIMDEC
 70
     4
  9
$DIMTDEC
 70
     4
  9
$DIMALTU
 70
     2
  9
$DIMALTTD
 70
     2
  9
$DIMTXSTY
  7
Standard
  9
$DIMAUNIT
 70
     0
  9
$DIMADEC
 70
     0
  9
$DIMALTRND
 40
0.0
  9
$DIMAZIN
 70
     0
  9
$DIMDSEP
 70
    46
  9
$DIMATFIT
 70
     3
  9
$DIMFRAC
 70
     0
  9
$DIMLDRBLK
  1

  9
$DIMLUNIT
 70
     2
  9
$DIMLWD
 70
    -2
  9
$DIMLWE
 70
    -2
  9
$DIMTMOVE
 70
     0
  9
$DIMFXL
 40
1.0
  9
$DIMFXLON
 70
     0
  9
$DIMJOGANG
 40
0.7853981633974483
  9
$DIMTFILL
 70
     0
  9
$DIMTFILLCLR
 70
     0
  9
$DIMARCSYM
 70
     0
  9
$DIMLTYPE
  6

  9
$DIMLTEX1
  6

  9
$DIMLTEX2
  6

  9
$DIMTXTDIRECTION
 70
     0
  9
$LUNITS
 70
     2
  9
$LUPREC
 70
     4
  9
$SKETCHINC
 40
0.1
  9
$FILLETRAD
 40
0.0
  9
$AUNITS
 70
     0
  9
$AUPREC
 70
     0
  9
$MENU
  1
.
  9
$ELEVATION
 40
0.0
  9
$PELEVATION
 40
0.0
  9
$THICKNESS
 40
0.0
  9
$LIMCHECK
 70
     0
  9
$CHAMFERA
 40
0.0
  9
$CHAMFERB
 40
0.0
  9
$CHAMFERC
 40
0.0
  9
$CHAMFERD
 40
0.0
  9
$SKPOLY
 70
     0
  9
$TDCREATE
 40
2458157.454583334
  9
$TDUCREATE
 40
2458157.287916667
  9
$TDUPDATE
 40
2460672.357893519
  9
$TDUUPDATE
 40
2460672.191226852
  9
$TDINDWG
 40
0.2315740741
  9
$TDUSRTIMER
 40
0.2315740741
  9
$USRTIMER
 70
     1
  9
$ANGBASE
 50
0.0
  9
$ANGDIR
 70
     0
  9
$PDMODE
 70
     0
  9
$PDSIZE
 40
0.0
  9
$PLINEWID
 40
0.0
  9
$SPLFRAME
 70
     0
  9
$SPLINETYPE
 70
     6
  9
$SPLINESEGS
 70
     8
  9
$HANDSEED
  5
F86C8
  9
$SURFTAB1
 70
     6
  9
$SURFTAB2
 70
     6
  9
$SURFTYPE
 70
     6
  9
$SURFU
 70
     6
  9
$SURFV
 70
     6
  9
$UCSBASE
  2

  9
$UCSNAME
  2

  9
$UCSORG
 10
0.0
 20
0.0
 30
0.0
  9
$UCSXDIR
 10
1.0
 20
0.0
 30
0.0
  9
$UCSYDIR
 10
0.0
 20
1.0
 30
0.0
  9
$UCSORTHOREF
  2

  9
$UCSORTHOVIEW
 70
     0
  9
$UCSORGTOP
 10
0.0
 20
0.0
 30
0.0
  9
$UCSORGBOTTOM
 10
0.0
 20
0.0
 30
0.0
  9
$UCSORGLEFT
 10
0.0
 20
0.0
 30
0.0
  9
$UCSORGRIGHT
 10
0.0
 20
0.0
 30
0.0
  9
$UCSORGFRONT
 10
0.0
 20
0.0
 30
0.0
  9
$UCSORGBACK
 10
0.0
 20
0.0
 30
0.0
  9
$PUCSBASE
  2

  9
$PUCSNAME
  2

  9
$PUCSORG
 10
0.0
 20
0.0
 30
0.0
  9
$PUCSXDIR
 10
1.0
 20
0.0
 30
0.0
  9
$PUCSYDIR
 10
0.0
 20
1.0
 30
0.0
  9
$PUCSORTHOREF
  2

  9
$PUCSORTHOVIEW
 70
     0
  9
$PUCSORGTOP
 10
0.0
 20
0.0
 30
0.0
  9
$PUCSORGBOTTOM
 10
0.0
 20
0.0
 30
0.0
  9
$PUCSORGLEFT
 10
0.0
 20
0.0
 30
0.0
  9
$PUCSORGRIGHT
 10
0.0
 20
0.0
 30
0.0
  9
$PUCSORGFRONT
 10
0.0
 20
0.0
 30
0.0
  9
$PUCSORGBACK
 10
0.0
 20
0.0
 30
0.0
  9
$USERI1
 70
     0
  9
$USERI2
 70
     0
  9
$USERI3
 70
     0
  9
$USERI4
 70
     0
  9
$USERI5
 70
     0
  9
$USERR1
 40
0.0
  9
$USERR2
 40
0.0
  9
$USERR3
 40
0.0
  9
$USERR4
 40
0.0
  9
$USERR5
 40
0.0
  9
$WORLDVIEW
 70
     1
  9
$SHADEDGE
 70
     3
  9
$SHADEDIF
 70
    70
  9
$TILEMODE
 70
     1
  9
$MAXACTVP
 70
    64
  9
$PINSBASE
 10
0.0
 20
0.0
 30
0.0
  9
$PLIMCHECK
 70
     0
  9
$PEXTMIN
 10
0.0
 20
0.0
 30
0.0
  9
$PEXTMAX
 10
0.0
 20
0.0
 30
0.0
  9
$PLIMMIN
 10
0.0
 20
0.0
  9
$PLIMMAX
 10
12.0
 20
9.0
  9
$UNITMODE
 70
     0
  9
$VISRETAIN
 70
     1
  9
$PLINEGEN
 70
     0
  9
$PSLTSCALE
 70
     1
  9
$TREEDEPTH
 70
  3020
  9
$CMLSTYLE
  2
Standard
  9
$CMLJUST
 70
     0
  9
$CMLSCALE
 40
1.0
  9
$PROXYGRAPHICS
 70
     1
  9
$MEASUREMENT
 70
     0
  9
$CELWEIGHT
370
    -1
  9
$ENDCAPS
280
     0
  9
$JOINSTYLE
280
     0
  9
$LWDISPLAY
290
     0
  9
$INSUNITS
 70
     1
  9
$HYPERLINKBASE
  1

  9
$STYLESHEET
  1
monochrome.ctb
  9
$XEDIT
290
     1
  9
$CEPSNTYPE
380
     0
  9
$PSTYLEMODE
290
     1
  9
$FINGERPRINTGUID
  2
{358EB121-6EE0-9143-8A3E-6E8E8869FDA6}
  9
$VERSIONGUID
  2
{5F2BC483-9D39-BF44-9430-F4A211F90223}
  9
$EXTNAMES
290
     1
  9
$PSVPSCALE
 40
0.0
  9
$OLESTARTUP
290
     0
  9
$SORTENTS
280
   127
  9
$INDEXCTL
280
     0
  9
$HIDETEXT
280
     1
  9
$XCLIPFRAME
280
     2
  9
$HALOGAP
280
     0
  9
$OBSCOLOR
 70
   257
  9
$OBSLTYPE
280
     0
  9
$INTERSECTIONDISPLAY
280
     0
  9
$INTERSECTIONCOLOR
 70
   257
  9
$DIMASSOC
280
     2
  9
$PROJECTNAME
  1

  9
$CAMERADISPLAY
290
     0
  9
$LENSLENGTH
 40
50.0
  9
$CAMERAHEIGHT
 40
0.0
  9
$STEPSPERSEC
 40
2.0
  9
$STEPSIZE
 40
6.0
  9
$3DDWFPREC
 40
2.0
  9
$PSOLWIDTH
 40
0.25
  9
$PSOLHEIGHT
 40
4.0
  9
$LOFTANG1
 40
1.570796326794896
  9
$LOFTANG2
 40
1.570796326794896
  9
$LOFTMAG1
 40
0.0
  9
$LOFTMAG2
 40
0.0
  9
$LOFTPARAM
 70
     7
  9
$LOFTNORMALS
280
     1
  9
$LATITUDE
 40
37.795
  9
$LONGITUDE
 40
-122.394
  9
$NORTHDIRECTION
 40
0.0
  9
$TIMEZONE
 70
 -8000
  9
$LIGHTGLYPHDISPLAY
280
     1
  9
$TILEMODELIGHTSYNCH
280
     1
  9
$CMATERIAL
347
96
  9
$SOLIDHIST
280
     0
  9
$SHOWHIST
280
     1
  9
$DWFFRAME
280
     2
  9
$DGNFRAME
280
     0
  9
$REALWORLDSCALE
290
     1
  9
$INTERFERECOLOR
 62
     1
  9
$INTERFEREOBJVS
345
A3
  9
$INTERFEREVPVS
346
A0
  9
$CSHADOW
280
     0
  9
$SHADOWPLANELOCATION
 40
0.0
  0
ENDSEC
  0
SECTION
  2
CLASSES
  0
CLASS
  1
ACDBDICTIONARYWDFLT
  2
AcDbDictionaryWithDefault
  3
ObjectDBX Classes
 90
        0
 91
        1
280
     0
281
     0
  0
CLASS
  1
DICTIONARYVAR
  2
AcDbDictionaryVar
  3
ObjectDBX Classes
 90
        0
 91
       27
280
     0
281
     0
  0
CLASS
  1
TABLESTYLE
  2
AcDbTableStyle
  3
ObjectDBX Classes
 90
     4095
 91
        1
280
     0
281
     0
  0
CLASS
  1
MATERIAL
  2
AcDbMaterial
  3
ObjectDBX Classes
 90
     1153
 91
        3
280
     0
281
     0
  0
CLASS
  1
VISUALSTYLE
  2
AcDbVisualStyle
  3
ObjectDBX Classes
 90
     4095
 91
       25
280
     0
281
     0
  0
CLASS
  1
SCALE
  2
AcDbScale
  3
ObjectDBX Classes
 90
     1153
 91
       34
280
     0
281
     0
  0
CLASS
  1
MLEADERSTYLE
  2
AcDbMLeaderStyle
  3
ACDB_MLEADERSTYLE_CLASS
 90
     4095
 91
        1
280
     0
281
     0
  0
CLASS
  1
CELLSTYLEMAP
  2
AcDbCellStyleMap
  3
ObjectDBX Classes
 90
     1152
 91
        1
280
     0
281
     0
  0
CLASS
  1
EXACXREFPANELOBJECT
  2
ExAcXREFPanelObject
  3
EXAC_ESW
 90
     1025
 91
        1
280
     0
281
     0
  0
CLASS
  1
NPOCOLLECTION
  2
AcDbImpNonPersistentObjectsCollection
  3
ObjectDBX Classes
 90
     1153
 91
        1
280
     0
281
     0
  0
CLASS
  1
LAYER_INDEX
  2
AcDbLayerIndex
  3
ObjectDBX Classes
 90
        0
 91
        0
280
     0
281
     0
  0
CLASS
  1
SPATIAL_INDEX
  2
AcDbSpatialIndex
  3
ObjectDBX Classes
 90
        0
 91
        0
280
     0
281
     0
  0
CLASS
  1
IDBUFFER
  2
AcDbIdBuffer
  3
ObjectDBX Classes
 90
        0
 91
        0
280
     0
281
     0
  0
CLASS
  1
ACDBSECTIONVIEWSTYLE
  2
AcDbSectionViewStyle
  3
ObjectDBX Classes
 90
     1025
 91
        2
280
     0
281
     0
  0
CLASS
  1
ACDBDETAILVIEWSTYLE
  2
AcDbDetailViewStyle
  3
ObjectDBX Classes
 90
     1025
 91
        2
280
     0
281
     0
  0
CLASS
  1
SORTENTSTABLE
  2
AcDbSortentsTable
  3
ObjectDBX Classes
 90
        0
 91
        1
280
     0
281
     0
  0
CLASS
  1
ACAD_EVALUATION_GRAPH
  2
AcDbEvalGraph
  3
ObjectDBX Classes
 90
     1153
 91
        0
280
     0
281
     0
  0
CLASS
  1
BLOCKLINEARPARAMETER
  2
AcDbBlockLinearParameter
  3
ObjectDBX Classes
 90
     1153
 91
        0
280
     0
281
     0
  0
CLASS
  1
BLOCKLINEARGRIP
  2
AcDbBlockLinearGrip
  3
ObjectDBX Classes
 90
     1153
 91
        0
280
     0
281
     0
  0
CLASS
  1
BLOCKGRIPLOCATIONCOMPONENT
  2
AcDbBlockGripExpr
  3
ObjectDBX Classes
 90
     1153
 91
        0
280
     0
281
     0
  0
CLASS
  1
BLOCKSTRETCHACTION
  2
AcDbBlockStretchAction
  3
ObjectDBX Classes
 90
     1153
 91
        0
280
     0
281
     0
  0
CLASS
  1
ACDB_DYNAMICBLOCKPURGEPREVENTER_VERSION
  2
AcDbDynamicBlockPurgePreventer
  3
ObjectDBX Classes
 90
     1153
 91
        0
280
     0
281
     0
  0
CLASS
  1
BLOCKVISIBILITYPARAMETER
  2
AcDbBlockVisibilityParameter
  3
ObjectDBX Classes
 90
     1153
 91
        0
280
     0
281
     0
  0
CLASS
  1
BLOCKVISIBILITYGRIP
  2
AcDbBlockVisibilityGrip
  3
ObjectDBX Classes
 90
     1153
 91
        0
280
     0
281
     0
  0
CLASS
  1
ACDB_BLOCKREPRESENTATION_DATA
  2
AcDbBlockRepresentationData
  3
ObjectDBX Classes
 90
     1153
 91
        0
280
     0
281
     0
  0
CLASS
  1
SURFACE
  2
AcDbSurface
  3
ObjectDBX Classes
 90
     4095
 91
        0
280
     0
281
     1
  0
CLASS
  1
ACDBASSOCPERSSUBENTMANAGER
  2
AcDbAssocPersSubentManager
  3
ObjectDBX Classes
 90
     1024
 91
        1
280
     0
281
     0
  0
CLASS
  1
BLOCKARRAYACTION
  2
AcDbBlockArrayAction
  3
ObjectDBX Classes
 90
     1153
 91
        0
280
     0
281
     0
  0
CLASS
  1
BLOCKLOOKUPPARAMETER
  2
AcDbBlockLookupParameter
  3
ObjectDBX Classes
 90
     1153
 91
        0
280
     0
281
     0
  0
CLASS
  1
BLOCKLOOKUPGRIP
  2
AcDbBlockLookupGrip
  3
ObjectDBX Classes
 90
     1153
 91
        0
280
     0
281
     0
  0
CLASS
  1
BLOCKLOOKUPACTION
  2
AcDbBlockLookupAction
  3
ObjectDBX Classes
 90
     1153
 91
        0
280
     0
281
     0
  0
ENDSEC
  0
SECTION
  2
TABLES
  0
TABLE
  2
VPORT
  5
8
330
0
100
AcDbSymbolTable
 70
     1
  0
VPORT
  5
94
330
8
100
AcDbSymbolTableRecord
100
AcDbViewportTableRecord
  2
*Active
 70
     0
 10
0.0
 20
0.0
 11
1.0
 21
1.0
 12
106994.0385745567
 22
97404.42596094277
 13
0.0
 23
0.0
 14
0.5
 24
0.5
 15
0.5
 25
0.5
 16
0.0
 26
0.0
 36
1.0
 17
0.0
 27
0.0
 37
0.0
 40
9.741125494712619
 41
2.293369663941871
 42
50.0
 43
0.0
 44
0.0
 50
0.0
 51
0.0
 71
     0
 72
  1000
 73
     1
 74
     3
 75
     0
 76
     0
 77
     0
 78
     0
281
     0
 65
     1
110
0.0
120
0.0
130
0.0
111
1.0
121
0.0
131
0.0
112
0.0
122
1.0
132
0.0
 79
     0
146
0.0
348
9F
 60
     3
 61
     5
292
     1
282
     1
141
0.0
142
0.0
 63
   250
421
  3355443
1001
ACAD_NAV_VCDISPLAY
1070
     3
  0
ENDTAB
  0
TABLE
  2
LTYPE
  5
5
330
0
100
AcDbSymbolTable
 70
     1
  0
LTYPE
  5
14
330
5
100
AcDbSymbolTableRecord
100
AcDbLinetypeTableRecord
  2
ByBlock
 70
     0
  3

 72
    65
 73
     0
 40
0.0
  0
LTYPE
  5
15
330
5
100
AcDbSymbolTableRecord
100
AcDbLinetypeTableRecord
  2
ByLayer
 70
     0
  3

 72
    65
 73
     0
 40
0.0
  0
LTYPE
  5
16
330
5
100
AcDbSymbolTableRecord
100
AcDbLinetypeTableRecord
  2
Continuous
 70
     0
  3
Solid line
 72
    65
 73
     0
 40
0.0
  0
ENDTAB
  0
TABLE
  2
LAYER
  5
2
102
{ACAD_XDICTIONARY
360
18E
102
}
330
0
100
AcDbSymbolTable
 70
     2
  0
LAYER
  5
10
102
{ACAD_XDICTIONARY
360
E6
102
}
330
2
100
AcDbSymbolTableRecord
100
AcDbLayerTableRecord
  2
0
 70
     0
 62
     7
  6
Continuous
370
    -3
390
F
347
98
348
0
  0
LAYER
  5
204
330
2
100
AcDbSymbolTableRecord
100
AcDbLayerTableRecord
  2
freecads.com
 70
     0
 62
     7
  6
Continuous
370
    -3
390
F
347
98
348
0
1001
AcAecLayerStandard
1000

1000

1001
AcCmTransparency
1071
        0
  0
ENDTAB
  0
TABLE
  2
STYLE
  5
3
330
0
100
AcDbSymbolTable
 70
     2
  0
STYLE
  5
11
330
3
100
AcDbSymbolTableRecord
100
AcDbTextStyleTableRecord
  2
Standard
 70
     0
 40
0.0
 41
1.0
 50
0.0
 71
     0
 42
0.2
  3
arial.ttf
  4

1001
ACAD
1000
Arial
1071
       34
  0
ENDTAB
  0
TABLE
  2
VIEW
  5
6
330
0
100
AcDbSymbolTable
 70
     0
  0
ENDTAB
  0
TABLE
  2
UCS
  5
7
330
0
100
AcDbSymbolTable
 70
     0
  0
ENDTAB
  0
TABLE
  2
APPID
  5
9
330
0
100
AcDbSymbolTable
 70
    32
  0
APPID
  5
12
330
9
100
AcDbSymbolTableRecord
100
AcDbRegAppTableRecord
  2
ACAD
 70
     0
  0
APPID
  5
DD
330
9
100
AcDbSymbolTableRecord
100
AcDbRegAppTableRecord
  2
AcadAnnoPO
 70
     0
  0
APPID
  5
DE
330
9
100
AcDbSymbolTableRecord
100
AcDbRegAppTableRecord
  2
AcadAnnotative
 70
     0
  0
APPID
  5
DF
330
9
100
AcDbSymbolTableRecord
100
AcDbRegAppTableRecord
  2
ACAD_DSTYLE_DIMJAG
 70
     0
  0
APPID
  5
E0
330
9
100
AcDbSymbolTableRecord
100
AcDbRegAppTableRecord
  2
ACAD_DSTYLE_DIMTALN
 70
     0
  0
APPID
  5
107
330
9
100
AcDbSymbolTableRecord
100
AcDbRegAppTableRecord
  2
ACAD_MLEADERVER
 70
     0
  0
APPID
  5
1A6
330
9
100
AcDbSymbolTableRecord
100
AcDbRegAppTableRecord
  2
ACAD_NAV_VCDISPLAY
 70
     0
  0
APPID
  5
205
330
9
100
AcDbSymbolTableRecord
100
AcDbRegAppTableRecord
  2
AcAecLayerStandard
 70
     0
  0
APPID
  5
206
330
9
100
AcDbSymbolTableRecord
100
AcDbRegAppTableRecord
  2
AcCmTransparency
 70
     0
  0
APPID
  5
222
330
9
100
AcDbSymbolTableRecord
100
AcDbRegAppTableRecord
  2
ACAD_PSEXT
 70
     0
  0
APPID
  5
2DA
330
9
100
AcDbSymbolTableRecord
100
AcDbRegAppTableRecord
  2
GradientColor1ACI
 70
     0
  0
APPID
  5
2DB
330
9
100
AcDbSymbolTableRecord
100
AcDbRegAppTableRecord
  2
GradientColor2ACI
 70
     0
  0
APPID
  5
2F3
330
9
100
AcDbSymbolTableRecord
100
AcDbRegAppTableRecord
  2
ACAD_EXEMPT_FROM_CAD_STANDARDS
 70
     0
  0
APPID
  5
A1A
330
9
100
AcDbSymbolTableRecord
100
AcDbRegAppTableRecord
  2
AcDbBlockRepETag
 70
     0
  0
APPID
  5
2282
330
9
100
AcDbSymbolTableRecord
100
AcDbRegAppTableRecord
  2
RAK
 70
     0
  0
APPID
  5
39F4
330
9
100
AcDbSymbolTableRecord
100
AcDbRegAppTableRecord
  2
ACAD_DSTYLE_DIMJOGGED_JOGANGLE_SYMBOL
 70
     0
  0
APPID
  5
39F5
330
9
100
AcDbSymbolTableRecord
100
AcDbRegAppTableRecord
  2
AcDbDynamicBlockGUID
 70
     0
  0
APPID
  5
39F6
330
9
100
AcDbSymbolTableRecord
100
AcDbRegAppTableRecord
  2
ACAD_DSTYLE_DIMBREAK
 70
     0
  0
APPID
  5
3B59
330
9
100
AcDbSymbolTableRecord
100
AcDbRegAppTableRecord
  2
AEC_XDATA_BOUND_SPACE
 70
     0
  0
APPID
  5
75C5
330
9
100
AcDbSymbolTableRecord
100
AcDbRegAppTableRecord
  2
AcDbDynamicBlockTrueName
 70
     0
  0
APPID
  5
75C6
330
9
100
AcDbSymbolTableRecord
100
AcDbRegAppTableRecord
  2
AcDbBlockRepBTag
 70
     0
  0
APPID
  5
75C7
330
9
100
AcDbSymbolTableRecord
100
AcDbRegAppTableRecord
  2
ACAUTHENVIRON
 70
     0
  0
APPID
  5
AA90
330
9
100
AcDbSymbolTableRecord
100
AcDbRegAppTableRecord
  2
Acad_TC
 70
     0
  0
APPID
  5
AA9C
330
9
100
AcDbSymbolTableRecord
100
AcDbRegAppTableRecord
  2
AcDbBlockArrayActionTag
 70
     0
  0
APPID
  5
BEE4
330
9
100
AcDbSymbolTableRecord
100
AcDbRegAppTableRecord
  2
ACAD_DSTYLE_DIMTEXT_FILL
 70
     0
  0
APPID
  5
219E5
330
9
100
AcDbSymbolTableRecord
100
AcDbRegAppTableRecord
  2
AECLAY
 70
     0
  0
APPID
  5
26B46
330
9
100
AcDbSymbolTableRecord
100
AcDbRegAppTableRecord
  2
REVIT
 70
     0
  0
APPID
  5
280A5
330
9
100
AcDbSymbolTableRecord
100
AcDbRegAppTableRecord
  2
HATCHBACKGROUNDCOLOR
 70
     0
  0
APPID
  5
29EE0
330
9
100
AcDbSymbolTableRecord
100
AcDbRegAppTableRecord
  2
ACAD_STEPID
 70
     0
  0
APPID
  5
29EE1
330
9
100
AcDbSymbolTableRecord
100
AcDbRegAppTableRecord
  2
AcLayerTools
 70
     0
  0
APPID
  5
4D86C
330
9
100
AcDbSymbolTableRecord
100
AcDbRegAppTableRecord
  2
PE_URL
 70
     0
  0
APPID
  5
502C4
330
9
100
AcDbSymbolTableRecord
100
AcDbRegAppTableRecord
  2
_KTI_ARE
 70
     0
  0
ENDTAB
  0
TABLE
  2
DIMSTYLE
  5
A
330
0
100
AcDbSymbolTable
 70
     2
100
AcDbDimStyleTable
 71
     1
340
27
  0
DIMSTYLE
105
27
330
A
100
AcDbSymbolTableRecord
100
AcDbDimStyleTableRecord
  2
Standard
 70
     0
340
11
  0
ENDTAB
  0
TABLE
  2
BLOCK_RECORD
  5
1
330
0
100
AcDbSymbolTable
 70
     2
  0
BLOCK_RECORD
  5
1F
102
{ACAD_XDICTIONARY
360
15D
102
}
330
1
100
AcDbSymbolTableRecord
100
AcDbBlockTableRecord
  2
*Model_Space
340
22
 70
     0
280
     1
281
     0
  0
BLOCK_RECORD
  5
58
330
1
100
AcDbSymbolTableRecord
100
AcDbBlockTableRecord
  2
*Paper_Space
340
59
 70
     0
280
     1
281
     0
  0
BLOCK_RECORD
  5
5D
330
1
100
AcDbSymbolTableRecord
100
AcDbBlockTableRecord
  2
*Paper_Space0
340
5E
 70
     0
280
     1
281
     0
  0
ENDTAB
  0
ENDSEC
  0
SECTION
  2
BLOCKS
  0
BLOCK
  5
20
330
1F
100
AcDbEntity
  8
0
100
AcDbBlockBegin
  2
*Model_Space
 70
     0
 10
0.0
 20
0.0
 30
0.0
  3
*Model_Space
  1

  0
ENDBLK
  5
21
330
1F
100
AcDbEntity
  8
0
100
AcDbBlockEnd
  0
BLOCK
  5
5A
330
58
100
AcDbEntity
 67
     1
  8
0
100
AcDbBlockBegin
  2
*Paper_Space
 70
     0
 10
0.0
 20
0.0
 30
0.0
  3
*Paper_Space
  1

  0
ENDBLK
  5
5B
330
58
100
AcDbEntity
 67
     1
  8
0
100
AcDbBlockEnd
  0
BLOCK
  5
5F
330
5D
100
AcDbEntity
 67
     1
  8
0
100
AcDbBlockBegin
  2
*Paper_Space0
 70
     0
 10
0.0
 20
0.0
 30
0.0
  3
*Paper_Space0
  1

  0
ENDBLK
  5
60
330
5D
100
AcDbEntity
 67
     1
  8
0
100
AcDbBlockEnd
  0
ENDSEC
  0
SECTION
  2
ENTITIES
  0
LINE
  5
E06E3
330
1F
100
AcDbEntity
  8
freecads.com
100
AcDbLine
 10
106991.2069140198
 20
97403.79452712225
 30
0.0
 11
106991.1723972507
 21
97403.77381705886
 31
0.0
  0
LINE
  5
E06E4
330
1F
100
AcDbEntity
  8
freecads.com
100
AcDbLine
 10
106991.1931073287
 20
97404.53318639094
 30
0.0
 11
106991.220720711
 21
97404.52628302357
 31
0.0
  0
LINE
  5
E06E5
330
1F
100
AcDbEntity
  8
freecads.com
100
AcDbLine
 10
106991.2552375576
 20
97403.63574985163
 30
0.0
 11
106991.1793005891
 21
97403.61503983184
 31
0.0
  0
LINE
  5
E06E6
330
1F
100
AcDbEntity
  8
freecads.com
100
AcDbLine
 10
106991.2000106864
 20
97403.47697271666
 30
0.0
 11
106991.2276241317
 21
97403.52529617693
 31
0.0
  0
LINE
  5
E06E7
330
1F
100
AcDbEntity
  8
freecads.com
100
AcDbLine
 10
106991.3311744487
 20
97403.46316594314
 30
0.0
 11
106991.2000106864
 21
97403.47697271666
 31
0.0
  0
LINE
  5
E06E8
330
1F
100
AcDbEntity
  8
freecads.com
100
AcDbLine
 10
106991.1931073287
 20
97405.4444295778
 30
0.0
 11
106991.2414307744
 21
97405.43062289633
 31
0.0
  0
LINE
  5
E06E9
330
1F
100
AcDbEntity
  8
freecads.com
100
AcDbLine
 10
106991.1862039952
 20
97405.14758525501
 30
0.0
 11
106991.2414307744
 21
97405.12687510925
 31
0.0
  0
LINE
  5
E06EA
330
1F
100
AcDbEntity
  8
freecads.com
100
AcDbLine
 10
106991.2414307744
 20
97404.72648040645
 30
0.0
 11
106991.1862039952
 21
97404.733383706
 31
0.0
  0
LINE
  5
E06EB
330
1F
100
AcDbEntity
  8
freecads.com
100
AcDbLine
 10
106991.1585905208
 20
97404.64364013346
 30
0.0
 11
106991.2138173775
 21
97404.66435014843
 31
0.0
  0
LINE
  5
E06EC
330
1F
100
AcDbEntity
  8
freecads.com
100
AcDbLine
 10
106991.2069140198
 20
97405.13377848632
 30
0.0
 11
106991.1931073287
 21
97405.13377848632
 31
0.0
  0
LINE
  5
E06ED
330
1F
100
AcDbEntity
  8
freecads.com
100
AcDbLine
 10
106991.2138173775
 20
97405.17519861796
 30
0.0
 11
106991.2000106864
 21
97405.18900534789
 31
0.0
  0
LINE
  5
E06EE
330
1F
100
AcDbEntity
  8
freecads.com
100
AcDbLine
 10
106990.9031663539
 20
97405.01642139095
 30
0.0
 11
106990.8548428161
 21
97405.04403481203
 31
0.0
  0
LINE
  5
E06EF
330
1F
100
AcDbEntity
  8
freecads.com
100
AcDbLine
 10
106991.0136200819
 20
97405.0302280821
 30
0.0
 11
106991.0067166321
 21
97405.00951806232
 31
0.0
  0
LINE
  5
E06F0
330
1F
100
AcDbEntity
  8
freecads.com
100
AcDbLine
 10
106991.1102670266
 20
97403.76001036283
 30
0.0
 11
106991.0757502236
 21
97403.78072045531
 31
0.0
  0
LINE
  5
E06F1
330
1F
100
AcDbEntity
  8
freecads.com
100
AcDbLine
 10
106991.1723972507
 20
97403.77381705886
 30
0.0
 11
106991.1447838345
 21
97403.76001036283
 31
0.0
  0
LINE
  5
E06F2
330
1F
100
AcDbEntity
  8
freecads.com
100
AcDbLine
 10
106990.7789058524
 20
97403.73930029944
 30
0.0
 11
106990.7789058524
 21
97403.82214055305
 31
0.0
  0
LINE
  5
E06F3
330
1F
100
AcDbEntity
  8
freecads.com
100
AcDbLine
 10
106991.1447838345
 20
97403.76001036283
 30
0.0
 11
106991.1102670266
 21
97403.76001036283
 31
0.0
  0
LINE
  5
E06F4
330
1F
100
AcDbEntity
  8
freecads.com
100
AcDbLine
 10
106990.7789058524
 20
97403.66336333087
 30
0.0
 11
106990.7789058524
 21
97403.73930029944
 31
0.0
  0
LINE
  5
E06F5
330
1F
100
AcDbEntity
  8
freecads.com
100
AcDbLine
 10
106990.7789058524
 20
97403.5460062791
 30
0.0
 11
106990.7927125823
 21
97403.60123314067
 31
0.0
  0
LINE
  5
E06F6
330
1F
100
AcDbEntity
  8
freecads.com
100
AcDbLine
 10
106990.8617461932
 20
97403.53219954432
 30
0.0
 11
106990.7789058524
 21
97403.5460062791
 31
0.0
  0
LINE
  5
E06F7
330
1F
100
AcDbEntity
  8
freecads.com
100
AcDbLine
 10
106990.9238763301
 20
97403.52529617693
 30
0.0
 11
106990.8617461932
 21
97403.53219954432
 31
0.0
  0
LINE
  5
E06F8
330
1F
100
AcDbEntity
  8
freecads.com
100
AcDbLine
 10
106991.0067166321
 20
97403.58742640589
 30
0.0
 11
106990.9238763301
 21
97403.52529617693
 31
0.0
  0
LINE
  5
E06F9
330
1F
100
AcDbEntity
  8
freecads.com
100
AcDbLine
 10
106991.082653591
 20
97403.6081364596
 30
0.0
 11
106991.0067166321
 21
97403.58742640589
 31
0.0
  0
LINE
  5
E06FA
330
1F
100
AcDbEntity
  8
freecads.com
100
AcDbLine
 10
106991.1309770561
 20
97403.64955663485
 30
0.0
 11
106991.082653591
 21
97403.6081364596
 31
0.0
  0
LINE
  5
E06FB
330
1F
100
AcDbEntity
  8
freecads.com
100
AcDbLine
 10
106991.1793005891
 20
97403.61503983184
 30
0.0
 11
106991.1309770561
 21
97403.64955663485
 31
0.0
  0
LINE
  5
E06FC
330
1F
100
AcDbEntity
  8
freecads.com
100
AcDbLine
 10
106990.8479394439
 20
97404.37440922207
 30
0.0
 11
106990.8548428161
 21
97404.40202257049
 31
0.0
  0
LINE
  5
E06FD
330
1F
100
AcDbEntity
  8
freecads.com
100
AcDbLine
 10
106990.8893595319
 20
97404.39511924186
 30
0.0
 11
106990.8479394439
 21
97404.37440922207
 31
0.0
  0
LINE
  5
E06FE
330
1F
100
AcDbEntity
  8
freecads.com
100
AcDbLine
 10
106990.8272292884
 20
97404.38821592292
 30
0.0
 11
106990.8410360474
 21
97404.40892593786
 31
0.0
  0
LINE
  5
E06FF
330
1F
100
AcDbEntity
  8
freecads.com
100
AcDbLine
 10
106990.9445864322
 20
97403.83594728781
 30
0.0
 11
106990.9652965005
 21
97403.83594728781
 31
0.0
  0
LINE
  5
E0700
330
1F
100
AcDbEntity
  8
freecads.com
100
AcDbLine
 10
106990.8410360813
 20
97403.80833379889
 30
0.0
 11
106990.8962629429
 21
97403.80833379889
 31
0.0
  0
LINE
  5
E0701
330
1F
100
AcDbEntity
  8
freecads.com
100
AcDbLine
 10
106990.8686495121
 20
97403.80833379889
 30
0.0
 11
106990.8410360813
 21
97403.80833379889
 31
0.0
  0
LINE
  5
E0702
330
1F
100
AcDbEntity
  8
freecads.com
100
AcDbLine
 10
106990.9031663539
 20
97403.80143048481
 30
0.0
 11
106990.8686495121
 21
97403.80833379889
 31
0.0
  0
LINE
  5
E0703
330
1F
100
AcDbEntity
  8
freecads.com
100
AcDbLine
 10
106990.951489819
 20
97403.80143048481
 30
0.0
 11
106990.9031663539
 21
97403.80143048481
 31
0.0
  0
LINE
  5
E0704
330
1F
100
AcDbEntity
  8
freecads.com
100
AcDbLine
 10
106990.9721999066
 20
97403.81523721957
 30
0.0
 11
106990.951489819
 21
97403.80143048481
 31
0.0
  0
LINE
  5
E0705
330
1F
100
AcDbEntity
  8
freecads.com
100
AcDbLine
 10
106991.0067166321
 20
97403.84285065035
 30
0.0
 11
106990.9721999066
 21
97403.81523721957
 31
0.0
  0
LINE
  5
E0706
330
1F
100
AcDbEntity
  8
freecads.com
100
AcDbLine
 10
106991.0343300968
 20
97403.84285065035
 30
0.0
 11
106991.0067166321
 21
97403.84285065035
 31
0.0
  0
LINE
  5
E0707
330
1F
100
AcDbEntity
  8
freecads.com
100
AcDbLine
 10
106991.082653591
 20
97403.84285065035
 30
0.0
 11
106991.0343300968
 21
97403.84285065035
 31
0.0
  0
LINE
  5
E0708
330
1F
100
AcDbEntity
  8
freecads.com
100
AcDbLine
 10
106991.1102670266
 20
97403.84285065035
 30
0.0
 11
106991.082653591
 21
97403.84285065035
 31
0.0
  0
LINE
  5
E0709
330
1F
100
AcDbEntity
  8
freecads.com
100
AcDbLine
 10
106991.1585905208
 20
97403.84285065035
 30
0.0
 11
106991.1102670266
 21
97403.84285065035
 31
0.0
  0
LINE
  5
E070A
330
1F
100
AcDbEntity
  8
freecads.com
100
AcDbLine
 10
106991.1447838345
 20
97403.87046409082
 30
0.0
 11
106991.1793005891
 21
97403.87736740977
 31
0.0
  0
LINE
  5
E070B
330
1F
100
AcDbEntity
  8
freecads.com
100
AcDbLine
 10
106991.1102670266
 20
97403.84975402259
 30
0.0
 11
106991.1447838345
 21
97403.87046409082
 31
0.0
  0
LINE
  5
E070C
330
1F
100
AcDbEntity
  8
freecads.com
100
AcDbLine
 10
106991.0757502236
 20
97403.80833379889
 30
0.0
 11
106991.1102670266
 21
97403.84975402259
 31
0.0
  0
LINE
  5
E070D
330
1F
100
AcDbEntity
  8
freecads.com
100
AcDbLine
 10
106991.0757502236
 20
97403.78072045531
 30
0.0
 11
106991.0757502236
 21
97403.80833379889
 31
0.0
  0
LINE
  5
E070E
330
1F
100
AcDbEntity
  8
freecads.com
100
AcDbLine
 10
106990.8134226166
 20
97404.3122789495
 30
0.0
 11
106990.7996159061
 21
97404.34679574766
 31
0.0
  0
LINE
  5
E070F
330
1F
100
AcDbEntity
  8
freecads.com
100
AcDbLine
 10
106990.8479394439
 20
97404.28466554293
 30
0.0
 11
106990.8134226166
 21
97404.3122789495
 31
0.0
  0
LINE
  5
E0710
330
1F
100
AcDbEntity
  8
freecads.com
100
AcDbLine
 10
106990.8824562129
 20
97404.28466554293
 30
0.0
 11
106990.8479394439
 21
97404.28466554293
 31
0.0
  0
LINE
  5
E0711
330
1F
100
AcDbEntity
  8
freecads.com
100
AcDbLine
 10
106990.8548428161
 20
97404.257052117
 30
0.0
 11
106990.8824562129
 21
97404.28466554293
 31
0.0
  0
LINE
  5
E0712
330
1F
100
AcDbEntity
  8
freecads.com
100
AcDbLine
 10
106990.8824562469
 20
97404.24324535315
 30
0.0
 11
106990.8548428161
 21
97404.257052117
 31
0.0
  0
LINE
  5
E0713
330
1F
100
AcDbEntity
  8
freecads.com
100
AcDbLine
 10
106990.8962629429
 20
97404.1396950313
 30
0.0
 11
106990.8824562469
 21
97404.24324535315
 31
0.0
  0
LINE
  5
E0714
330
1F
100
AcDbEntity
  8
freecads.com
100
AcDbLine
 10
106990.8548428161
 20
97404.1396950313
 30
0.0
 11
106990.8962629429
 21
97404.1396950313
 31
0.0
  0
LINE
  5
E0715
330
1F
100
AcDbEntity
  8
freecads.com
100
AcDbLine
 10
106990.875552831
 20
97404.16040509471
 30
0.0
 11
106990.8548428161
 21
97404.1396950313
 31
0.0
  0
LINE
  5
E0716
330
1F
100
AcDbEntity
  8
freecads.com
100
AcDbLine
 10
106990.8410360474
 20
97404.15350172733
 30
0.0
 11
106990.875552831
 21
97404.16040509471
 31
0.0
  0
LINE
  5
E0717
330
1F
100
AcDbEntity
  8
freecads.com
100
AcDbLine
 10
106990.8272292884
 20
97404.13279166393
 30
0.0
 11
106990.8410360474
 21
97404.15350172733
 31
0.0
  0
LINE
  5
E0718
330
1F
100
AcDbEntity
  8
freecads.com
100
AcDbLine
 10
106990.8548427386
 20
97404.10517822828
 30
0.0
 11
106990.7996159061
 21
97404.11208163928
 31
0.0
  0
LINE
  5
E0719
330
1F
100
AcDbEntity
  8
freecads.com
100
AcDbLine
 10
106990.8134226166
 20
97404.10517822828
 30
0.0
 11
106990.8548427386
 21
97404.10517822828
 31
0.0
  0
LINE
  5
E071A
330
1F
100
AcDbEntity
  8
freecads.com
100
AcDbLine
 10
106990.8341327091
 20
97404.01543457339
 30
0.0
 11
106990.7858091761
 21
97404.01543457339
 31
0.0
  0
LINE
  5
E071B
330
1F
100
AcDbEntity
  8
freecads.com
100
AcDbLine
 10
106990.875552831
 20
97404.02233797469
 30
0.0
 11
106990.8341327091
 21
97404.01543457339
 31
0.0
  0
LINE
  5
E071C
330
1F
100
AcDbEntity
  8
freecads.com
100
AcDbLine
 10
106990.8410360813
 20
97404.01543457339
 30
0.0
 11
106990.875552831
 21
97404.02233797469
 31
0.0
  0
LINE
  5
E071D
330
1F
100
AcDbEntity
  8
freecads.com
100
AcDbLine
 10
106990.8686495121
 20
97404.02924130332
 30
0.0
 11
106990.8410360813
 21
97404.01543457339
 31
0.0
  0
LINE
  5
E071E
330
1F
100
AcDbEntity
  8
freecads.com
100
AcDbLine
 10
106990.8617461932
 20
97403.99472450514
 30
0.0
 11
106990.8686495121
 21
97404.02924130332
 31
0.0
  0
LINE
  5
E071F
330
1F
100
AcDbEntity
  8
freecads.com
100
AcDbLine
 10
106990.8617461932
 20
97403.96711107436
 30
0.0
 11
106990.8617461932
 21
97403.99472450514
 31
0.0
  0
LINE
  5
E0720
330
1F
100
AcDbEntity
  8
freecads.com
100
AcDbLine
 10
106990.9100696341
 20
97403.96711107436
 30
0.0
 11
106990.8617461932
 21
97403.96711107436
 31
0.0
  0
LINE
  5
E0721
330
1F
100
AcDbEntity
  8
freecads.com
100
AcDbLine
 10
106990.8617461932
 20
97403.96020775541
 30
0.0
 11
106990.9100696341
 21
97403.96711107436
 31
0.0
  0
LINE
  5
E0722
330
1F
100
AcDbEntity
  8
freecads.com
100
AcDbLine
 10
106990.8341327091
 20
97403.93259427134
 30
0.0
 11
106990.8617461932
 21
97403.96020775541
 31
0.0
  0
LINE
  5
E0723
330
1F
100
AcDbEntity
  8
freecads.com
100
AcDbLine
 10
106990.8272293514
 20
97403.82904395433
 30
0.0
 11
106990.8341327091
 21
97403.93259427134
 31
0.0
  0
LINE
  5
E0724
330
1F
100
AcDbEntity
  8
freecads.com
100
AcDbLine
 10
106990.7789058524
 20
97403.82214055305
 30
0.0
 11
106990.8272293514
 21
97403.82904395433
 31
0.0
  0
LINE
  5
E0725
330
1F
100
AcDbEntity
  8
freecads.com
100
AcDbLine
 10
106990.7858092149
 20
97403.87736740977
 30
0.0
 11
106990.7789058524
 21
97403.82214055305
 31
0.0
  0
LINE
  5
E0726
330
1F
100
AcDbEntity
  8
freecads.com
100
AcDbLine
 10
106991.1793005891
 20
97404.50557296986
 30
0.0
 11
106991.1931073287
 21
97404.53318639094
 31
0.0
  0
LINE
  5
E0727
330
1F
100
AcDbEntity
  8
freecads.com
100
AcDbLine
 10
106991.1862039952
 20
97404.48486293551
 30
0.0
 11
106991.1793005891
 21
97404.50557296986
 31
0.0
  0
LINE
  5
E0728
330
1F
100
AcDbEntity
  8
freecads.com
100
AcDbLine
 10
106991.1723972507
 20
97404.46415284788
 30
0.0
 11
106991.1862039952
 21
97404.48486293551
 31
0.0
  0
LINE
  5
E0729
330
1F
100
AcDbEntity
  8
freecads.com
100
AcDbLine
 10
106991.1378804526
 20
97404.46415284788
 30
0.0
 11
106991.1723972507
 21
97404.46415284788
 31
0.0
  0
LINE
  5
E072A
330
1F
100
AcDbEntity
  8
freecads.com
100
AcDbLine
 10
106991.0964603258
 20
97404.47795953906
 30
0.0
 11
106991.1033636738
 21
97404.46415284788
 31
0.0
  0
LINE
  5
E072B
330
1F
100
AcDbEntity
  8
freecads.com
100
AcDbLine
 10
106991.0895569196
 20
97404.51247633238
 30
0.0
 11
106991.0964603258
 21
97404.47795953906
 31
0.0
  0
LINE
  5
E072C
330
1F
100
AcDbEntity
  8
freecads.com
100
AcDbLine
 10
106991.0343300968
 20
97404.49866959277
 30
0.0
 11
106991.0895569196
 21
97404.51247633238
 31
0.0
  0
LINE
  5
E072D
330
1F
100
AcDbEntity
  8
freecads.com
100
AcDbLine
 10
106990.9998132986
 20
97404.47795953906
 30
0.0
 11
106991.0343300968
 21
97404.49866959277
 31
0.0
  0
LINE
  5
E072E
330
1F
100
AcDbEntity
  8
freecads.com
100
AcDbLine
 10
106990.9791032013
 20
97404.49866959277
 30
0.0
 11
106990.9998132986
 21
97404.47795953906
 31
0.0
  0
LINE
  5
E072F
330
1F
100
AcDbEntity
  8
freecads.com
100
AcDbLine
 10
106990.9721999066
 20
97404.51247633238
 30
0.0
 11
106990.9791032013
 21
97404.49866959277
 31
0.0
  0
LINE
  5
E0730
330
1F
100
AcDbEntity
  8
freecads.com
100
AcDbLine
 10
106990.93768306
 20
97404.51247633238
 30
0.0
 11
106990.9721999066
 21
97404.51247633238
 31
0.0
  0
LINE
  5
E0731
330
1F
100
AcDbEntity
  8
freecads.com
100
AcDbLine
 10
106990.951489819
 20
97404.47105617167
 30
0.0
 11
106990.93768306
 21
97404.51247633238
 31
0.0
  0
LINE
  5
E0732
330
1F
100
AcDbEntity
  8
freecads.com
100
AcDbLine
 10
106990.9445864322
 20
97404.45034605983
 30
0.0
 11
106990.951489819
 21
97404.47105617167
 31
0.0
  0
LINE
  5
E0733
330
1F
100
AcDbEntity
  8
freecads.com
100
AcDbLine
 10
106990.8962629429
 20
97404.44344270214
 30
0.0
 11
106990.9445864322
 21
97404.45034605983
 31
0.0
  0
LINE
  5
E0734
330
1F
100
AcDbEntity
  8
freecads.com
100
AcDbLine
 10
106990.8548428161
 20
97404.40202257049
 30
0.0
 11
106990.8962629429
 21
97404.44344270214
 31
0.0
  0
LINE
  5
E0735
330
1F
100
AcDbEntity
  8
freecads.com
100
AcDbLine
 10
106990.8824562129
 20
97404.42963604486
 30
0.0
 11
106990.8893595319
 21
97404.39511924186
 31
0.0
  0
LINE
  5
E0736
330
1F
100
AcDbEntity
  8
freecads.com
100
AcDbLine
 10
106990.8272292884
 20
97404.42273266779
 30
0.0
 11
106990.8341327091
 21
97404.42963604486
 31
0.0
  0
LINE
  5
E0737
330
1F
100
AcDbEntity
  8
freecads.com
100
AcDbLine
 10
106990.8410360474
 20
97404.40892593786
 30
0.0
 11
106990.8272292884
 21
97404.42273266779
 31
0.0
  0
LINE
  5
E0738
330
1F
100
AcDbEntity
  8
freecads.com
100
AcDbLine
 10
106990.9445864322
 20
97405.00951806232
 30
0.0
 11
106990.9031663539
 21
97405.01642139095
 31
0.0
  0
LINE
  5
E0739
330
1F
100
AcDbEntity
  8
freecads.com
100
AcDbLine
 10
106990.9721999066
 20
97405.00951806232
 30
0.0
 11
106990.9445864322
 21
97405.00951806232
 31
0.0
  0
LINE
  5
E073A
330
1F
100
AcDbEntity
  8
freecads.com
100
AcDbLine
 10
106991.0067166321
 20
97405.00951806232
 30
0.0
 11
106990.9721999066
 21
97405.00951806232
 31
0.0
  0
LINE
  5
E073B
330
1F
100
AcDbEntity
  8
freecads.com
100
AcDbLine
 10
106990.9929099022
 20
97404.98190463638
 30
0.0
 11
106991.0274267343
 21
97404.99571137599
 31
0.0
  0
LINE
  5
E073C
330
1F
100
AcDbEntity
  8
freecads.com
100
AcDbLine
 10
106990.9791032013
 20
97404.98190463638
 30
0.0
 11
106990.9929099022
 21
97404.98190463638
 31
0.0
  0
LINE
  5
E073D
330
1F
100
AcDbEntity
  8
freecads.com
100
AcDbLine
 10
106990.93768306
 20
97404.97500125931
 30
0.0
 11
106990.9791032013
 21
97404.98190463638
 31
0.0
  0
LINE
  5
E073E
330
1F
100
AcDbEntity
  8
freecads.com
100
AcDbLine
 10
106990.9100696341
 20
97404.96119457297
 30
0.0
 11
106990.93768306
 21
97404.97500125931
 31
0.0
  0
LINE
  5
E073F
330
1F
100
AcDbEntity
  8
freecads.com
100
AcDbLine
 10
106990.9100696341
 20
97404.92667779419
 30
0.0
 11
106990.9100696341
 21
97404.96119457297
 31
0.0
  0
LINE
  5
E0740
330
1F
100
AcDbEntity
  8
freecads.com
100
AcDbLine
 10
106990.9445864322
 20
97404.89216101055
 30
0.0
 11
106990.9100696341
 21
97404.92667779419
 31
0.0
  0
LINE
  5
E0741
330
1F
100
AcDbEntity
  8
freecads.com
100
AcDbLine
 10
106990.9998132986
 20
97404.8852576044
 30
0.0
 11
106990.9445864322
 21
97404.89216101055
 31
0.0
  0
LINE
  5
E0742
330
1F
100
AcDbEntity
  8
freecads.com
100
AcDbLine
 10
106991.0619435227
 20
97404.92667779419
 30
0.0
 11
106990.9998132986
 21
97404.8852576044
 31
0.0
  0
LINE
  5
E0743
330
1F
100
AcDbEntity
  8
freecads.com
100
AcDbLine
 10
106991.1102670266
 20
97404.92667779419
 30
0.0
 11
106991.0619435227
 21
97404.92667779419
 31
0.0
  0
LINE
  5
E0744
330
1F
100
AcDbEntity
  8
freecads.com
100
AcDbLine
 10
106991.1171704037
 20
97404.90596771625
 30
0.0
 11
106991.1102670266
 21
97404.92667779419
 31
0.0
  0
LINE
  5
E0745
330
1F
100
AcDbEntity
  8
freecads.com
100
AcDbLine
 10
106991.1171704037
 20
97404.87835426609
 30
0.0
 11
106991.1171704037
 21
97404.90596771625
 31
0.0
  0
LINE
  5
E0746
330
1F
100
AcDbEntity
  8
freecads.com
100
AcDbLine
 10
106991.1033636738
 20
97404.85074084013
 30
0.0
 11
106991.1171704037
 21
97404.87835426609
 31
0.0
  0
LINE
  5
E0747
330
1F
100
AcDbEntity
  8
freecads.com
100
AcDbLine
 10
106991.0550401699
 20
97404.84383747761
 30
0.0
 11
106991.1033636738
 21
97404.85074084013
 31
0.0
  0
LINE
  5
E0748
330
1F
100
AcDbEntity
  8
freecads.com
100
AcDbLine
 10
106991.020523362
 20
97404.83693414898
 30
0.0
 11
106991.0550401699
 21
97404.84383747761
 31
0.0
  0
LINE
  5
E0749
330
1F
100
AcDbEntity
  8
freecads.com
100
AcDbLine
 10
106991.020523362
 20
97404.80932071818
 30
0.0
 11
106991.020523362
 21
97404.83693414898
 31
0.0
  0
LINE
  5
E074A
330
1F
100
AcDbEntity
  8
freecads.com
100
AcDbLine
 10
106991.0550401699
 20
97404.80241730235
 30
0.0
 11
106991.020523362
 21
97404.80932071818
 31
0.0
  0
LINE
  5
E074B
330
1F
100
AcDbEntity
  8
freecads.com
100
AcDbLine
 10
106991.1033636738
 20
97404.82312740452
 30
0.0
 11
106991.0550401699
 21
97404.80241730235
 31
0.0
  0
LINE
  5
E074C
330
1F
100
AcDbEntity
  8
freecads.com
100
AcDbLine
 10
106991.1378804526
 20
97404.82312740452
 30
0.0
 11
106991.1033636738
 21
97404.82312740452
 31
0.0
  0
LINE
  5
E074D
330
1F
100
AcDbEntity
  8
freecads.com
100
AcDbLine
 10
106991.1378804526
 20
97404.80932071818
 30
0.0
 11
106991.1378804526
 21
97404.82312740452
 31
0.0
  0
LINE
  5
E074E
330
1F
100
AcDbEntity
  8
freecads.com
100
AcDbLine
 10
106991.1171704037
 20
97404.76099720462
 30
0.0
 11
106991.1378804526
 21
97404.80932071818
 31
0.0
  0
LINE
  5
E074F
330
1F
100
AcDbEntity
  8
freecads.com
100
AcDbLine
 10
106991.1378804526
 20
97404.74028711215
 30
0.0
 11
106991.1171704037
 21
97404.76099720462
 31
0.0
  0
LINE
  5
E0750
330
1F
100
AcDbEntity
  8
freecads.com
100
AcDbLine
 10
106991.1862039952
 20
97404.733383706
 30
0.0
 11
106991.1378804526
 21
97404.74028711215
 31
0.0
  0
LINE
  5
E0751
330
1F
100
AcDbEntity
  8
freecads.com
100
AcDbLine
 10
106991.1378804526
 20
97404.63673676124
 30
0.0
 11
106991.1585905208
 21
97404.64364013346
 31
0.0
  0
LINE
  5
E0752
330
1F
100
AcDbEntity
  8
freecads.com
100
AcDbLine
 10
106991.0964603258
 20
97404.63673676124
 30
0.0
 11
106991.1378804526
 21
97404.63673676124
 31
0.0
  0
LINE
  5
E0753
330
1F
100
AcDbEntity
  8
freecads.com
100
AcDbLine
 10
106991.0688468611
 20
97404.64364013346
 30
0.0
 11
106991.0964603258
 21
97404.63673676124
 31
0.0
  0
LINE
  5
E0754
330
1F
100
AcDbEntity
  8
freecads.com
100
AcDbLine
 10
106991.0412334351
 20
97404.64364013346
 30
0.0
 11
106991.0688468611
 21
97404.64364013346
 31
0.0
  0
LINE
  5
E0755
330
1F
100
AcDbEntity
  8
freecads.com
100
AcDbLine
 10
106991.0412334351
 20
97404.63673676124
 30
0.0
 11
106991.0412334351
 21
97404.64364013346
 31
0.0
  0
LINE
  5
E0756
330
1F
100
AcDbEntity
  8
freecads.com
100
AcDbLine
 10
106991.1793005891
 20
97405.45823627867
 30
0.0
 11
106991.1931073287
 21
97405.4444295778
 31
0.0
  0
LINE
  5
E0757
330
1F
100
AcDbEntity
  8
freecads.com
100
AcDbLine
 10
106991.1516871098
 20
97405.45823627867
 30
0.0
 11
106991.1793005891
 21
97405.45823627867
 31
0.0
  0
LINE
  5
E0758
330
1F
100
AcDbEntity
  8
freecads.com
100
AcDbLine
 10
106991.0964603258
 20
97405.45133293066
 30
0.0
 11
106991.1516871098
 21
97405.45823627867
 31
0.0
  0
LINE
  5
E0759
330
1F
100
AcDbEntity
  8
freecads.com
100
AcDbLine
 10
106991.0619435227
 20
97405.41681617125
 30
0.0
 11
106991.0964603258
 21
97405.45133293066
 31
0.0
  0
LINE
  5
E075A
330
1F
100
AcDbEntity
  8
freecads.com
100
AcDbLine
 10
106991.0412334351
 20
97405.38229940215
 30
0.0
 11
106991.0619435227
 21
97405.41681617125
 31
0.0
  0
LINE
  5
E075B
330
1F
100
AcDbEntity
  8
freecads.com
100
AcDbLine
 10
106990.9929099022
 20
97405.38229940215
 30
0.0
 11
106991.0412334351
 21
97405.38229940215
 31
0.0
  0
LINE
  5
E075C
330
1F
100
AcDbEntity
  8
freecads.com
100
AcDbLine
 10
106990.9929099022
 20
97405.36158930485
 30
0.0
 11
106990.9929099022
 21
97405.38229940215
 31
0.0
  0
LINE
  5
E075D
330
1F
100
AcDbEntity
  8
freecads.com
100
AcDbLine
 10
106991.0067166321
 20
97405.34087923174
 30
0.0
 11
106990.9929099022
 21
97405.36158930485
 31
0.0
  0
LINE
  5
E075E
330
1F
100
AcDbEntity
  8
freecads.com
100
AcDbLine
 10
106991.0757502236
 20
97405.30636242388
 30
0.0
 11
106991.0067166321
 21
97405.34087923174
 31
0.0
  0
LINE
  5
E075F
330
1F
100
AcDbEntity
  8
freecads.com
100
AcDbLine
 10
106991.1447838345
 20
97405.30636242388
 30
0.0
 11
106991.0757502236
 21
97405.30636242388
 31
0.0
  0
LINE
  5
E0760
330
1F
100
AcDbEntity
  8
freecads.com
100
AcDbLine
 10
106991.1516871098
 20
97405.30636242388
 30
0.0
 11
106991.1447838345
 21
97405.30636242388
 31
0.0
  0
LINE
  5
E0761
330
1F
100
AcDbEntity
  8
freecads.com
100
AcDbLine
 10
106991.1240737226
 20
97405.28565237987
 30
0.0
 11
106991.1516871098
 21
97405.30636242388
 31
0.0
  0
LINE
  5
E0762
330
1F
100
AcDbEntity
  8
freecads.com
100
AcDbLine
 10
106991.0964603258
 20
97405.25803889578
 30
0.0
 11
106991.1240737226
 21
97405.28565237987
 31
0.0
  0
LINE
  5
E0763
330
1F
100
AcDbEntity
  8
freecads.com
100
AcDbLine
 10
106991.0964603258
 20
97405.22352211215
 30
0.0
 11
106991.0964603258
 21
97405.25803889578
 31
0.0
  0
LINE
  5
E0764
330
1F
100
AcDbEntity
  8
freecads.com
100
AcDbLine
 10
106991.0964603258
 20
97405.20281206812
 30
0.0
 11
106991.0964603258
 21
97405.22352211215
 31
0.0
  0
LINE
  5
E0765
330
1F
100
AcDbEntity
  8
freecads.com
100
AcDbLine
 10
106991.1240737226
 20
97405.12687510925
 30
0.0
 11
106991.1862039952
 21
97405.14758525501
 31
0.0
  0
LINE
  5
E0766
330
1F
100
AcDbEntity
  8
freecads.com
100
AcDbLine
 10
106991.082653591
 20
97405.12687510925
 30
0.0
 11
106991.1240737226
 21
97405.12687510925
 31
0.0
  0
LINE
  5
E0767
330
1F
100
AcDbEntity
  8
freecads.com
100
AcDbLine
 10
106991.0688468611
 20
97405.15448854488
 30
0.0
 11
106991.082653591
 21
97405.12687510925
 31
0.0
  0
LINE
  5
E0768
330
1F
100
AcDbEntity
  8
freecads.com
100
AcDbLine
 10
106991.0343300968
 20
97405.15448854488
 30
0.0
 11
106991.0688468611
 21
97405.15448854488
 31
0.0
  0
LINE
  5
E0769
330
1F
100
AcDbEntity
  8
freecads.com
100
AcDbLine
 10
106990.9998132986
 20
97405.12687510925
 30
0.0
 11
106991.0343300968
 21
97405.15448854488
 31
0.0
  0
LINE
  5
E076A
330
1F
100
AcDbEntity
  8
freecads.com
100
AcDbLine
 10
106990.9721999066
 20
97405.10616509913
 30
0.0
 11
106990.9998132986
 21
97405.12687510925
 31
0.0
  0
LINE
  5
E076B
330
1F
100
AcDbEntity
  8
freecads.com
100
AcDbLine
 10
106990.9238763301
 20
97405.09235835951
 30
0.0
 11
106990.9721999066
 21
97405.10616509913
 31
0.0
  0
LINE
  5
E076C
330
1F
100
AcDbEntity
  8
freecads.com
100
AcDbLine
 10
106990.8617461932
 20
97405.08545499698
 30
0.0
 11
106990.9238763301
 21
97405.09235835951
 31
0.0
  0
LINE
  5
E076D
330
1F
100
AcDbEntity
  8
freecads.com
100
AcDbLine
 10
106990.8341327091
 20
97405.08545499698
 30
0.0
 11
106990.8617461932
 21
97405.08545499698
 31
0.0
  0
LINE
  5
E076E
330
1F
100
AcDbEntity
  8
freecads.com
100
AcDbLine
 10
106990.8548428161
 20
97405.10616509913
 30
0.0
 11
106990.8341327091
 21
97405.08545499698
 31
0.0
  0
LINE
  5
E076F
330
1F
100
AcDbEntity
  8
freecads.com
100
AcDbLine
 10
106990.8479394439
 20
97405.12687510925
 30
0.0
 11
106990.8548428161
 21
97405.10616509913
 31
0.0
  0
LINE
  5
E0770
330
1F
100
AcDbEntity
  8
freecads.com
100
AcDbLine
 10
106990.8203259791
 20
97405.12687510925
 30
0.0
 11
106990.8479394439
 21
97405.12687510925
 31
0.0
  0
LINE
  5
E0771
330
1F
100
AcDbEntity
  8
freecads.com
100
AcDbLine
 10
106990.7996159061
 20
97405.11306842291
 30
0.0
 11
106990.8203259791
 21
97405.12687510925
 31
0.0
  0
LINE
  5
E0772
330
1F
100
AcDbEntity
  8
freecads.com
100
AcDbLine
 10
106990.7996159061
 20
97405.08545499698
 30
0.0
 11
106990.7996159061
 21
97405.11306842291
 31
0.0
  0
LINE
  5
E0773
330
1F
100
AcDbEntity
  8
freecads.com
100
AcDbLine
 10
106990.8203259791
 20
97405.05784156619
 30
0.0
 11
106990.7996159061
 21
97405.08545499698
 31
0.0
  0
LINE
  5
E0774
330
1F
100
AcDbEntity
  8
freecads.com
100
AcDbLine
 10
106990.8548428161
 20
97405.04403481203
 30
0.0
 11
106990.8203259791
 21
97405.05784156619
 31
0.0
  0
LINE
  5
E0775
330
1F
100
AcDbEntity
  8
freecads.com
100
AcDbLine
 10
106991.0757502236
 20
97405.12687510925
 30
0.0
 11
106991.0550401699
 21
97405.14758525501
 31
0.0
  0
LINE
  5
E0776
330
1F
100
AcDbEntity
  8
freecads.com
100
AcDbLine
 10
106991.082653591
 20
97405.12687510925
 30
0.0
 11
106991.0757502236
 21
97405.12687510925
 31
0.0
  0
LINE
  5
E0777
330
1F
100
AcDbEntity
  8
freecads.com
100
AcDbLine
 10
106991.1378804526
 20
97405.19590871528
 30
0.0
 11
106991.1033636738
 21
97405.19590871528
 31
0.0
  0
LINE
  5
E0778
330
1F
100
AcDbEntity
  8
freecads.com
100
AcDbLine
 10
106991.1654938446
 20
97405.19590871528
 30
0.0
 11
106991.1378804526
 21
97405.19590871528
 31
0.0
  0
LINE
  5
E0779
330
1F
100
AcDbEntity
  8
freecads.com
100
AcDbLine
 10
106991.2000106864
 20
97405.18900534789
 30
0.0
 11
106991.1654938446
 21
97405.19590871528
 31
0.0
  0
LINE
  5
E077A
330
1F
100
AcDbEntity
  8
freecads.com
100
AcDbLine
 10
106992.7532660954
 20
97405.01642139095
 30
0.0
 11
106992.7325560611
 21
97405.03713152701
 31
0.0
  0
LINE
  5
E077B
330
1F
100
AcDbEntity
  8
freecads.com
100
AcDbLine
 10
106992.8430097503
 20
97405.0302280821
 30
0.0
 11
106992.7532660954
 21
97405.01642139095
 31
0.0
  0
LINE
  5
E077C
330
1F
100
AcDbEntity
  8
freecads.com
100
AcDbLine
 10
106992.380593499
 20
97405.08507447756
 30
0.0
 11
106992.380593499
 21
97404.98179593176
 31
0.0
  0
LINE
  5
E077D
330
1F
100
AcDbEntity
  8
freecads.com
100
AcDbLine
 10
106992.3425435298
 20
97405.00897444238
 30
0.0
 11
106992.3262363614
 21
97405.03071737879
 31
0.0
  0
LINE
  5
E077E
330
1F
100
AcDbEntity
  8
freecads.com
100
AcDbLine
 10
106992.288186402
 20
97405.08507447756
 30
0.0
 11
106992.2827506001
 21
97404.99810308076
 31
0.0
  0
LINE
  5
E077F
330
1F
100
AcDbEntity
  8
freecads.com
100
AcDbLine
 10
106991.8098434822
 20
97404.98179593176
 30
0.0
 11
106991.8642006537
 21
97405.0796388113
 31
0.0
  0
LINE
  5
E0780
330
1F
100
AcDbEntity
  8
freecads.com
100
AcDbLine
 10
106991.7826649232
 20
97405.04158877433
 30
0.0
 11
106991.8098434822
 21
97404.98179593176
 31
0.0
  0
LINE
  5
E0781
330
1F
100
AcDbEntity
  8
freecads.com
100
AcDbLine
 10
106991.5815435172
 20
97404.99810308076
 30
0.0
 11
106991.5652362955
 21
97405.0687673334
 31
0.0
  0
LINE
  5
E0782
330
1F
100
AcDbEntity
  8
freecads.com
100
AcDbLine
 10
106991.5380577365
 20
97405.05246020861
 30
0.0
 11
106991.5815435172
 21
97404.99810308076
 31
0.0
  0
LINE
  5
E0783
330
1F
100
AcDbEntity
  8
freecads.com
100
AcDbLine
 10
106992.3528713684
 20
97403.79452712225
 30
0.0
 11
106992.3666780838
 21
97403.76001036283
 31
0.0
  0
LINE
  5
E0784
330
1F
100
AcDbEntity
  8
freecads.com
100
AcDbLine
 10
106991.4761449555
 20
97403.74620358931
 30
0.0
 11
106991.4416281525
 21
97403.78072045531
 31
0.0
  0
LINE
  5
E0785
330
1F
100
AcDbEntity
  8
freecads.com
100
AcDbLine
 10
106992.2610078041
 20
97403.7424529607
 30
0.0
 11
106992.3044934783
 21
97403.76963156336
 31
0.0
  0
LINE
  5
E0786
330
1F
100
AcDbEntity
  8
freecads.com
100
AcDbLine
 10
106992.201214918
 20
97403.77506728293
 30
0.0
 11
106992.174036388
 21
97403.73701725081
 31
0.0
  0
LINE
  5
E0787
330
1F
100
AcDbEntity
  8
freecads.com
100
AcDbLine
 10
106992.1088077919
 20
97403.7424529607
 30
0.0
 11
106992.1468577998
 21
97403.79681012244
 31
0.0
  0
LINE
  5
E0788
330
1F
100
AcDbEntity
  8
freecads.com
100
AcDbLine
 10
106991.9457363357
 20
97403.81311724721
 30
0.0
 11
106991.9348648966
 21
97403.75876012906
 31
0.0
  0
LINE
  5
E0789
330
1F
100
AcDbEntity
  8
freecads.com
100
AcDbLine
 10
106991.8370220461
 20
97403.74788872385
 30
0.0
 11
106991.8261506312
 21
97403.81855298132
 31
0.0
  0
LINE
  5
E078A
330
1F
100
AcDbEntity
  8
freecads.com
100
AcDbLine
 10
106991.7772291939
 20
97403.79137443678
 30
0.0
 11
106991.798972077
 21
97403.75332445795
 31
0.0
  0
LINE
  5
E078B
330
1F
100
AcDbEntity
  8
freecads.com
100
AcDbLine
 10
106991.7554863544
 20
97403.7424529607
 30
0.0
 11
106991.744614954
 21
97403.78050301703
 31
0.0
  0
LINE
  5
E078C
330
1F
100
AcDbEntity
  8
freecads.com
100
AcDbLine
 10
106991.6280187763
 20
97403.69788013389
 30
0.0
 11
106991.6142120755
 21
97403.76691368663
 31
0.0
  0
LINE
  5
E078D
330
1F
100
AcDbEntity
  8
freecads.com
100
AcDbLine
 10
106992.8752435047
 20
97403.78050301703
 30
0.0
 11
106992.8752435047
 21
97403.71527439194
 31
0.0
  0
LINE
  5
E078E
330
1F
100
AcDbEntity
  8
freecads.com
100
AcDbLine
 10
106992.9132935804
 20
97403.75876012906
 30
0.0
 11
106992.8752435047
 21
97403.78050301703
 31
0.0
  0
LINE
  5
E078F
330
1F
100
AcDbEntity
  8
freecads.com
100
AcDbLine
 10
106992.7937078614
 20
97403.81311724721
 30
0.0
 11
106992.8154507348
 21
97403.73158157
 31
0.0
  0
LINE
  5
E0790
330
1F
100
AcDbEntity
  8
freecads.com
100
AcDbLine
 10
106993.146757489
 20
97403.80143048481
 30
0.0
 11
106993.1812742968
 21
97403.75310698576
 31
0.0
  0
LINE
  5
E0791
330
1F
100
AcDbEntity
  8
freecads.com
100
AcDbLine
 10
106993.2434044967
 20
97403.73239693205
 30
0.0
 11
106993.2779212755
 21
97403.72549356466
 31
0.0
  0
LINE
  5
E0792
330
1F
100
AcDbEntity
  8
freecads.com
100
AcDbLine
 10
106992.0435792201
 20
97403.20975297125
 30
0.0
 11
106992.0435792201
 21
97403.12278150664
 31
0.0
  0
LINE
  5
E0793
330
1F
100
AcDbEntity
  8
freecads.com
100
AcDbLine
 10
106991.9131220135
 20
97403.07386010321
 30
0.0
 11
106991.9239934866
 21
97403.15539582404
 31
0.0
  0
LINE
  5
E0794
330
1F
100
AcDbEntity
  8
freecads.com
100
AcDbLine
 10
106992.0544506738
 20
97402.76402434954
 30
0.0
 11
106992.0706898231
 21
97402.73154598799
 31
0.0
  0
LINE
  5
E0795
330
1F
100
AcDbEntity
  8
freecads.com
100
AcDbLine
 10
106992.0490149106
 20
97402.85099579963
 30
0.0
 11
106992.0544506738
 21
97402.76402434954
 31
0.0
  0
LINE
  5
E0796
330
1F
100
AcDbEntity
  8
freecads.com
100
AcDbLine
 10
106992.0490149106
 20
97402.95427433572
 30
0.0
 11
106992.0490149106
 21
97402.85099579963
 31
0.0
  0
LINE
  5
E0797
330
1F
100
AcDbEntity
  8
freecads.com
100
AcDbLine
 10
106992.0435792201
 20
97403.00319577308
 30
0.0
 11
106992.0490149106
 21
97402.95427433572
 31
0.0
  0
LINE
  5
E0798
330
1F
100
AcDbEntity
  8
freecads.com
100
AcDbLine
 10
106992.0435792201
 20
97403.06298866409
 30
0.0
 11
106992.0435792201
 21
97403.00319577308
 31
0.0
  0
LINE
  5
E0799
330
1F
100
AcDbEntity
  8
freecads.com
100
AcDbLine
 10
106992.0435792201
 20
97403.12278150664
 30
0.0
 11
106992.0435792201
 21
97403.06298866409
 31
0.0
  0
LINE
  5
E079A
330
1F
100
AcDbEntity
  8
freecads.com
100
AcDbLine
 10
106991.8913792128
 20
97402.94883865493
 30
0.0
 11
106991.9131220135
 21
97403.07386010321
 31
0.0
  0
LINE
  5
E079B
330
1F
100
AcDbEntity
  8
freecads.com
100
AcDbLine
 10
106991.8913792128
 20
97402.87273861492
 30
0.0
 11
106991.8913792128
 21
97402.94883865493
 31
0.0
  0
LINE
  5
E079C
330
1F
100
AcDbEntity
  8
freecads.com
100
AcDbLine
 10
106991.8859435223
 20
97402.82925293589
 30
0.0
 11
106991.8913792128
 21
97402.87273861492
 31
0.0
  0
LINE
  5
E079D
330
1F
100
AcDbEntity
  8
freecads.com
100
AcDbLine
 10
106991.8696363684
 20
97402.78033151309
 30
0.0
 11
106991.8859435223
 21
97402.82925293589
 31
0.0
  0
LINE
  5
E079E
330
1F
100
AcDbEntity
  8
freecads.com
100
AcDbLine
 10
106991.8696363684
 20
97402.75858863482
 30
0.0
 11
106991.8696363684
 21
97402.78033151309
 31
0.0
  0
LINE
  5
E079F
330
1F
100
AcDbEntity
  8
freecads.com
100
AcDbLine
 10
106991.8696363684
 20
97402.72937167787
 30
0.0
 11
106991.8696363684
 21
97402.75858863482
 31
0.0
  0
LINE
  5
E07A0
330
1F
100
AcDbEntity
  8
freecads.com
100
AcDbLine
 10
106992.187190774
 20
97403.52529617693
 30
0.0
 11
106992.2424176404
 21
97403.52529617693
 31
0.0
  0
LINE
  5
E07A1
330
1F
100
AcDbEntity
  8
freecads.com
100
AcDbLine
 10
106992.2555720361
 20
97403.68266011813
 30
0.0
 11
106992.2066506715
 21
97403.6717887129
 31
0.0
  0
LINE
  5
E07A2
330
1F
100
AcDbEntity
  8
freecads.com
100
AcDbLine
 10
106992.2338292305
 20
97403.72614584559
 30
0.0
 11
106992.2610078041
 21
97403.7424529607
 31
0.0
  0
LINE
  5
E07A3
330
1F
100
AcDbEntity
  8
freecads.com
100
AcDbLine
 10
106992.1388673089
 20
97403.59432972967
 30
0.0
 11
106992.2907412073
 21
97403.66336333087
 31
0.0
  0
LINE
  5
E07A4
330
1F
100
AcDbEntity
  8
freecads.com
100
AcDbLine
 10
106992.1359863898
 20
97403.61743153663
 30
0.0
 11
106992.1388673089
 21
97403.59432972967
 31
0.0
  0
LINE
  5
E07A5
330
1F
100
AcDbEntity
  8
freecads.com
100
AcDbLine
 10
106991.496855048
 20
97403.73239693205
 30
0.0
 11
106991.4761449555
 21
97403.74620358931
 31
0.0
  0
LINE
  5
E07A6
330
1F
100
AcDbEntity
  8
freecads.com
100
AcDbLine
 10
106991.5037583863
 20
97403.73239693205
 30
0.0
 11
106991.496855048
 21
97403.73239693205
 31
0.0
  0
LINE
  5
E07A7
330
1F
100
AcDbEntity
  8
freecads.com
100
AcDbLine
 10
106991.5175651743
 20
97403.71859018274
 30
0.0
 11
106991.5037583863
 21
97403.73239693205
 31
0.0
  0
LINE
  5
E07A8
330
1F
100
AcDbEntity
  8
freecads.com
100
AcDbLine
 10
106991.5451785276
 20
97403.69788013389
 30
0.0
 11
106991.5175651743
 21
97403.71859018274
 31
0.0
  0
LINE
  5
E07A9
330
1F
100
AcDbEntity
  8
freecads.com
100
AcDbLine
 10
106991.5727919584
 20
97403.69788013389
 30
0.0
 11
106991.5451785276
 21
97403.69788013389
 31
0.0
  0
LINE
  5
E07AA
330
1F
100
AcDbEntity
  8
freecads.com
100
AcDbLine
 10
106991.5935020121
 20
97403.69788013389
 30
0.0
 11
106991.5727919584
 21
97403.69788013389
 31
0.0
  0
LINE
  5
E07AB
330
1F
100
AcDbEntity
  8
freecads.com
100
AcDbLine
 10
106991.6142120755
 20
97403.69788013389
 30
0.0
 11
106991.5935020121
 21
97403.69788013389
 31
0.0
  0
LINE
  5
E07AC
330
1F
100
AcDbEntity
  8
freecads.com
100
AcDbLine
 10
106991.6280187763
 20
97403.69788013389
 30
0.0
 11
106991.6142120755
 21
97403.69788013389
 31
0.0
  0
LINE
  5
E07AD
330
1F
100
AcDbEntity
  8
freecads.com
100
AcDbLine
 10
106991.662535623
 20
97403.69097679556
 30
0.0
 11
106991.6280187763
 21
97403.69788013389
 31
0.0
  0
LINE
  5
E07AE
330
1F
100
AcDbEntity
  8
freecads.com
100
AcDbLine
 10
106991.2621408766
 20
97403.66336333087
 30
0.0
 11
106991.2552375576
 21
97403.63574985163
 31
0.0
  0
LINE
  5
E07AF
330
1F
100
AcDbEntity
  8
freecads.com
100
AcDbLine
 10
106991.4692416075
 20
97403.53910290687
 30
0.0
 11
106991.3311744487
 21
97403.46316594314
 31
0.0
  0
LINE
  5
E07B0
330
1F
100
AcDbEntity
  8
freecads.com
100
AcDbLine
 10
106991.3311744487
 20
97403.46316594314
 30
0.0
 11
106991.4209180987
 21
97403.43555250751
 31
0.0
  0
LINE
  5
E07B1
330
1F
100
AcDbEntity
  8
freecads.com
100
AcDbLine
 10
106991.5865986883
 20
97403.47697271666
 30
0.0
 11
106991.4209180987
 21
97403.43555250751
 31
0.0
  0
LINE
  5
E07B2
330
1F
100
AcDbEntity
  8
freecads.com
100
AcDbLine
 10
106991.7384725431
 20
97403.49768274615
 30
0.0
 11
106991.5865986883
 21
97403.47697271666
 31
0.0
  0
LINE
  5
E07B3
330
1F
100
AcDbEntity
  8
freecads.com
100
AcDbLine
 10
106992.0381434957
 20
97403.2804172481
 30
0.0
 11
106992.0435792201
 21
97403.20975297125
 31
0.0
  0
LINE
  5
E07B4
330
1F
100
AcDbEntity
  8
freecads.com
100
AcDbLine
 10
106992.0272720614
 20
97403.37282445167
 30
0.0
 11
106992.0381434957
 21
97403.2804172481
 31
0.0
  0
LINE
  5
E07B5
330
1F
100
AcDbEntity
  8
freecads.com
100
AcDbLine
 10
106992.0435792201
 20
97403.47066726821
 30
0.0
 11
106992.0272720614
 21
97403.37282445167
 31
0.0
  0
LINE
  5
E07B6
330
1F
100
AcDbEntity
  8
freecads.com
100
AcDbLine
 10
106992.0870649427
 20
97403.51415293753
 30
0.0
 11
106992.0435792201
 21
97403.47066726821
 31
0.0
  0
LINE
  5
E07B7
330
1F
100
AcDbEntity
  8
freecads.com
100
AcDbLine
 10
106992.1305506799
 20
97403.55220294542
 30
0.0
 11
106992.0870649427
 21
97403.51415293753
 31
0.0
  0
LINE
  5
E07B8
330
1F
100
AcDbEntity
  8
freecads.com
100
AcDbLine
 10
106992.1388673089
 20
97403.59432972967
 30
0.0
 11
106992.1305506799
 21
97403.55220294542
 31
0.0
  0
LINE
  5
E07B9
330
1F
100
AcDbEntity
  8
freecads.com
100
AcDbLine
 10
106992.1631649537
 20
97403.64461010539
 30
0.0
 11
106992.1359863898
 21
97403.61743153663
 31
0.0
  0
LINE
  5
E07BA
330
1F
100
AcDbEntity
  8
freecads.com
100
AcDbLine
 10
106992.2066506715
 20
97403.6717887129
 30
0.0
 11
106992.1631649537
 21
97403.64461010539
 31
0.0
  0
LINE
  5
E07BB
330
1F
100
AcDbEntity
  8
freecads.com
100
AcDbLine
 10
106992.2066506715
 20
97403.70983872566
 30
0.0
 11
106992.2338292305
 21
97403.72614584559
 31
0.0
  0
LINE
  5
E07BC
330
1F
100
AcDbEntity
  8
freecads.com
100
AcDbLine
 10
106992.174036388
 20
97403.73701725081
 30
0.0
 11
106992.2066506715
 21
97403.70983872566
 31
0.0
  0
LINE
  5
E07BD
330
1F
100
AcDbEntity
  8
freecads.com
100
AcDbLine
 10
106992.0560269874
 20
97403.68407343302
 30
0.0
 11
106992.1088077919
 21
97403.7424529607
 31
0.0
  0
LINE
  5
E07BE
330
1F
100
AcDbEntity
  8
freecads.com
100
AcDbLine
 10
106992.0560269874
 20
97403.61503983184
 30
0.0
 11
106992.0560269874
 21
97403.68407343302
 31
0.0
  0
LINE
  5
E07BF
330
1F
100
AcDbEntity
  8
freecads.com
100
AcDbLine
 10
106992.0218363419
 20
97403.56851010414
 30
0.0
 11
106992.0560269874
 21
97403.61503983184
 31
0.0
  0
LINE
  5
E07C0
330
1F
100
AcDbEntity
  8
freecads.com
100
AcDbLine
 10
106991.9729149045
 20
97403.51415293753
 30
0.0
 11
106992.0218363419
 21
97403.56851010414
 31
0.0
  0
LINE
  5
E07C1
330
1F
100
AcDbEntity
  8
freecads.com
100
AcDbLine
 10
106991.9185577525
 20
97403.63373868079
 30
0.0
 11
106991.9729149045
 21
97403.51415293753
 31
0.0
  0
LINE
  5
E07C2
330
1F
100
AcDbEntity
  8
freecads.com
100
AcDbLine
 10
106991.9185577525
 20
97403.6880958377
 30
0.0
 11
106991.9185577525
 21
97403.63373868079
 31
0.0
  0
LINE
  5
E07C3
330
1F
100
AcDbEntity
  8
freecads.com
100
AcDbLine
 10
106991.9348648966
 20
97403.75876012906
 30
0.0
 11
106991.9185577525
 21
97403.6880958377
 31
0.0
  0
LINE
  5
E07C4
330
1F
100
AcDbEntity
  8
freecads.com
100
AcDbLine
 10
106991.8478934756
 20
97403.70440300123
 30
0.0
 11
106991.8370220461
 21
97403.74788872385
 31
0.0
  0
LINE
  5
E07C5
330
1F
100
AcDbEntity
  8
freecads.com
100
AcDbLine
 10
106991.8261506312
 20
97403.65548155905
 30
0.0
 11
106991.8478934756
 21
97403.70440300123
 31
0.0
  0
LINE
  5
E07C6
330
1F
100
AcDbEntity
  8
freecads.com
100
AcDbLine
 10
106991.804407753
 20
97403.69353155726
 30
0.0
 11
106991.8261506312
 21
97403.65548155905
 31
0.0
  0
LINE
  5
E07C7
330
1F
100
AcDbEntity
  8
freecads.com
100
AcDbLine
 10
106991.798972077
 20
97403.75332445795
 30
0.0
 11
106991.804407753
 21
97403.69353155726
 31
0.0
  0
LINE
  5
E07C8
330
1F
100
AcDbEntity
  8
freecads.com
100
AcDbLine
 10
106991.7772291939
 20
97403.69896728651
 30
0.0
 11
106991.7554863544
 21
97403.7424529607
 31
0.0
  0
LINE
  5
E07C9
330
1F
100
AcDbEntity
  8
freecads.com
100
AcDbLine
 10
106991.7881006476
 20
97403.64461010539
 30
0.0
 11
106991.7772291939
 21
97403.69896728651
 31
0.0
  0
LINE
  5
E07CA
330
1F
100
AcDbEntity
  8
freecads.com
100
AcDbLine
 10
106991.8098434822
 20
97403.61199583645
 30
0.0
 11
106991.7881006476
 21
97403.64461010539
 31
0.0
  0
LINE
  5
E07CB
330
1F
100
AcDbEntity
  8
freecads.com
100
AcDbLine
 10
106991.7717935131
 20
97403.62286726588
 30
0.0
 11
106991.8098434822
 21
97403.61199583645
 31
0.0
  0
LINE
  5
E07CC
330
1F
100
AcDbEntity
  8
freecads.com
100
AcDbLine
 10
106991.728307742
 20
97403.65004583949
 30
0.0
 11
106991.7717935131
 21
97403.62286726588
 31
0.0
  0
LINE
  5
E07CD
330
1F
100
AcDbEntity
  8
freecads.com
100
AcDbLine
 10
106991.6902577777
 20
97403.68266011813
 30
0.0
 11
106991.728307742
 21
97403.65004583949
 31
0.0
  0
LINE
  5
E07CE
330
1F
100
AcDbEntity
  8
freecads.com
100
AcDbLine
 10
106991.6576435088
 20
97403.71527439194
 30
0.0
 11
106991.6902577777
 21
97403.68266011813
 31
0.0
  0
LINE
  5
E07CF
330
1F
100
AcDbEntity
  8
freecads.com
100
AcDbLine
 10
106991.6467720212
 20
97403.75876012906
 30
0.0
 11
106991.6576435088
 21
97403.71527439194
 31
0.0
  0
LINE
  5
E07D0
330
1F
100
AcDbEntity
  8
freecads.com
100
AcDbLine
 10
106991.6739506336
 20
97403.63373868079
 30
0.0
 11
106991.6280187763
 21
97403.69788013389
 31
0.0
  0
LINE
  5
E07D1
330
1F
100
AcDbEntity
  8
freecads.com
100
AcDbLine
 10
106991.7337434761
 20
97403.60112439246
 30
0.0
 11
106991.6739506336
 21
97403.63373868079
 31
0.0
  0
LINE
  5
E07D2
330
1F
100
AcDbEntity
  8
freecads.com
100
AcDbLine
 10
106991.804407753
 20
97403.55220294542
 30
0.0
 11
106991.7337434761
 21
97403.60112439246
 31
0.0
  0
LINE
  5
E07D3
330
1F
100
AcDbEntity
  8
freecads.com
100
AcDbLine
 10
106991.8420229328
 20
97403.51839289191
 30
0.0
 11
106991.804407753
 21
97403.55220294542
 31
0.0
  0
LINE
  5
E07D4
330
1F
100
AcDbEntity
  8
freecads.com
100
AcDbLine
 10
106991.8587649244
 20
97403.45979582421
 30
0.0
 11
106991.8420229328
 21
97403.51839289191
 31
0.0
  0
LINE
  5
E07D5
330
1F
100
AcDbEntity
  8
freecads.com
100
AcDbLine
 10
106991.8913792128
 20
97403.4271815262
 30
0.0
 11
106991.8587649244
 21
97403.45979582421
 31
0.0
  0
LINE
  5
E07D6
330
1F
100
AcDbEntity
  8
freecads.com
100
AcDbLine
 10
106991.9076863327
 20
97403.3510815637
 30
0.0
 11
106991.8913792128
 21
97403.4271815262
 31
0.0
  0
LINE
  5
E07D7
330
1F
100
AcDbEntity
  8
freecads.com
100
AcDbLine
 10
106991.9239934866
 20
97403.2967244068
 30
0.0
 11
106991.9076863327
 21
97403.3510815637
 31
0.0
  0
LINE
  5
E07D8
330
1F
100
AcDbEntity
  8
freecads.com
100
AcDbLine
 10
106991.929429211
 20
97403.22062435225
 30
0.0
 11
106991.9239934866
 21
97403.2967244068
 31
0.0
  0
LINE
  5
E07D9
330
1F
100
AcDbEntity
  8
freecads.com
100
AcDbLine
 10
106991.9239934866
 20
97403.15539582404
 30
0.0
 11
106991.929429211
 21
97403.22062435225
 31
0.0
  0
LINE
  5
E07DA
330
1F
100
AcDbEntity
  8
freecads.com
100
AcDbLine
 10
106991.8420229328
 20
97403.51839289191
 30
0.0
 11
106991.8696363684
 21
97403.41484243927
 31
0.0
  0
LINE
  5
E07DB
330
1F
100
AcDbEntity
  8
freecads.com
100
AcDbLine
 10
106992.6428124353
 20
97403.45626260481
 30
0.0
 11
106992.6911359004
 21
97403.45626260481
 31
0.0
  0
LINE
  5
E07DC
330
1F
100
AcDbEntity
  8
freecads.com
100
AcDbLine
 10
106992.629005686
 20
97403.48387600169
 30
0.0
 11
106992.6428124353
 21
97403.45626260481
 31
0.0
  0
LINE
  5
E07DD
330
1F
100
AcDbEntity
  8
freecads.com
100
AcDbLine
 10
106992.6151989754
 20
97403.51839289191
 30
0.0
 11
106992.629005686
 21
97403.48387600169
 31
0.0
  0
LINE
  5
E07DE
330
1F
100
AcDbEntity
  8
freecads.com
100
AcDbLine
 10
106992.608295608
 20
97403.52529617693
 30
0.0
 11
106992.6151989754
 21
97403.51839289191
 31
0.0
  0
LINE
  5
E07DF
330
1F
100
AcDbEntity
  8
freecads.com
100
AcDbLine
 10
106992.5944888393
 20
97403.49768274615
 30
0.0
 11
106992.608295608
 21
97403.52529617693
 31
0.0
  0
LINE
  5
E07E0
330
1F
100
AcDbEntity
  8
freecads.com
100
AcDbLine
 10
106992.5599721574
 20
97403.47006930567
 30
0.0
 11
106992.5944888393
 21
97403.49768274615
 31
0.0
  0
LINE
  5
E07E1
330
1F
100
AcDbEntity
  8
freecads.com
100
AcDbLine
 10
106992.5323586685
 20
97403.47006930567
 30
0.0
 11
106992.5599721574
 21
97403.47006930567
 31
0.0
  0
LINE
  5
E07E2
330
1F
100
AcDbEntity
  8
freecads.com
100
AcDbLine
 10
106992.5323586685
 20
97403.43555250751
 30
0.0
 11
106992.5323586685
 21
97403.47006930567
 31
0.0
  0
LINE
  5
E07E3
330
1F
100
AcDbEntity
  8
freecads.com
100
AcDbLine
 10
106992.5185519386
 20
97403.40103574808
 30
0.0
 11
106992.5323586685
 21
97403.43555250751
 31
0.0
  0
LINE
  5
E07E4
330
1F
100
AcDbEntity
  8
freecads.com
100
AcDbLine
 10
106992.4633251206
 20
97403.40103574808
 30
0.0
 11
106992.5185519386
 21
97403.40103574808
 31
0.0
  0
LINE
  5
E07E5
330
1F
100
AcDbEntity
  8
freecads.com
100
AcDbLine
 10
106992.4080982542
 20
97403.40103574808
 30
0.0
 11
106992.4633251206
 21
97403.40103574808
 31
0.0
  0
LINE
  5
E07E6
330
1F
100
AcDbEntity
  8
freecads.com
100
AcDbLine
 10
106992.3735814657
 20
97403.40103574808
 30
0.0
 11
106992.4080982542
 21
97403.40103574808
 31
0.0
  0
LINE
  5
E07E7
330
1F
100
AcDbEntity
  8
freecads.com
100
AcDbLine
 10
106992.3597746922
 20
97403.42864916918
 30
0.0
 11
106992.3735814657
 21
97403.40103574808
 31
0.0
  0
LINE
  5
E07E8
330
1F
100
AcDbEntity
  8
freecads.com
100
AcDbLine
 10
106992.3735814657
 20
97403.44935929073
 30
0.0
 11
106992.3597746922
 21
97403.42864916918
 31
0.0
  0
LINE
  5
E07E9
330
1F
100
AcDbEntity
  8
freecads.com
100
AcDbLine
 10
106992.4080982542
 20
97403.48387600169
 30
0.0
 11
106992.3735814657
 21
97403.44935929073
 31
0.0
  0
LINE
  5
E07EA
330
1F
100
AcDbEntity
  8
freecads.com
100
AcDbLine
 10
106992.4357116898
 20
97403.50458610869
 30
0.0
 11
106992.4080982542
 21
97403.48387600169
 31
0.0
  0
LINE
  5
E07EB
330
1F
100
AcDbEntity
  8
freecads.com
100
AcDbLine
 10
106992.4426150282
 20
97403.55981300902
 30
0.0
 11
106992.4357116898
 21
97403.50458610869
 31
0.0
  0
LINE
  5
E07EC
330
1F
100
AcDbEntity
  8
freecads.com
100
AcDbLine
 10
106992.3942915194
 20
97403.58052303852
 30
0.0
 11
106992.4426150282
 21
97403.55981300902
 31
0.0
  0
LINE
  5
E07ED
330
1F
100
AcDbEntity
  8
freecads.com
100
AcDbLine
 10
106992.3459680301
 20
97403.58052303852
 30
0.0
 11
106992.3942915194
 21
97403.58052303852
 31
0.0
  0
LINE
  5
E07EE
330
1F
100
AcDbEntity
  8
freecads.com
100
AcDbLine
 10
106992.3114512367
 20
97403.57361967596
 30
0.0
 11
106992.3459680301
 21
97403.58052303852
 31
0.0
  0
LINE
  5
E07EF
330
1F
100
AcDbEntity
  8
freecads.com
100
AcDbLine
 10
106992.3390646724
 20
97403.64955663485
 30
0.0
 11
106992.3114512367
 21
97403.57361967596
 31
0.0
  0
LINE
  5
E07F0
330
1F
100
AcDbEntity
  8
freecads.com
100
AcDbLine
 10
106992.3252579618
 20
97403.61503983184
 30
0.0
 11
106992.3390646724
 21
97403.64955663485
 31
0.0
  0
LINE
  5
E07F1
330
1F
100
AcDbEntity
  8
freecads.com
100
AcDbLine
 10
106992.3114512367
 20
97403.57361967596
 30
0.0
 11
106992.3252579618
 21
97403.61503983184
 31
0.0
  0
LINE
  5
E07F2
330
1F
100
AcDbEntity
  8
freecads.com
100
AcDbLine
 10
106992.2838377914
 20
97403.53910290687
 30
0.0
 11
106992.3114512367
 21
97403.57361967596
 31
0.0
  0
LINE
  5
E07F3
330
1F
100
AcDbEntity
  8
freecads.com
100
AcDbLine
 10
106992.2424176404
 20
97403.52529617693
 30
0.0
 11
106992.2838377914
 21
97403.53910290687
 31
0.0
  0
LINE
  5
E07F4
330
1F
100
AcDbEntity
  8
freecads.com
100
AcDbLine
 10
106992.2827506001
 20
97403.6880958377
 30
0.0
 11
106992.2555720361
 21
97403.68266011813
 31
0.0
  0
LINE
  5
E07F5
330
1F
100
AcDbEntity
  8
freecads.com
100
AcDbLine
 10
106992.3153649756
 20
97403.71527439194
 30
0.0
 11
106992.2827506001
 21
97403.6880958377
 31
0.0
  0
LINE
  5
E07F6
330
1F
100
AcDbEntity
  8
freecads.com
100
AcDbLine
 10
106992.3425435298
 20
97403.72071015993
 30
0.0
 11
106992.3153649756
 21
97403.71527439194
 31
0.0
  0
LINE
  5
E07F7
330
1F
100
AcDbEntity
  8
freecads.com
100
AcDbLine
 10
106992.3735814657
 20
97403.70478349159
 30
0.0
 11
106992.3528713684
 21
97403.6771700608
 31
0.0
  0
LINE
  5
E07F8
330
1F
100
AcDbEntity
  8
freecads.com
100
AcDbLine
 10
106992.3321613244
 20
97403.6702667467
 30
0.0
 11
106992.3735814657
 21
97403.65646000224
 31
0.0
  0
LINE
  5
E07F9
330
1F
100
AcDbEntity
  8
freecads.com
100
AcDbLine
 10
106992.2907412073
 20
97403.66336333087
 30
0.0
 11
106992.3321613244
 21
97403.6702667467
 31
0.0
  0
LINE
  5
E07FA
330
1F
100
AcDbEntity
  8
freecads.com
100
AcDbLine
 10
106992.9350363521
 20
97403.67722440826
 30
0.0
 11
106992.9132935804
 21
97403.75876012906
 31
0.0
  0
LINE
  5
E07FB
330
1F
100
AcDbEntity
  8
freecads.com
100
AcDbLine
 10
106992.9187292612
 20
97403.61743153663
 30
0.0
 11
106992.9350363521
 21
97403.67722440826
 31
0.0
  0
LINE
  5
E07FC
330
1F
100
AcDbEntity
  8
freecads.com
100
AcDbLine
 10
106992.8806792679
 20
97403.5956887068
 30
0.0
 11
106992.9187292612
 21
97403.61743153663
 31
0.0
  0
LINE
  5
E07FD
330
1F
100
AcDbEntity
  8
freecads.com
100
AcDbLine
 10
106992.8371935501
 20
97403.65548155905
 30
0.0
 11
106992.8806792679
 21
97403.5956887068
 31
0.0
  0
LINE
  5
E07FE
330
1F
100
AcDbEntity
  8
freecads.com
100
AcDbLine
 10
106992.8154507348
 20
97403.73158157
 30
0.0
 11
106992.8371935501
 21
97403.65548155905
 31
0.0
  0
LINE
  5
E07FF
330
1F
100
AcDbEntity
  8
freecads.com
100
AcDbLine
 10
106993.2088877325
 20
97403.73239693205
 30
0.0
 11
106993.2434044967
 21
97403.73239693205
 31
0.0
  0
LINE
  5
E0800
330
1F
100
AcDbEntity
  8
freecads.com
100
AcDbLine
 10
106993.1950809492
 20
97403.73239693205
 30
0.0
 11
106993.2088877325
 21
97403.73239693205
 31
0.0
  0
LINE
  5
E0801
330
1F
100
AcDbEntity
  8
freecads.com
100
AcDbLine
 10
106993.1812742968
 20
97403.75310698576
 30
0.0
 11
106993.1950809492
 21
97403.73239693205
 31
0.0
  0
LINE
  5
E0802
330
1F
100
AcDbEntity
  8
freecads.com
100
AcDbLine
 10
106993.257211183
 20
97403.55981300902
 30
0.0
 11
106993.2710179614
 21
97403.60123314067
 31
0.0
  0
LINE
  5
E0803
330
1F
100
AcDbEntity
  8
freecads.com
100
AcDbLine
 10
106993.2365011584
 20
97403.53910290687
 30
0.0
 11
106993.257211183
 21
97403.55981300902
 31
0.0
  0
LINE
  5
E0804
330
1F
100
AcDbEntity
  8
freecads.com
100
AcDbLine
 10
106993.2226944285
 20
97403.5460062791
 30
0.0
 11
106993.2365011584
 21
97403.53910290687
 31
0.0
  0
LINE
  5
E0805
330
1F
100
AcDbEntity
  8
freecads.com
100
AcDbLine
 10
106993.1950809492
 20
97403.60123314067
 30
0.0
 11
106993.2226944285
 21
97403.5460062791
 31
0.0
  0
LINE
  5
E0806
330
1F
100
AcDbEntity
  8
freecads.com
100
AcDbLine
 10
106993.1950809492
 20
97403.56671634733
 30
0.0
 11
106993.1950809492
 21
97403.60123314067
 31
0.0
  0
LINE
  5
E0807
330
1F
100
AcDbEntity
  8
freecads.com
100
AcDbLine
 10
106993.1881776158
 20
97403.53219954432
 30
0.0
 11
106993.1950809492
 21
97403.56671634733
 31
0.0
  0
LINE
  5
E0808
330
1F
100
AcDbEntity
  8
freecads.com
100
AcDbLine
 10
106993.1743708859
 20
97403.49077940299
 30
0.0
 11
106993.1881776158
 21
97403.53219954432
 31
0.0
  0
LINE
  5
E0809
330
1F
100
AcDbEntity
  8
freecads.com
100
AcDbLine
 10
106993.1536608757
 20
97403.47697271666
 30
0.0
 11
106993.1743708859
 21
97403.49077940299
 31
0.0
  0
LINE
  5
E080A
330
1F
100
AcDbEntity
  8
freecads.com
100
AcDbLine
 10
106993.0984339996
 20
97403.47697271666
 30
0.0
 11
106993.1536608757
 21
97403.47697271666
 31
0.0
  0
LINE
  5
E080B
330
1F
100
AcDbEntity
  8
freecads.com
100
AcDbLine
 10
106993.0570138341
 20
97403.46316594314
 30
0.0
 11
106993.0984339996
 21
97403.47697271666
 31
0.0
  0
LINE
  5
E080C
330
1F
100
AcDbEntity
  8
freecads.com
100
AcDbLine
 10
106993.0224970359
 20
97403.45626260481
 30
0.0
 11
106993.0570138341
 21
97403.46316594314
 31
0.0
  0
LINE
  5
E080D
330
1F
100
AcDbEntity
  8
freecads.com
100
AcDbLine
 10
106993.0155936734
 20
97403.46316594314
 30
0.0
 11
106993.0224970359
 21
97403.45626260481
 31
0.0
  0
LINE
  5
E080E
330
1F
100
AcDbEntity
  8
freecads.com
100
AcDbLine
 10
106992.9948836051
 20
97403.45626260481
 30
0.0
 11
106993.0155936734
 21
97403.46316594314
 31
0.0
  0
LINE
  5
E080F
330
1F
100
AcDbEntity
  8
freecads.com
100
AcDbLine
 10
106992.9603668554
 20
97403.43555250751
 30
0.0
 11
106992.9948836051
 21
97403.45626260481
 31
0.0
  0
LINE
  5
E0810
330
1F
100
AcDbEntity
  8
freecads.com
100
AcDbLine
 10
106992.9189467141
 20
97403.43555250751
 30
0.0
 11
106992.9603668554
 21
97403.43555250751
 31
0.0
  0
LINE
  5
E0811
330
1F
100
AcDbEntity
  8
freecads.com
100
AcDbLine
 10
106992.8775265049
 20
97403.43555250751
 30
0.0
 11
106992.9189467141
 21
97403.43555250751
 31
0.0
  0
LINE
  5
E0812
330
1F
100
AcDbEntity
  8
freecads.com
100
AcDbLine
 10
106992.8361064266
 20
97403.43555250751
 30
0.0
 11
106992.8775265049
 21
97403.43555250751
 31
0.0
  0
LINE
  5
E0813
330
1F
100
AcDbEntity
  8
freecads.com
100
AcDbLine
 10
106992.8084929861
 20
97403.43555250751
 30
0.0
 11
106992.8361064266
 21
97403.43555250751
 31
0.0
  0
LINE
  5
E0814
330
1F
100
AcDbEntity
  8
freecads.com
100
AcDbLine
 10
106992.7946862561
 20
97403.45626260481
 30
0.0
 11
106992.8084929861
 21
97403.43555250751
 31
0.0
  0
LINE
  5
E0815
330
1F
100
AcDbEntity
  8
freecads.com
100
AcDbLine
 10
106992.8084929861
 20
97403.48387600169
 30
0.0
 11
106992.7946862561
 21
97403.45626260481
 31
0.0
  0
LINE
  5
E0816
330
1F
100
AcDbEntity
  8
freecads.com
100
AcDbLine
 10
106992.8153963583
 20
97403.50458610869
 30
0.0
 11
106992.8084929861
 21
97403.48387600169
 31
0.0
  0
LINE
  5
E0817
330
1F
100
AcDbEntity
  8
freecads.com
100
AcDbLine
 10
106992.8015896284
 20
97403.50458610869
 30
0.0
 11
106992.8153963583
 21
97403.50458610869
 31
0.0
  0
LINE
  5
E0818
330
1F
100
AcDbEntity
  8
freecads.com
100
AcDbLine
 10
106992.7325560611
 20
97403.45626260481
 30
0.0
 11
106992.7670727963
 21
97403.44245591849
 31
0.0
  0
LINE
  5
E0819
330
1F
100
AcDbEntity
  8
freecads.com
100
AcDbLine
 10
106992.6911359004
 20
97403.45626260481
 30
0.0
 11
106992.7325560611
 21
97403.45626260481
 31
0.0
  0
LINE
  5
E081A
330
1F
100
AcDbEntity
  8
freecads.com
100
AcDbLine
 10
106993.2019843602
 20
97404.45034605983
 30
0.0
 11
106993.2779212755
 21
97404.43653940257
 31
0.0
  0
LINE
  5
E081B
330
1F
100
AcDbEntity
  8
freecads.com
100
AcDbLine
 10
106993.2779212755
 20
97404.64364013346
 30
0.0
 11
106993.2503078496
 21
97404.6712535158
 31
0.0
  0
LINE
  5
E081C
330
1F
100
AcDbEntity
  8
freecads.com
100
AcDbLine
 10
106991.5000077383
 20
97404.367560144
 30
0.0
 11
106991.5217506117
 21
97404.39473870791
 31
0.0
  0
LINE
  5
E081D
330
1F
100
AcDbEntity
  8
freecads.com
100
AcDbLine
 10
106993.1122406908
 20
97404.38821586478
 30
0.0
 11
106993.146757489
 21
97404.39511920309
 31
0.0
  0
LINE
  5
E081E
330
1F
100
AcDbEntity
  8
freecads.com
100
AcDbLine
 10
106993.0570138341
 20
97404.40892593786
 30
0.0
 11
106993.0777239411
 21
97404.38821586478
 31
0.0
  0
LINE
  5
E081F
330
1F
100
AcDbEntity
  8
freecads.com
100
AcDbLine
 10
106992.7187493021
 20
97404.40202257049
 30
0.0
 11
106992.7670727963
 21
97404.38821586478
 31
0.0
  0
LINE
  5
E0820
330
1F
100
AcDbEntity
  8
freecads.com
100
AcDbLine
 10
106992.4633251206
 20
97404.42273266779
 30
0.0
 11
106992.467564949
 21
97404.367560144
 31
0.0
  0
LINE
  5
E0821
330
1F
100
AcDbEntity
  8
freecads.com
100
AcDbLine
 10
106992.5491006844
 20
97404.39473870791
 30
0.0
 11
106992.5599721574
 21
97404.37843161704
 31
0.0
  0
LINE
  5
E0822
330
1F
100
AcDbEntity
  8
freecads.com
100
AcDbLine
 10
106992.2286109056
 20
97403.83594728781
 30
0.0
 11
106992.2631277087
 21
97403.82904395433
 31
0.0
  0
LINE
  5
E0823
330
1F
100
AcDbEntity
  8
freecads.com
100
AcDbLine
 10
106992.2355142972
 20
97404.05685469534
 30
0.0
 11
106992.249321003
 21
97404.06375810634
 31
0.0
  0
LINE
  5
E0824
330
1F
100
AcDbEntity
  8
freecads.com
100
AcDbLine
 10
106992.3666780838
 20
97403.87736740977
 30
0.0
 11
106992.2355142972
 21
97404.05685469534
 31
0.0
  0
LINE
  5
E0825
330
1F
100
AcDbEntity
  8
freecads.com
100
AcDbLine
 10
106991.3858577291
 20
97404.35668870002
 30
0.0
 11
106991.5000077383
 21
97404.367560144
 31
0.0
  0
LINE
  5
E0826
330
1F
100
AcDbEntity
  8
freecads.com
100
AcDbLine
 10
106991.3369363111
 20
97404.34038158491
 30
0.0
 11
106991.3858577291
 21
97404.35668870002
 31
0.0
  0
LINE
  5
E0827
330
1F
100
AcDbEntity
  8
freecads.com
100
AcDbLine
 10
106992.0109649027
 20
97404.10664588095
 30
0.0
 11
106991.9783506532
 21
97404.08490300753
 31
0.0
  0
LINE
  5
E0828
330
1F
100
AcDbEntity
  8
freecads.com
100
AcDbLine
 10
106992.0164006562
 20
97404.19905301186
 30
0.0
 11
106992.0109649027
 21
97404.10664588095
 31
0.0
  0
LINE
  5
E0829
330
1F
100
AcDbEntity
  8
freecads.com
100
AcDbLine
 10
106991.9674792625
 20
97404.15556731829
 30
0.0
 11
106992.0164006562
 21
97404.19905301186
 31
0.0
  0
LINE
  5
E082A
330
1F
100
AcDbEntity
  8
freecads.com
100
AcDbLine
 10
106991.929429211
 20
97404.10121015655
 30
0.0
 11
106991.9674792625
 21
97404.15556731829
 31
0.0
  0
LINE
  5
E082B
330
1F
100
AcDbEntity
  8
freecads.com
100
AcDbLine
 10
106991.9131220135
 20
97404.12295299606
 30
0.0
 11
106991.929429211
 21
97404.10121015655
 31
0.0
  0
LINE
  5
E082C
330
1F
100
AcDbEntity
  8
freecads.com
100
AcDbLine
 10
106991.8370220461
 20
97404.07946727343
 30
0.0
 11
106991.9131220135
 21
97404.12295299606
 31
0.0
  0
LINE
  5
E082D
330
1F
100
AcDbEntity
  8
freecads.com
100
AcDbLine
 10
106991.8144094971
 20
97404.02233797469
 30
0.0
 11
106991.8370220461
 21
97404.07946727343
 31
0.0
  0
LINE
  5
E082E
330
1F
100
AcDbEntity
  8
freecads.com
100
AcDbLine
 10
106991.496855048
 20
97404.20872855013
 30
0.0
 11
106991.5037583863
 21
97404.2294386523
 31
0.0
  0
LINE
  5
E082F
330
1F
100
AcDbEntity
  8
freecads.com
100
AcDbLine
 10
106991.4623382255
 20
97404.19492188804
 30
0.0
 11
106991.496855048
 21
97404.20872855013
 31
0.0
  0
LINE
  5
E0830
330
1F
100
AcDbEntity
  8
freecads.com
100
AcDbLine
 10
106991.4554348582
 20
97404.19492188804
 30
0.0
 11
106991.4623382255
 21
97404.19492188804
 31
0.0
  0
LINE
  5
E0831
330
1F
100
AcDbEntity
  8
freecads.com
100
AcDbLine
 10
106991.3518844927
 20
97404.18801853518
 30
0.0
 11
106991.4554348582
 21
97404.19492188804
 31
0.0
  0
LINE
  5
E0832
330
1F
100
AcDbEntity
  8
freecads.com
100
AcDbLine
 10
106991.3104644144
 20
97404.18801853518
 30
0.0
 11
106991.3518844927
 21
97404.18801853518
 31
0.0
  0
LINE
  5
E0833
330
1F
100
AcDbEntity
  8
freecads.com
100
AcDbLine
 10
106991.3380778258
 20
97404.17421178104
 30
0.0
 11
106991.3104644144
 21
97404.18801853518
 31
0.0
  0
LINE
  5
E0834
330
1F
100
AcDbEntity
  8
freecads.com
100
AcDbLine
 10
106991.3518844927
 20
97404.16040509471
 30
0.0
 11
106991.3380778258
 21
97404.17421178104
 31
0.0
  0
LINE
  5
E0835
330
1F
100
AcDbEntity
  8
freecads.com
100
AcDbLine
 10
106991.3449811835
 20
97404.13279166393
 30
0.0
 11
106991.3518844927
 21
97404.16040509471
 31
0.0
  0
LINE
  5
E0836
330
1F
100
AcDbEntity
  8
freecads.com
100
AcDbLine
 10
106991.3173677527
 20
97404.11898488554
 30
0.0
 11
106991.3449811835
 21
97404.13279166393
 31
0.0
  0
LINE
  5
E0837
330
1F
100
AcDbEntity
  8
freecads.com
100
AcDbLine
 10
106991.2828509448
 20
97404.11208163928
 30
0.0
 11
106991.3173677527
 21
97404.11898488554
 31
0.0
  0
LINE
  5
E0838
330
1F
100
AcDbEntity
  8
freecads.com
100
AcDbLine
 10
106991.2690442537
 20
97404.10517822828
 30
0.0
 11
106991.2828509448
 21
97404.11208163928
 31
0.0
  0
LINE
  5
E0839
330
1F
100
AcDbEntity
  8
freecads.com
100
AcDbLine
 10
106991.3035610034
 20
97404.10517822828
 30
0.0
 11
106991.2690442537
 21
97404.10517822828
 31
0.0
  0
LINE
  5
E083A
330
1F
100
AcDbEntity
  8
freecads.com
100
AcDbLine
 10
106991.3173677527
 20
97404.09137149836
 30
0.0
 11
106991.3035610034
 21
97404.10517822828
 31
0.0
  0
LINE
  5
E083B
330
1F
100
AcDbEntity
  8
freecads.com
100
AcDbLine
 10
106991.2828509448
 20
97404.07756480236
 30
0.0
 11
106991.3173677527
 21
97404.09137149836
 31
0.0
  0
LINE
  5
E083C
330
1F
100
AcDbEntity
  8
freecads.com
100
AcDbLine
 10
106991.2966576747
 20
97404.05685469534
 30
0.0
 11
106991.2828509448
 21
97404.07756480236
 31
0.0
  0
LINE
  5
E083D
330
1F
100
AcDbEntity
  8
freecads.com
100
AcDbLine
 10
106991.3104644144
 20
97404.04304799934
 30
0.0
 11
106991.2966576747
 21
97404.05685469534
 31
0.0
  0
LINE
  5
E083E
330
1F
100
AcDbEntity
  8
freecads.com
100
AcDbLine
 10
106991.3104644144
 20
97404.05685469534
 30
0.0
 11
106991.3104644144
 21
97404.04304799934
 31
0.0
  0
LINE
  5
E083F
330
1F
100
AcDbEntity
  8
freecads.com
100
AcDbLine
 10
106992.1733840877
 20
97403.84285065035
 30
0.0
 11
106992.2286109056
 21
97403.83594728781
 31
0.0
  0
LINE
  5
E0840
330
1F
100
AcDbEntity
  8
freecads.com
100
AcDbLine
 10
106992.1457706472
 20
97403.84975402259
 30
0.0
 11
106992.1733840877
 21
97403.84285065035
 31
0.0
  0
LINE
  5
E0841
330
1F
100
AcDbEntity
  8
freecads.com
100
AcDbLine
 10
106992.1526740388
 20
97403.86356072345
 30
0.0
 11
106992.1457706472
 21
97403.84975402259
 31
0.0
  0
LINE
  5
E0842
330
1F
100
AcDbEntity
  8
freecads.com
100
AcDbLine
 10
106992.1457706472
 20
97403.89807752162
 30
0.0
 11
106992.1526740388
 21
97403.86356072345
 31
0.0
  0
LINE
  5
E0843
330
1F
100
AcDbEntity
  8
freecads.com
100
AcDbLine
 10
106992.1181571728
 20
97403.88427076261
 30
0.0
 11
106992.1457706472
 21
97403.89807752162
 31
0.0
  0
LINE
  5
E0844
330
1F
100
AcDbEntity
  8
freecads.com
100
AcDbLine
 10
106992.0836404134
 20
97403.87736740977
 30
0.0
 11
106992.1181571728
 21
97403.88427076261
 31
0.0
  0
LINE
  5
E0845
330
1F
100
AcDbEntity
  8
freecads.com
100
AcDbLine
 10
106992.0698337077
 20
97403.85665735605
 30
0.0
 11
106992.0836404134
 21
97403.87736740977
 31
0.0
  0
LINE
  5
E0846
330
1F
100
AcDbEntity
  8
freecads.com
100
AcDbLine
 10
106992.0215102232
 20
97403.91878753657
 30
0.0
 11
106991.9800900576
 21
97403.89807752162
 31
0.0
  0
LINE
  5
E0847
330
1F
100
AcDbEntity
  8
freecads.com
100
AcDbLine
 10
106991.9593800378
 20
97404.01543457339
 30
0.0
 11
106991.9938967876
 21
97403.99472450514
 31
0.0
  0
LINE
  5
E0848
330
1F
100
AcDbEntity
  8
freecads.com
100
AcDbLine
 10
106991.9731867387
 20
97404.02924130332
 30
0.0
 11
106991.9593800378
 21
97404.01543457339
 31
0.0
  0
LINE
  5
E0849
330
1F
100
AcDbEntity
  8
freecads.com
100
AcDbLine
 10
106991.966283318
 20
97404.04995132797
 30
0.0
 11
106991.9731867387
 21
97404.02924130332
 31
0.0
  0
LINE
  5
E084A
330
1F
100
AcDbEntity
  8
freecads.com
100
AcDbLine
 10
106991.9524766608
 20
97404.04304799934
 30
0.0
 11
106991.966283318
 21
97404.04995132797
 31
0.0
  0
LINE
  5
E084B
330
1F
100
AcDbEntity
  8
freecads.com
100
AcDbLine
 10
106991.8144094971
 20
97404.02233797469
 30
0.0
 11
106991.8420229328
 21
97404.03614463195
 31
0.0
  0
LINE
  5
E084C
330
1F
100
AcDbEntity
  8
freecads.com
100
AcDbLine
 10
106991.8351195799
 20
97404.00162787738
 30
0.0
 11
106991.8144094971
 21
97404.02233797469
 31
0.0
  0
LINE
  5
E084D
330
1F
100
AcDbEntity
  8
freecads.com
100
AcDbLine
 10
106991.8282162319
 20
97403.98782109901
 30
0.0
 11
106991.8351195799
 21
97404.00162787738
 31
0.0
  0
LINE
  5
E084E
330
1F
100
AcDbEntity
  8
freecads.com
100
AcDbLine
 10
106991.7867960034
 20
97403.97401440299
 30
0.0
 11
106991.8282162319
 21
97403.98782109901
 31
0.0
  0
LINE
  5
E084F
330
1F
100
AcDbEntity
  8
freecads.com
100
AcDbLine
 10
106991.7315692242
 20
97403.96020775541
 30
0.0
 11
106991.7867960034
 21
97403.97401440299
 31
0.0
  0
LINE
  5
E0850
330
1F
100
AcDbEntity
  8
freecads.com
100
AcDbLine
 10
106991.6763423529
 20
97403.94640097704
 30
0.0
 11
106991.7315692242
 21
97403.96020775541
 31
0.0
  0
LINE
  5
E0851
330
1F
100
AcDbEntity
  8
freecads.com
100
AcDbLine
 10
106991.6418255499
 20
97403.93259427134
 30
0.0
 11
106991.6763423529
 21
97403.94640097704
 31
0.0
  0
LINE
  5
E0852
330
1F
100
AcDbEntity
  8
freecads.com
100
AcDbLine
 10
106991.6073088196
 20
97403.93259427134
 30
0.0
 11
106991.6418255499
 21
97403.93259427134
 31
0.0
  0
LINE
  5
E0853
330
1F
100
AcDbEntity
  8
freecads.com
100
AcDbLine
 10
106991.5796953161
 20
97403.93259427134
 30
0.0
 11
106991.6073088196
 21
97403.93259427134
 31
0.0
  0
LINE
  5
E0854
330
1F
100
AcDbEntity
  8
freecads.com
100
AcDbLine
 10
106991.5382751941
 20
97403.93259427134
 30
0.0
 11
106991.5796953161
 21
97403.93259427134
 31
0.0
  0
LINE
  5
E0855
330
1F
100
AcDbEntity
  8
freecads.com
100
AcDbLine
 10
106991.5451785276
 20
97403.91188421279
 30
0.0
 11
106991.5382751941
 21
97403.93259427134
 31
0.0
  0
LINE
  5
E0856
330
1F
100
AcDbEntity
  8
freecads.com
100
AcDbLine
 10
106991.5865986883
 20
97403.87736740977
 30
0.0
 11
106991.5451785276
 21
97403.91188421279
 31
0.0
  0
LINE
  5
E0857
330
1F
100
AcDbEntity
  8
freecads.com
100
AcDbLine
 10
106991.6142120755
 20
97403.86356072345
 30
0.0
 11
106991.5865986883
 21
97403.87736740977
 31
0.0
  0
LINE
  5
E0858
330
1F
100
AcDbEntity
  8
freecads.com
100
AcDbLine
 10
106991.6349222261
 20
97403.83594728781
 30
0.0
 11
106991.6142120755
 21
97403.86356072345
 31
0.0
  0
LINE
  5
E0859
330
1F
100
AcDbEntity
  8
freecads.com
100
AcDbLine
 10
106991.6280187763
 20
97403.82214055305
 30
0.0
 11
106991.6349222261
 21
97403.83594728781
 31
0.0
  0
LINE
  5
E085A
330
1F
100
AcDbEntity
  8
freecads.com
100
AcDbLine
 10
106991.6418255499
 20
97403.81523721957
 30
0.0
 11
106991.6280187763
 21
97403.82214055305
 31
0.0
  0
LINE
  5
E085B
330
1F
100
AcDbEntity
  8
freecads.com
100
AcDbLine
 10
106991.697052426
 20
97403.81523721957
 30
0.0
 11
106991.6418255499
 21
97403.81523721957
 31
0.0
  0
LINE
  5
E085C
330
1F
100
AcDbEntity
  8
freecads.com
100
AcDbLine
 10
106991.7108591123
 20
97403.80143048481
 30
0.0
 11
106991.697052426
 21
97403.81523721957
 31
0.0
  0
LINE
  5
E085D
330
1F
100
AcDbEntity
  8
freecads.com
100
AcDbLine
 10
106991.6694389952
 20
97403.78072045531
 30
0.0
 11
106991.7108591123
 21
97403.80143048481
 31
0.0
  0
LINE
  5
E085E
330
1F
100
AcDbEntity
  8
freecads.com
100
AcDbLine
 10
106991.6142120755
 20
97403.76691368663
 30
0.0
 11
106991.6694389952
 21
97403.78072045531
 31
0.0
  0
LINE
  5
E085F
330
1F
100
AcDbEntity
  8
freecads.com
100
AcDbLine
 10
106991.5589852285
 20
97403.76691368663
 30
0.0
 11
106991.6142120755
 21
97403.76691368663
 31
0.0
  0
LINE
  5
E0860
330
1F
100
AcDbEntity
  8
freecads.com
100
AcDbLine
 10
106991.5106617633
 20
97403.76691368663
 30
0.0
 11
106991.5589852285
 21
97403.76691368663
 31
0.0
  0
LINE
  5
E0861
330
1F
100
AcDbEntity
  8
freecads.com
100
AcDbLine
 10
106991.4830483035
 20
97403.76691368663
 30
0.0
 11
106991.5106617633
 21
97403.76691368663
 31
0.0
  0
LINE
  5
E0862
330
1F
100
AcDbEntity
  8
freecads.com
100
AcDbLine
 10
106991.4692416075
 20
97403.76691368663
 30
0.0
 11
106991.4830483035
 21
97403.76691368663
 31
0.0
  0
LINE
  5
E0863
330
1F
100
AcDbEntity
  8
freecads.com
100
AcDbLine
 10
106991.2552375576
 20
97403.82904395433
 30
0.0
 11
106991.2069140198
 21
97403.79452712225
 31
0.0
  0
LINE
  5
E0864
330
1F
100
AcDbEntity
  8
freecads.com
100
AcDbLine
 10
106991.2897543025
 20
97403.84285065035
 30
0.0
 11
106991.2552375576
 21
97403.82904395433
 31
0.0
  0
LINE
  5
E0865
330
1F
100
AcDbEntity
  8
freecads.com
100
AcDbLine
 10
106992.2283935158
 20
97403.81311724721
 30
0.0
 11
106992.201214918
 21
97403.77506728293
 31
0.0
  0
LINE
  5
E0866
330
1F
100
AcDbEntity
  8
freecads.com
100
AcDbLine
 10
106992.1468577998
 20
97403.79681012244
 30
0.0
 11
106992.1733840877
 21
97403.84285065035
 31
0.0
  0
LINE
  5
E0867
330
1F
100
AcDbEntity
  8
freecads.com
100
AcDbLine
 10
106991.9892220148
 20
97403.8566030086
 30
0.0
 11
106991.9457363357
 21
97403.81311724721
 31
0.0
  0
LINE
  5
E0868
330
1F
100
AcDbEntity
  8
freecads.com
100
AcDbLine
 10
106992.0215102232
 20
97403.91878753657
 30
0.0
 11
106991.9892220148
 21
97403.8566030086
 31
0.0
  0
LINE
  5
E0869
330
1F
100
AcDbEntity
  8
freecads.com
100
AcDbLine
 10
106991.9239934866
 20
97403.91639586571
 30
0.0
 11
106991.9566077797
 21
97403.96531727396
 31
0.0
  0
LINE
  5
E086A
330
1F
100
AcDbEntity
  8
freecads.com
100
AcDbLine
 10
106991.9076863327
 20
97403.87834585295
 30
0.0
 11
106991.9239934866
 21
97403.91639586571
 31
0.0
  0
LINE
  5
E086B
330
1F
100
AcDbEntity
  8
freecads.com
100
AcDbLine
 10
106991.8859435223
 20
97403.85116724544
 30
0.0
 11
106991.9076863327
 21
97403.87834585295
 31
0.0
  0
LINE
  5
E086C
330
1F
100
AcDbEntity
  8
freecads.com
100
AcDbLine
 10
106991.8642006537
 20
97403.89465298742
 30
0.0
 11
106991.8859435223
 21
97403.85116724544
 31
0.0
  0
LINE
  5
E086D
330
1F
100
AcDbEntity
  8
freecads.com
100
AcDbLine
 10
106991.8478934756
 20
97403.93270298079
 30
0.0
 11
106991.8642006537
 21
97403.89465298742
 31
0.0
  0
LINE
  5
E086E
330
1F
100
AcDbEntity
  8
freecads.com
100
AcDbLine
 10
106991.8282162319
 20
97403.98782109901
 30
0.0
 11
106991.8478934756
 21
97403.93270298079
 31
0.0
  0
LINE
  5
E086F
330
1F
100
AcDbEntity
  8
freecads.com
100
AcDbLine
 10
106991.7935363284
 20
97403.90008869731
 30
0.0
 11
106991.7826649232
 21
97403.94901013949
 31
0.0
  0
LINE
  5
E0870
330
1F
100
AcDbEntity
  8
freecads.com
100
AcDbLine
 10
106991.798972077
 20
97403.86203873786
 30
0.0
 11
106991.7935363284
 21
97403.90008869731
 31
0.0
  0
LINE
  5
E0871
330
1F
100
AcDbEntity
  8
freecads.com
100
AcDbLine
 10
106991.8261506312
 20
97403.81855298132
 30
0.0
 11
106991.798972077
 21
97403.86203873786
 31
0.0
  0
LINE
  5
E0872
330
1F
100
AcDbEntity
  8
freecads.com
100
AcDbLine
 10
106991.7554863544
 20
97403.81855298132
 30
0.0
 11
106991.7772291939
 21
97403.79137443678
 31
0.0
  0
LINE
  5
E0873
330
1F
100
AcDbEntity
  8
freecads.com
100
AcDbLine
 10
106991.728307742
 20
97403.82942437687
 30
0.0
 11
106991.7554863544
 21
97403.81855298132
 31
0.0
  0
LINE
  5
E0874
330
1F
100
AcDbEntity
  8
freecads.com
100
AcDbLine
 10
106991.7011291975
 20
97403.84573157916
 30
0.0
 11
106991.728307742
 21
97403.82942437687
 31
0.0
  0
LINE
  5
E0875
330
1F
100
AcDbEntity
  8
freecads.com
100
AcDbLine
 10
106991.744614954
 20
97403.78050301703
 30
0.0
 11
106991.7108591123
 21
97403.80143048481
 31
0.0
  0
LINE
  5
E0876
330
1F
100
AcDbEntity
  8
freecads.com
100
AcDbLine
 10
106991.9800900576
 20
97403.89807752162
 30
0.0
 11
106991.966283318
 21
97403.87736740977
 31
0.0
  0
LINE
  5
E0877
330
1F
100
AcDbEntity
  8
freecads.com
100
AcDbLine
 10
106992.0284135857
 20
97403.97401440299
 30
0.0
 11
106992.0215102232
 21
97403.91878753657
 31
0.0
  0
LINE
  5
E0878
330
1F
100
AcDbEntity
  8
freecads.com
100
AcDbLine
 10
106991.9938967876
 20
97403.99472450514
 30
0.0
 11
106992.0284135857
 21
97403.97401440299
 31
0.0
  0
LINE
  5
E0879
330
1F
100
AcDbEntity
  8
freecads.com
100
AcDbLine
 10
106993.0777239411
 20
97404.38821586478
 30
0.0
 11
106993.1122406908
 21
97404.38821586478
 31
0.0
  0
LINE
  5
E087A
330
1F
100
AcDbEntity
  8
freecads.com
100
AcDbLine
 10
106992.9258500911
 20
97404.37440922207
 30
0.0
 11
106992.946560077
 21
97404.38821586478
 31
0.0
  0
LINE
  5
E087B
330
1F
100
AcDbEntity
  8
freecads.com
100
AcDbLine
 10
106992.8982366216
 20
97404.36060243885
 30
0.0
 11
106992.9258500911
 21
97404.37440922207
 31
0.0
  0
LINE
  5
E087C
330
1F
100
AcDbEntity
  8
freecads.com
100
AcDbLine
 10
106992.8568164803
 20
97404.36060243885
 30
0.0
 11
106992.8982366216
 21
97404.36060243885
 31
0.0
  0
LINE
  5
E087D
330
1F
100
AcDbEntity
  8
freecads.com
100
AcDbLine
 10
106992.8153963583
 20
97404.36060243885
 30
0.0
 11
106992.8568164803
 21
97404.36060243885
 31
0.0
  0
LINE
  5
E087E
330
1F
100
AcDbEntity
  8
freecads.com
100
AcDbLine
 10
106992.7670727963
 20
97404.38821586478
 30
0.0
 11
106992.8153963583
 21
97404.36060243885
 31
0.0
  0
LINE
  5
E087F
330
1F
100
AcDbEntity
  8
freecads.com
100
AcDbLine
 10
106992.4458220708
 20
97404.23166728565
 30
0.0
 11
106992.450872998
 21
97404.23743972884
 31
0.0
  0
LINE
  5
E0880
330
1F
100
AcDbEntity
  8
freecads.com
100
AcDbLine
 10
106992.4133677339
 20
97404.18066752555
 30
0.0
 11
106992.4151582835
 21
97404.18348124915
 31
0.0
  0
LINE
  5
E0881
330
1F
100
AcDbEntity
  8
freecads.com
100
AcDbLine
 10
106992.3153649756
 20
97404.07946727343
 30
0.0
 11
106992.380593499
 21
97404.11751728132
 31
0.0
  0
LINE
  5
E0882
330
1F
100
AcDbEntity
  8
freecads.com
100
AcDbLine
 10
106992.5925863586
 20
97404.31863878416
 30
0.0
 11
106992.6252006905
 21
97404.28058873751
 31
0.0
  0
LINE
  5
E0883
330
1F
100
AcDbEntity
  8
freecads.com
100
AcDbLine
 10
106992.684232533
 20
97404.20872855013
 30
0.0
 11
106992.6635224841
 21
97404.18801853518
 31
0.0
  0
LINE
  5
E0884
330
1F
100
AcDbEntity
  8
freecads.com
100
AcDbLine
 10
106992.7049425916
 20
97404.20872855013
 30
0.0
 11
106992.684232533
 21
97404.20872855013
 31
0.0
  0
LINE
  5
E0885
330
1F
100
AcDbEntity
  8
freecads.com
100
AcDbLine
 10
106992.7394593946
 20
97404.20872855013
 30
0.0
 11
106992.7049425916
 21
97404.20872855013
 31
0.0
  0
LINE
  5
E0886
330
1F
100
AcDbEntity
  8
freecads.com
100
AcDbLine
 10
106992.3321613244
 20
97403.81523721957
 30
0.0
 11
106992.3528713684
 21
97403.79452712225
 31
0.0
  0
LINE
  5
E0887
330
1F
100
AcDbEntity
  8
freecads.com
100
AcDbLine
 10
106992.2631277087
 20
97403.82904395433
 30
0.0
 11
106992.3321613244
 21
97403.81523721957
 31
0.0
  0
LINE
  5
E0888
330
1F
100
AcDbEntity
  8
freecads.com
100
AcDbLine
 10
106992.3597746922
 20
97404.06375810634
 30
0.0
 11
106992.3873881666
 21
97404.07756480236
 31
0.0
  0
LINE
  5
E0889
330
1F
100
AcDbEntity
  8
freecads.com
100
AcDbLine
 10
106992.3390646724
 20
97404.06375810634
 30
0.0
 11
106992.3597746922
 21
97404.06375810634
 31
0.0
  0
LINE
  5
E088A
330
1F
100
AcDbEntity
  8
freecads.com
100
AcDbLine
 10
106992.3114512367
 20
97404.07756480236
 30
0.0
 11
106992.3390646724
 21
97404.06375810634
 31
0.0
  0
LINE
  5
E088B
330
1F
100
AcDbEntity
  8
freecads.com
100
AcDbLine
 10
106992.2838377914
 20
97404.05685469534
 30
0.0
 11
106992.3114512367
 21
97404.07756480236
 31
0.0
  0
LINE
  5
E088C
330
1F
100
AcDbEntity
  8
freecads.com
100
AcDbLine
 10
106992.2700310954
 20
97404.07066143012
 30
0.0
 11
106992.2838377914
 21
97404.05685469534
 31
0.0
  0
LINE
  5
E088D
330
1F
100
AcDbEntity
  8
freecads.com
100
AcDbLine
 10
106992.249321003
 20
97404.06375810634
 30
0.0
 11
106992.2700310954
 21
97404.07066143012
 31
0.0
  0
LINE
  5
E088E
330
1F
100
AcDbEntity
  8
freecads.com
100
AcDbLine
 10
106992.6252006905
 20
97404.25884585926
 30
0.0
 11
106992.5980220781
 21
97404.23166728565
 31
0.0
  0
LINE
  5
E088F
330
1F
100
AcDbEntity
  8
freecads.com
100
AcDbLine
 10
106992.5545363555
 20
97404.22623160968
 30
0.0
 11
106992.570843553
 21
97404.24797446372
 31
0.0
  0
LINE
  5
E0890
330
1F
100
AcDbEntity
  8
freecads.com
100
AcDbLine
 10
106992.3969006867
 20
97404.13926012568
 30
0.0
 11
106992.380593499
 21
97404.12838876405
 31
0.0
  0
LINE
  5
E0891
330
1F
100
AcDbEntity
  8
freecads.com
100
AcDbLine
 10
106992.4132078309
 20
97404.15556731829
 30
0.0
 11
106992.3969006867
 21
97404.13926012568
 31
0.0
  0
LINE
  5
E0892
330
1F
100
AcDbEntity
  8
freecads.com
100
AcDbLine
 10
106992.4349506995
 20
97404.17187440916
 30
0.0
 11
106992.4132078309
 21
97404.15556731829
 31
0.0
  0
LINE
  5
E0893
330
1F
100
AcDbEntity
  8
freecads.com
100
AcDbLine
 10
106992.4621292149
 20
97404.19905301186
 30
0.0
 11
106992.4349506995
 21
97404.17187440916
 31
0.0
  0
LINE
  5
E0894
330
1F
100
AcDbEntity
  8
freecads.com
100
AcDbLine
 10
106992.4621292149
 20
97404.22079585135
 30
0.0
 11
106992.4621292149
 21
97404.19905301186
 31
0.0
  0
LINE
  5
E0895
330
1F
100
AcDbEntity
  8
freecads.com
100
AcDbLine
 10
106992.4730006637
 20
97404.25884585926
 30
0.0
 11
106992.4621292149
 21
97404.22079585135
 31
0.0
  0
LINE
  5
E0896
330
1F
100
AcDbEntity
  8
freecads.com
100
AcDbLine
 10
106992.429514946
 20
97404.11751728132
 30
0.0
 11
106992.4077721113
 21
97404.09577440791
 31
0.0
  0
LINE
  5
E0897
330
1F
100
AcDbEntity
  8
freecads.com
100
AcDbLine
 10
106992.4403863754
 20
97404.12295299606
 30
0.0
 11
106992.429514946
 21
97404.11751728132
 31
0.0
  0
LINE
  5
E0898
330
1F
100
AcDbEntity
  8
freecads.com
100
AcDbLine
 10
106992.4893078321
 20
97404.13926012568
 30
0.0
 11
106992.4403863754
 21
97404.12295299606
 31
0.0
  0
LINE
  5
E0899
330
1F
100
AcDbEntity
  8
freecads.com
100
AcDbLine
 10
106992.5273578352
 20
97404.15013159873
 30
0.0
 11
106992.4893078321
 21
97404.13926012568
 31
0.0
  0
LINE
  5
E089A
330
1F
100
AcDbEntity
  8
freecads.com
100
AcDbLine
 10
106992.5599721574
 20
97404.18818161145
 30
0.0
 11
106992.5273578352
 21
97404.15013159873
 31
0.0
  0
LINE
  5
E089B
330
1F
100
AcDbEntity
  8
freecads.com
100
AcDbLine
 10
106992.5980220781
 20
97404.23166728565
 30
0.0
 11
106992.5599721574
 21
97404.18818161145
 31
0.0
  0
LINE
  5
E089C
330
1F
100
AcDbEntity
  8
freecads.com
100
AcDbLine
 10
106992.6469436027
 20
97404.27515302279
 30
0.0
 11
106992.6252006905
 21
97404.25884585926
 31
0.0
  0
LINE
  5
E089D
330
1F
100
AcDbEntity
  8
freecads.com
100
AcDbLine
 10
106992.6632506839
 20
97404.28602444739
 30
0.0
 11
106992.6469436027
 21
97404.27515302279
 31
0.0
  0
LINE
  5
E089E
330
1F
100
AcDbEntity
  8
freecads.com
100
AcDbLine
 10
106992.6958649722
 20
97404.28602444739
 30
0.0
 11
106992.6632506839
 21
97404.28602444739
 31
0.0
  0
LINE
  5
E089F
330
1F
100
AcDbEntity
  8
freecads.com
100
AcDbLine
 10
106992.7230435264
 20
97404.30233156249
 30
0.0
 11
106992.6958649722
 21
97404.28602444739
 31
0.0
  0
LINE
  5
E08A0
330
1F
100
AcDbEntity
  8
freecads.com
100
AcDbLine
 10
106992.7502220903
 20
97404.30233156249
 30
0.0
 11
106992.7230435264
 21
97404.30233156249
 31
0.0
  0
LINE
  5
E08A1
330
1F
100
AcDbEntity
  8
freecads.com
100
AcDbLine
 10
106992.7882720983
 20
97404.30233156249
 30
0.0
 11
106992.7502220903
 21
97404.30233156249
 31
0.0
  0
LINE
  5
E08A2
330
1F
100
AcDbEntity
  8
freecads.com
100
AcDbLine
 10
106992.8317578645
 20
97404.32407445045
 30
0.0
 11
106992.7882720983
 21
97404.30233156249
 31
0.0
  0
LINE
  5
E08A3
330
1F
100
AcDbEntity
  8
freecads.com
100
AcDbLine
 10
106992.755657839
 20
97404.34581730447
 30
0.0
 11
106992.7719649686
 21
97404.35125301436
 31
0.0
  0
LINE
  5
E08A4
330
1F
100
AcDbEntity
  8
freecads.com
100
AcDbLine
 10
106992.7230435264
 20
97404.34038158491
 30
0.0
 11
106992.755657839
 21
97404.34581730447
 31
0.0
  0
LINE
  5
E08A5
330
1F
100
AcDbEntity
  8
freecads.com
100
AcDbLine
 10
106992.674122123
 20
97404.31863878416
 30
0.0
 11
106992.7230435264
 21
97404.34038158491
 31
0.0
  0
LINE
  5
E08A6
330
1F
100
AcDbEntity
  8
freecads.com
100
AcDbLine
 10
106992.6088935173
 20
97404.30233156249
 30
0.0
 11
106992.674122123
 21
97404.31863878416
 31
0.0
  0
LINE
  5
E08A7
330
1F
100
AcDbEntity
  8
freecads.com
100
AcDbLine
 10
106992.570843553
 20
97404.24797446372
 30
0.0
 11
106992.6088935173
 21
97404.30233156249
 31
0.0
  0
LINE
  5
E08A8
330
1F
100
AcDbEntity
  8
freecads.com
100
AcDbLine
 10
106992.5327935015
 20
97404.20448872656
 30
0.0
 11
106992.5545363555
 21
97404.22623160968
 31
0.0
  0
LINE
  5
E08A9
330
1F
100
AcDbEntity
  8
freecads.com
100
AcDbLine
 10
106992.5110507152
 20
97404.19361729712
 30
0.0
 11
106992.5327935015
 21
97404.20448872656
 31
0.0
  0
LINE
  5
E08AA
330
1F
100
AcDbEntity
  8
freecads.com
100
AcDbLine
 10
106992.5056149521
 20
97404.20992443644
 30
0.0
 11
106992.5110507152
 21
97404.19361729712
 31
0.0
  0
LINE
  5
E08AB
330
1F
100
AcDbEntity
  8
freecads.com
100
AcDbLine
 10
106992.5164863476
 20
97404.24797446372
 30
0.0
 11
106992.5056149521
 21
97404.20992443644
 31
0.0
  0
LINE
  5
E08AC
330
1F
100
AcDbEntity
  8
freecads.com
100
AcDbLine
 10
106992.5436649503
 20
97404.30233156249
 30
0.0
 11
106992.5164863476
 21
97404.24797446372
 31
0.0
  0
LINE
  5
E08AD
330
1F
100
AcDbEntity
  8
freecads.com
100
AcDbLine
 10
106992.5545363555
 20
97404.32951013611
 30
0.0
 11
106992.5436649503
 21
97404.30233156249
 31
0.0
  0
LINE
  5
E08AE
330
1F
100
AcDbEntity
  8
freecads.com
100
AcDbLine
 10
106992.5599721574
 20
97404.37843161704
 30
0.0
 11
106992.5545363555
 21
97404.32951013611
 31
0.0
  0
LINE
  5
E08AF
330
1F
100
AcDbEntity
  8
freecads.com
100
AcDbLine
 10
106992.4893078321
 20
97404.32951013611
 30
0.0
 11
106992.5056149521
 21
97404.3838673027
 31
0.0
  0
LINE
  5
E08B0
330
1F
100
AcDbEntity
  8
freecads.com
100
AcDbLine
 10
106992.4838721029
 20
97404.27515302279
 30
0.0
 11
106992.4893078321
 21
97404.32951013611
 31
0.0
  0
LINE
  5
E08B1
330
1F
100
AcDbEntity
  8
freecads.com
100
AcDbLine
 10
106992.4741070545
 20
97404.26399294333
 30
0.0
 11
106992.4838721029
 21
97404.27515302279
 31
0.0
  0
LINE
  5
E08B2
330
1F
100
AcDbEntity
  8
freecads.com
100
AcDbLine
 10
106992.7774006882
 20
97403.8402958596
 30
0.0
 11
106992.7937078614
 21
97403.81311724721
 31
0.0
  0
LINE
  5
E08B3
330
1F
100
AcDbEntity
  8
freecads.com
100
AcDbLine
 10
106992.7067364113
 20
97403.90008869731
 30
0.0
 11
106992.7774006882
 21
97403.8402958596
 31
0.0
  0
LINE
  5
E08B4
330
1F
100
AcDbEntity
  8
freecads.com
100
AcDbLine
 10
106992.6795578522
 20
97403.88378161613
 30
0.0
 11
106992.7067364113
 21
97403.90008869731
 31
0.0
  0
LINE
  5
E08B5
330
1F
100
AcDbEntity
  8
freecads.com
100
AcDbLine
 10
106992.6359090388
 20
97404.04995132797
 30
0.0
 11
106992.652379235
 21
97403.9544458639
 31
0.0
  0
LINE
  5
E08B6
330
1F
100
AcDbEntity
  8
freecads.com
100
AcDbLine
 10
106993.1191440727
 20
97403.84975402259
 30
0.0
 11
106993.146757489
 21
97403.80143048481
 31
0.0
  0
LINE
  5
E08B7
330
1F
100
AcDbEntity
  8
freecads.com
100
AcDbLine
 10
106993.0915306419
 20
97403.84975402259
 30
0.0
 11
106993.1191440727
 21
97403.84975402259
 31
0.0
  0
LINE
  5
E08B8
330
1F
100
AcDbEntity
  8
freecads.com
100
AcDbLine
 10
106993.0777239411
 20
97403.87046409082
 30
0.0
 11
106993.0915306419
 21
97403.84975402259
 31
0.0
  0
LINE
  5
E08B9
330
1F
100
AcDbEntity
  8
freecads.com
100
AcDbLine
 10
106993.0639172548
 20
97403.89117411062
 30
0.0
 11
106993.0777239411
 21
97403.87046409082
 31
0.0
  0
LINE
  5
E08BA
330
1F
100
AcDbEntity
  8
freecads.com
100
AcDbLine
 10
106993.0432071138
 20
97403.91878753657
 30
0.0
 11
106993.0639172548
 21
97403.89117411062
 31
0.0
  0
LINE
  5
E08BB
330
1F
100
AcDbEntity
  8
freecads.com
100
AcDbLine
 10
106993.0155936734
 20
97403.92569090881
 30
0.0
 11
106993.0432071138
 21
97403.91878753657
 31
0.0
  0
LINE
  5
E08BC
330
1F
100
AcDbEntity
  8
freecads.com
100
AcDbLine
 10
106992.9534634977
 20
97403.92569090881
 30
0.0
 11
106993.0155936734
 21
97403.92569090881
 31
0.0
  0
LINE
  5
E08BD
330
1F
100
AcDbEntity
  8
freecads.com
100
AcDbLine
 10
106992.8982366216
 20
97403.92569090881
 30
0.0
 11
106992.9534634977
 21
97403.92569090881
 31
0.0
  0
LINE
  5
E08BE
330
1F
100
AcDbEntity
  8
freecads.com
100
AcDbLine
 10
106992.7532660954
 20
97404.18111519685
 30
0.0
 11
106992.7394593946
 21
97404.20872855013
 31
0.0
  0
LINE
  5
E08BF
330
1F
100
AcDbEntity
  8
freecads.com
100
AcDbLine
 10
106992.7877828839
 20
97404.18111519685
 30
0.0
 11
106992.7532660954
 21
97404.18111519685
 31
0.0
  0
LINE
  5
E08C0
330
1F
100
AcDbEntity
  8
freecads.com
100
AcDbLine
 10
106992.8222996579
 20
97404.18111519685
 30
0.0
 11
106992.7877828839
 21
97404.18111519685
 31
0.0
  0
LINE
  5
E08C1
330
1F
100
AcDbEntity
  8
freecads.com
100
AcDbLine
 10
106992.8499131129
 20
97404.16730841849
 30
0.0
 11
106992.8222996579
 21
97404.18111519685
 31
0.0
  0
LINE
  5
E08C2
330
1F
100
AcDbEntity
  8
freecads.com
100
AcDbLine
 10
106992.884429911
 20
97404.1396950313
 30
0.0
 11
106992.8499131129
 21
97404.16730841849
 31
0.0
  0
LINE
  5
E08C3
330
1F
100
AcDbEntity
  8
freecads.com
100
AcDbLine
 10
106992.9189467141
 20
97404.1396950313
 30
0.0
 11
106992.884429911
 21
97404.1396950313
 31
0.0
  0
LINE
  5
E08C4
330
1F
100
AcDbEntity
  8
freecads.com
100
AcDbLine
 10
106992.9534634977
 20
97404.1396950313
 30
0.0
 11
106992.9189467141
 21
97404.1396950313
 31
0.0
  0
LINE
  5
E08C5
330
1F
100
AcDbEntity
  8
freecads.com
100
AcDbLine
 10
106993.0017869677
 20
97404.1396950313
 30
0.0
 11
106992.9534634977
 21
97404.1396950313
 31
0.0
  0
LINE
  5
E08C6
330
1F
100
AcDbEntity
  8
freecads.com
100
AcDbLine
 10
106993.0224970359
 20
97404.13279166393
 30
0.0
 11
106993.0017869677
 21
97404.1396950313
 31
0.0
  0
LINE
  5
E08C7
330
1F
100
AcDbEntity
  8
freecads.com
100
AcDbLine
 10
106993.0501104958
 20
97404.10517822828
 30
0.0
 11
106993.0224970359
 21
97404.13279166393
 31
0.0
  0
LINE
  5
E08C8
330
1F
100
AcDbEntity
  8
freecads.com
100
AcDbLine
 10
106993.070820564
 20
97404.09137149836
 30
0.0
 11
106993.0501104958
 21
97404.10517822828
 31
0.0
  0
LINE
  5
E08C9
330
1F
100
AcDbEntity
  8
freecads.com
100
AcDbLine
 10
106993.070820564
 20
97404.07066143012
 30
0.0
 11
106993.070820564
 21
97404.09137149836
 31
0.0
  0
LINE
  5
E08CA
330
1F
100
AcDbEntity
  8
freecads.com
100
AcDbLine
 10
106992.9879802668
 20
97404.03614463195
 30
0.0
 11
106993.070820564
 21
97404.07066143012
 31
0.0
  0
LINE
  5
E08CB
330
1F
100
AcDbEntity
  8
freecads.com
100
AcDbLine
 10
106993.0294003597
 20
97404.04995132797
 30
0.0
 11
106992.9879802668
 21
97404.03614463195
 31
0.0
  0
LINE
  5
E08CC
330
1F
100
AcDbEntity
  8
freecads.com
100
AcDbLine
 10
106993.070820564
 20
97404.04995132797
 30
0.0
 11
106993.0294003597
 21
97404.04995132797
 31
0.0
  0
LINE
  5
E08CD
330
1F
100
AcDbEntity
  8
freecads.com
100
AcDbLine
 10
106993.1122406908
 20
97404.04995132797
 30
0.0
 11
106993.070820564
 21
97404.04995132797
 31
0.0
  0
LINE
  5
E08CE
330
1F
100
AcDbEntity
  8
freecads.com
100
AcDbLine
 10
106993.1605641947
 20
97404.04995132797
 30
0.0
 11
106993.1122406908
 21
97404.04995132797
 31
0.0
  0
LINE
  5
E08CF
330
1F
100
AcDbEntity
  8
freecads.com
100
AcDbLine
 10
106993.1743708859
 20
97404.02924130332
 30
0.0
 11
106993.1605641947
 21
97404.04995132797
 31
0.0
  0
LINE
  5
E08D0
330
1F
100
AcDbEntity
  8
freecads.com
100
AcDbLine
 10
106993.1743708859
 20
97404.00853123507
 30
0.0
 11
106993.1743708859
 21
97404.02924130332
 31
0.0
  0
LINE
  5
E08D1
330
1F
100
AcDbEntity
  8
freecads.com
100
AcDbLine
 10
106993.2019843602
 20
97403.97401440299
 30
0.0
 11
106993.1743708859
 21
97404.00853123507
 31
0.0
  0
LINE
  5
E08D2
330
1F
100
AcDbEntity
  8
freecads.com
100
AcDbLine
 10
106993.2295978007
 20
97403.96020775541
 30
0.0
 11
106993.2019843602
 21
97403.97401440299
 31
0.0
  0
LINE
  5
E08D3
330
1F
100
AcDbEntity
  8
freecads.com
100
AcDbLine
 10
106993.2641145989
 20
97403.94640097704
 30
0.0
 11
106993.2295978007
 21
97403.96020775541
 31
0.0
  0
LINE
  5
E08D4
330
1F
100
AcDbEntity
  8
freecads.com
100
AcDbLine
 10
106993.2641145989
 20
97403.91878753657
 30
0.0
 11
106993.2641145989
 21
97403.94640097704
 31
0.0
  0
LINE
  5
E08D5
330
1F
100
AcDbEntity
  8
freecads.com
100
AcDbLine
 10
106993.2503078496
 20
97403.89117411062
 30
0.0
 11
106993.2641145989
 21
97403.91878753657
 31
0.0
  0
LINE
  5
E08D6
330
1F
100
AcDbEntity
  8
freecads.com
100
AcDbLine
 10
106993.2088877325
 20
97403.87736740977
 30
0.0
 11
106993.2503078496
 21
97403.89117411062
 31
0.0
  0
LINE
  5
E08D7
330
1F
100
AcDbEntity
  8
freecads.com
100
AcDbLine
 10
106993.1950809492
 20
97403.87046409082
 30
0.0
 11
106993.2088877325
 21
97403.87736740977
 31
0.0
  0
LINE
  5
E08D8
330
1F
100
AcDbEntity
  8
freecads.com
100
AcDbLine
 10
106992.6566191361
 20
97404.07756480236
 30
0.0
 11
106992.6359090388
 21
97404.04995132797
 31
0.0
  0
LINE
  5
E08D9
330
1F
100
AcDbEntity
  8
freecads.com
100
AcDbLine
 10
106992.6221022992
 20
97404.07756480236
 30
0.0
 11
106992.6566191361
 21
97404.07756480236
 31
0.0
  0
LINE
  5
E08DA
330
1F
100
AcDbEntity
  8
freecads.com
100
AcDbLine
 10
106992.5599721574
 20
97404.07066143012
 30
0.0
 11
106992.6221022992
 21
97404.07756480236
 31
0.0
  0
LINE
  5
E08DB
330
1F
100
AcDbEntity
  8
freecads.com
100
AcDbLine
 10
106992.1577291954
 20
97404.4490958745
 30
0.0
 11
106992.2501363699
 21
97404.50888872192
 31
0.0
  0
LINE
  5
E08DC
330
1F
100
AcDbEntity
  8
freecads.com
100
AcDbLine
 10
106992.2175220864
 20
97404.65565305816
 30
0.0
 11
106992.2827506001
 21
97404.62847449908
 31
0.0
  0
LINE
  5
E08DD
330
1F
100
AcDbEntity
  8
freecads.com
100
AcDbLine
 10
106992.2447006357
 20
97404.57411733732
 30
0.0
 11
106992.1903435176
 21
97404.57411733732
 31
0.0
  0
LINE
  5
E08DE
330
1F
100
AcDbEntity
  8
freecads.com
100
AcDbLine
 10
106991.798972077
 20
97404.4490958745
 30
0.0
 11
106991.7935363284
 21
97404.5197601562
 31
0.0
  0
LINE
  5
E08DF
330
1F
100
AcDbEntity
  8
freecads.com
100
AcDbLine
 10
106991.7500506397
 20
97404.4654030332
 30
0.0
 11
106991.798972077
 21
97404.4490958745
 31
0.0
  0
LINE
  5
E08E0
330
1F
100
AcDbEntity
  8
freecads.com
100
AcDbLine
 10
106991.6739506336
 20
97404.4654030332
 30
0.0
 11
106991.7500506397
 21
97404.4654030332
 31
0.0
  0
LINE
  5
E08E1
330
1F
100
AcDbEntity
  8
freecads.com
100
AcDbLine
 10
106991.5706720296
 20
97404.42735302046
 30
0.0
 11
106991.6739506336
 21
97404.4654030332
 31
0.0
  0
LINE
  5
E08E2
330
1F
100
AcDbEntity
  8
freecads.com
100
AcDbLine
 10
106991.5217506117
 20
97404.39473870791
 30
0.0
 11
106991.5706720296
 21
97404.42735302046
 31
0.0
  0
LINE
  5
E08E3
330
1F
100
AcDbEntity
  8
freecads.com
100
AcDbLine
 10
106992.0761935036
 20
97404.42735302046
 30
0.0
 11
106992.1577291954
 21
97404.4490958745
 31
0.0
  0
LINE
  5
E08E4
330
1F
100
AcDbEntity
  8
freecads.com
100
AcDbLine
 10
106992.0218363419
 20
97404.42735302046
 30
0.0
 11
106992.0761935036
 21
97404.42735302046
 31
0.0
  0
LINE
  5
E08E5
330
1F
100
AcDbEntity
  8
freecads.com
100
AcDbLine
 10
106991.9239934866
 20
97404.45996735239
 30
0.0
 11
106992.0218363419
 21
97404.42735302046
 31
0.0
  0
LINE
  5
E08E6
330
1F
100
AcDbEntity
  8
freecads.com
100
AcDbLine
 10
106991.8750720492
 20
97404.50888872192
 30
0.0
 11
106991.9239934866
 21
97404.45996735239
 31
0.0
  0
LINE
  5
E08E7
330
1F
100
AcDbEntity
  8
freecads.com
100
AcDbLine
 10
106991.8750720492
 20
97404.54150303445
 30
0.0
 11
106991.8750720492
 21
97404.50888872192
 31
0.0
  0
LINE
  5
E08E8
330
1F
100
AcDbEntity
  8
freecads.com
100
AcDbLine
 10
106991.220720711
 20
97404.52628302357
 30
0.0
 11
106991.2414307744
 21
97404.49866959277
 31
0.0
  0
LINE
  5
E08E9
330
1F
100
AcDbEntity
  8
freecads.com
100
AcDbLine
 10
106991.2690442537
 20
97404.6712535158
 30
0.0
 11
106991.3104644144
 21
97404.68506025058
 31
0.0
  0
LINE
  5
E08EA
330
1F
100
AcDbEntity
  8
freecads.com
100
AcDbLine
 10
106991.2138173775
 20
97404.66435014843
 30
0.0
 11
106991.2690442537
 21
97404.6712535158
 31
0.0
  0
LINE
  5
E08EB
330
1F
100
AcDbEntity
  8
freecads.com
100
AcDbLine
 10
106992.1414220754
 20
97404.93287448472
 30
0.0
 11
106992.1577291954
 21
97404.98179593176
 31
0.0
  0
LINE
  5
E08EC
330
1F
100
AcDbEntity
  8
freecads.com
100
AcDbLine
 10
106992.1088077919
 20
97404.79154594558
 30
0.0
 11
106992.1414220754
 21
97404.93287448472
 31
0.0
  0
LINE
  5
E08ED
330
1F
100
AcDbEntity
  8
freecads.com
100
AcDbLine
 10
106992.0544506738
 20
97404.76436729446
 30
0.0
 11
106992.1088077919
 21
97404.79154594558
 31
0.0
  0
LINE
  5
E08EE
330
1F
100
AcDbEntity
  8
freecads.com
100
AcDbLine
 10
106992.0109649027
 20
97404.78611017271
 30
0.0
 11
106992.0544506738
 21
97404.76436729446
 31
0.0
  0
LINE
  5
E08EF
330
1F
100
AcDbEntity
  8
freecads.com
100
AcDbLine
 10
106991.9729149045
 20
97404.77523874327
 30
0.0
 11
106992.0109649027
 21
97404.78611017271
 31
0.0
  0
LINE
  5
E08F0
330
1F
100
AcDbEntity
  8
freecads.com
100
AcDbLine
 10
106992.0164006562
 20
97404.72088162512
 30
0.0
 11
106991.9729149045
 21
97404.77523874327
 31
0.0
  0
LINE
  5
E08F1
330
1F
100
AcDbEntity
  8
freecads.com
100
AcDbLine
 10
106991.9729149045
 20
97404.72088162512
 30
0.0
 11
106992.0164006562
 21
97404.72088162512
 31
0.0
  0
LINE
  5
E08F2
330
1F
100
AcDbEntity
  8
freecads.com
100
AcDbLine
 10
106991.9457363357
 20
97404.72631733501
 30
0.0
 11
106991.9729149045
 21
97404.72088162512
 31
0.0
  0
LINE
  5
E08F3
330
1F
100
AcDbEntity
  8
freecads.com
100
AcDbLine
 10
106991.9131220135
 20
97404.77523874327
 30
0.0
 11
106991.9457363357
 21
97404.72631733501
 31
0.0
  0
LINE
  5
E08F4
330
1F
100
AcDbEntity
  8
freecads.com
100
AcDbLine
 10
106991.8370220461
 20
97404.79154594558
 30
0.0
 11
106991.9131220135
 21
97404.77523874327
 31
0.0
  0
LINE
  5
E08F5
330
1F
100
AcDbEntity
  8
freecads.com
100
AcDbLine
 10
106991.7772291939
 20
97404.79154594558
 30
0.0
 11
106991.8370220461
 21
97404.79154594558
 31
0.0
  0
LINE
  5
E08F6
330
1F
100
AcDbEntity
  8
freecads.com
100
AcDbLine
 10
106991.6739506336
 20
97404.76436729446
 30
0.0
 11
106991.7772291939
 21
97404.79154594558
 31
0.0
  0
LINE
  5
E08F7
330
1F
100
AcDbEntity
  8
freecads.com
100
AcDbLine
 10
106991.6087220666
 20
97404.71544590072
 30
0.0
 11
106991.6739506336
 21
97404.76436729446
 31
0.0
  0
LINE
  5
E08F8
330
1F
100
AcDbEntity
  8
freecads.com
100
AcDbLine
 10
106991.5761077444
 20
97404.61216728709
 30
0.0
 11
106991.6087220666
 21
97404.71544590072
 31
0.0
  0
LINE
  5
E08F9
330
1F
100
AcDbEntity
  8
freecads.com
100
AcDbLine
 10
106991.4130363318
 20
97404.66108873413
 30
0.0
 11
106991.5761077444
 21
97404.61216728709
 31
0.0
  0
LINE
  5
E08FA
330
1F
100
AcDbEntity
  8
freecads.com
100
AcDbLine
 10
106991.4130363318
 20
97404.75349595222
 30
0.0
 11
106991.4130363318
 21
97404.66108873413
 31
0.0
  0
LINE
  5
E08FB
330
1F
100
AcDbEntity
  8
freecads.com
100
AcDbLine
 10
106991.4402148957
 20
97404.77523874327
 30
0.0
 11
106991.4130363318
 21
97404.75349595222
 31
0.0
  0
LINE
  5
E08FC
330
1F
100
AcDbEntity
  8
freecads.com
100
AcDbLine
 10
106991.4293434372
 20
97404.82959591471
 30
0.0
 11
106991.4402148957
 21
97404.77523874327
 31
0.0
  0
LINE
  5
E08FD
330
1F
100
AcDbEntity
  8
freecads.com
100
AcDbLine
 10
106991.3858577291
 20
97404.78611017271
 30
0.0
 11
106991.4293434372
 21
97404.86764591777
 31
0.0
  0
LINE
  5
E08FE
330
1F
100
AcDbEntity
  8
freecads.com
100
AcDbLine
 10
106991.3478077648
 20
97404.77523874327
 30
0.0
 11
106991.3858577291
 21
97404.78611017271
 31
0.0
  0
LINE
  5
E08FF
330
1F
100
AcDbEntity
  8
freecads.com
100
AcDbLine
 10
106991.320629196
 20
97404.7480601842
 30
0.0
 11
106991.3478077648
 21
97404.77523874327
 31
0.0
  0
LINE
  5
E0900
330
1F
100
AcDbEntity
  8
freecads.com
100
AcDbLine
 10
106991.3104644144
 20
97404.68506025058
 30
0.0
 11
106991.320629196
 21
97404.7480601842
 31
0.0
  0
LINE
  5
E0901
330
1F
100
AcDbEntity
  8
freecads.com
100
AcDbLine
 10
106992.1903435176
 20
97404.57411733732
 30
0.0
 11
106992.2175220864
 21
97404.65565305816
 31
0.0
  0
LINE
  5
E0902
330
1F
100
AcDbEntity
  8
freecads.com
100
AcDbLine
 10
106991.8370220461
 20
97404.56868160322
 30
0.0
 11
106991.8750720492
 21
97404.54150303445
 31
0.0
  0
LINE
  5
E0903
330
1F
100
AcDbEntity
  8
freecads.com
100
AcDbLine
 10
106991.798972077
 20
97404.60129591578
 30
0.0
 11
106991.8370220461
 21
97404.56868160322
 31
0.0
  0
LINE
  5
E0904
330
1F
100
AcDbEntity
  8
freecads.com
100
AcDbLine
 10
106991.7772291939
 20
97404.60129591578
 30
0.0
 11
106991.798972077
 21
97404.60129591578
 31
0.0
  0
LINE
  5
E0905
330
1F
100
AcDbEntity
  8
freecads.com
100
AcDbLine
 10
106991.744614954
 20
97404.5904244379
 30
0.0
 11
106991.7772291939
 21
97404.60129591578
 31
0.0
  0
LINE
  5
E0906
330
1F
100
AcDbEntity
  8
freecads.com
100
AcDbLine
 10
106991.744614954
 20
97404.5632459321
 30
0.0
 11
106991.744614954
 21
97404.5904244379
 31
0.0
  0
LINE
  5
E0907
330
1F
100
AcDbEntity
  8
freecads.com
100
AcDbLine
 10
106991.7663577645
 20
97404.55781015926
 30
0.0
 11
106991.744614954
 21
97404.5632459321
 31
0.0
  0
LINE
  5
E0908
330
1F
100
AcDbEntity
  8
freecads.com
100
AcDbLine
 10
106991.7935363284
 20
97404.5197601562
 30
0.0
 11
106991.7663577645
 21
97404.55781015926
 31
0.0
  0
LINE
  5
E0909
330
1F
100
AcDbEntity
  8
freecads.com
100
AcDbLine
 10
106993.1812742968
 20
97404.45034605983
 30
0.0
 11
106993.2019843602
 21
97404.45034605983
 31
0.0
  0
LINE
  5
E090A
330
1F
100
AcDbEntity
  8
freecads.com
100
AcDbLine
 10
106993.1674675669
 20
97404.42273266779
 30
0.0
 11
106993.1812742968
 21
97404.45034605983
 31
0.0
  0
LINE
  5
E090B
330
1F
100
AcDbEntity
  8
freecads.com
100
AcDbLine
 10
106993.146757489
 20
97404.39511920309
 30
0.0
 11
106993.1674675669
 21
97404.42273266779
 31
0.0
  0
LINE
  5
E090C
330
1F
100
AcDbEntity
  8
freecads.com
100
AcDbLine
 10
106993.0777239411
 20
97404.43653940257
 30
0.0
 11
106993.0570138341
 21
97404.40892593786
 31
0.0
  0
LINE
  5
E090D
330
1F
100
AcDbEntity
  8
freecads.com
100
AcDbLine
 10
106993.0777239411
 20
97404.45034605983
 30
0.0
 11
106993.0777239411
 21
97404.43653940257
 31
0.0
  0
LINE
  5
E090E
330
1F
100
AcDbEntity
  8
freecads.com
100
AcDbLine
 10
106993.0363038191
 20
97404.45034605983
 30
0.0
 11
106993.0777239411
 21
97404.45034605983
 31
0.0
  0
LINE
  5
E090F
330
1F
100
AcDbEntity
  8
freecads.com
100
AcDbLine
 10
106993.0155936734
 20
97404.42963604486
 30
0.0
 11
106993.0363038191
 21
97404.45034605983
 31
0.0
  0
LINE
  5
E0910
330
1F
100
AcDbEntity
  8
freecads.com
100
AcDbLine
 10
106992.9948836051
 20
97404.41582935371
 30
0.0
 11
106993.0155936734
 21
97404.42963604486
 31
0.0
  0
LINE
  5
E0911
330
1F
100
AcDbEntity
  8
freecads.com
100
AcDbLine
 10
106992.9534634977
 20
97404.45034605983
 30
0.0
 11
106992.9948836051
 21
97404.41582935371
 31
0.0
  0
LINE
  5
E0912
330
1F
100
AcDbEntity
  8
freecads.com
100
AcDbLine
 10
106992.9603668554
 20
97404.46415284788
 30
0.0
 11
106992.9534634977
 21
97404.45034605983
 31
0.0
  0
LINE
  5
E0913
330
1F
100
AcDbEntity
  8
freecads.com
100
AcDbLine
 10
106992.9672702228
 20
97404.52628302357
 30
0.0
 11
106992.9603668554
 21
97404.46415284788
 31
0.0
  0
LINE
  5
E0914
330
1F
100
AcDbEntity
  8
freecads.com
100
AcDbLine
 10
106992.9327533713
 20
97404.51937966101
 30
0.0
 11
106992.9672702228
 21
97404.52628302357
 31
0.0
  0
LINE
  5
E0915
330
1F
100
AcDbEntity
  8
freecads.com
100
AcDbLine
 10
106992.9051399841
 20
97404.49176623023
 30
0.0
 11
106992.9327533713
 21
97404.51937966101
 31
0.0
  0
LINE
  5
E0916
330
1F
100
AcDbEntity
  8
freecads.com
100
AcDbLine
 10
106992.8706231811
 20
97404.49866959277
 30
0.0
 11
106992.9051399841
 21
97404.49176623023
 31
0.0
  0
LINE
  5
E0917
330
1F
100
AcDbEntity
  8
freecads.com
100
AcDbLine
 10
106992.8568164803
 20
97404.49866959277
 30
0.0
 11
106992.8706231811
 21
97404.49866959277
 31
0.0
  0
LINE
  5
E0918
330
1F
100
AcDbEntity
  8
freecads.com
100
AcDbLine
 10
106992.8499131129
 20
97404.49866959277
 30
0.0
 11
106992.8568164803
 21
97404.49866959277
 31
0.0
  0
LINE
  5
E0919
330
1F
100
AcDbEntity
  8
freecads.com
100
AcDbLine
 10
106992.7187493021
 20
97404.40892593786
 30
0.0
 11
106992.7187493021
 21
97404.40202257049
 31
0.0
  0
LINE
  5
E091A
330
1F
100
AcDbEntity
  8
freecads.com
100
AcDbLine
 10
106992.3208006515
 20
97404.53606736819
 30
0.0
 11
106992.3914649332
 21
97404.51432448992
 31
0.0
  0
LINE
  5
E091B
330
1F
100
AcDbEntity
  8
freecads.com
100
AcDbLine
 10
106992.7187493021
 20
97404.43653940257
 30
0.0
 11
106992.7187493021
 21
97404.40892593786
 31
0.0
  0
LINE
  5
E091C
330
1F
100
AcDbEntity
  8
freecads.com
100
AcDbLine
 10
106992.7049425916
 20
97404.45034605983
 30
0.0
 11
106992.7187493021
 21
97404.43653940257
 31
0.0
  0
LINE
  5
E091D
330
1F
100
AcDbEntity
  8
freecads.com
100
AcDbLine
 10
106992.6911359004
 20
97404.47105617167
 30
0.0
 11
106992.7049425916
 21
97404.45034605983
 31
0.0
  0
LINE
  5
E091E
330
1F
100
AcDbEntity
  8
freecads.com
100
AcDbLine
 10
106992.684232533
 20
97404.48486293551
 30
0.0
 11
106992.6911359004
 21
97404.47105617167
 31
0.0
  0
LINE
  5
E091F
330
1F
100
AcDbEntity
  8
freecads.com
100
AcDbLine
 10
106992.684232533
 20
97404.49866959277
 30
0.0
 11
106992.684232533
 21
97404.48486293551
 31
0.0
  0
LINE
  5
E0920
330
1F
100
AcDbEntity
  8
freecads.com
100
AcDbLine
 10
106992.6428124353
 20
97404.47795953906
 30
0.0
 11
106992.684232533
 21
97404.49866959277
 31
0.0
  0
LINE
  5
E0921
330
1F
100
AcDbEntity
  8
freecads.com
100
AcDbLine
 10
106992.6151989754
 20
97404.45724946596
 30
0.0
 11
106992.6428124353
 21
97404.47795953906
 31
0.0
  0
LINE
  5
E0922
330
1F
100
AcDbEntity
  8
freecads.com
100
AcDbLine
 10
106992.5806821724
 20
97404.43653940257
 30
0.0
 11
106992.6151989754
 21
97404.45724946596
 31
0.0
  0
LINE
  5
E0923
330
1F
100
AcDbEntity
  8
freecads.com
100
AcDbLine
 10
106992.5392620117
 20
97404.41582935371
 30
0.0
 11
106992.5806821724
 21
97404.43653940257
 31
0.0
  0
LINE
  5
E0924
330
1F
100
AcDbEntity
  8
freecads.com
100
AcDbLine
 10
106992.5116485712
 20
97404.41582935371
 30
0.0
 11
106992.5392620117
 21
97404.41582935371
 31
0.0
  0
LINE
  5
E0925
330
1F
100
AcDbEntity
  8
freecads.com
100
AcDbLine
 10
106992.5047452426
 20
97404.42273266779
 30
0.0
 11
106992.5116485712
 21
97404.41582935371
 31
0.0
  0
LINE
  5
E0926
330
1F
100
AcDbEntity
  8
freecads.com
100
AcDbLine
 10
106992.4633251206
 20
97404.42273266779
 30
0.0
 11
106992.5047452426
 21
97404.42273266779
 31
0.0
  0
LINE
  5
E0927
330
1F
100
AcDbEntity
  8
freecads.com
100
AcDbLine
 10
106992.8222996579
 20
97404.97500125931
 30
0.0
 11
106992.7808795165
 21
97404.96809794519
 31
0.0
  0
LINE
  5
E0928
330
1F
100
AcDbEntity
  8
freecads.com
100
AcDbLine
 10
106992.8568164803
 20
97404.98190463638
 30
0.0
 11
106992.8222996579
 21
97404.97500125931
 31
0.0
  0
LINE
  5
E0929
330
1F
100
AcDbEntity
  8
freecads.com
100
AcDbLine
 10
106992.891333259
 20
97404.96809794519
 30
0.0
 11
106992.8568164803
 21
97404.98190463638
 31
0.0
  0
LINE
  5
E092A
330
1F
100
AcDbEntity
  8
freecads.com
100
AcDbLine
 10
106992.9258500911
 20
97404.95429124434
 30
0.0
 11
106992.891333259
 21
97404.96809794519
 31
0.0
  0
LINE
  5
E092B
330
1F
100
AcDbEntity
  8
freecads.com
100
AcDbLine
 10
106992.9603668554
 20
97404.93358114219
 30
0.0
 11
106992.9258500911
 21
97404.95429124434
 31
0.0
  0
LINE
  5
E092C
330
1F
100
AcDbEntity
  8
freecads.com
100
AcDbLine
 10
106992.9810769043
 20
97404.91287107394
 30
0.0
 11
106992.9603668554
 21
97404.93358114219
 31
0.0
  0
LINE
  5
E092D
330
1F
100
AcDbEntity
  8
freecads.com
100
AcDbLine
 10
106993.0224970359
 20
97404.90596771625
 30
0.0
 11
106992.9810769043
 21
97404.91287107394
 31
0.0
  0
LINE
  5
E092E
330
1F
100
AcDbEntity
  8
freecads.com
100
AcDbLine
 10
106993.0363038191
 20
97404.91977444618
 30
0.0
 11
106993.0224970359
 21
97404.90596771625
 31
0.0
  0
LINE
  5
E092F
330
1F
100
AcDbEntity
  8
freecads.com
100
AcDbLine
 10
106993.070820564
 20
97404.92667779419
 30
0.0
 11
106993.0363038191
 21
97404.91977444618
 31
0.0
  0
LINE
  5
E0930
330
1F
100
AcDbEntity
  8
freecads.com
100
AcDbLine
 10
106993.0984339996
 20
97404.91287107394
 30
0.0
 11
106993.070820564
 21
97404.92667779419
 31
0.0
  0
LINE
  5
E0931
330
1F
100
AcDbEntity
  8
freecads.com
100
AcDbLine
 10
106993.070820564
 20
97404.89906434403
 30
0.0
 11
106993.0363038191
 21
97404.89216101055
 31
0.0
  0
LINE
  5
E0932
330
1F
100
AcDbEntity
  8
freecads.com
100
AcDbLine
 10
106993.1260473965
 20
97404.89906434403
 30
0.0
 11
106993.070820564
 21
97404.89906434403
 31
0.0
  0
LINE
  5
E0933
330
1F
100
AcDbEntity
  8
freecads.com
100
AcDbLine
 10
106993.132950759
 20
97404.8852576044
 30
0.0
 11
106993.1260473965
 21
97404.89906434403
 31
0.0
  0
LINE
  5
E0934
330
1F
100
AcDbEntity
  8
freecads.com
100
AcDbLine
 10
106993.1605641947
 20
97404.85764417845
 30
0.0
 11
106993.132950759
 21
97404.8852576044
 31
0.0
  0
LINE
  5
E0935
330
1F
100
AcDbEntity
  8
freecads.com
100
AcDbLine
 10
106993.1812742968
 20
97404.85764417845
 30
0.0
 11
106993.1605641947
 21
97404.85764417845
 31
0.0
  0
LINE
  5
E0936
330
1F
100
AcDbEntity
  8
freecads.com
100
AcDbLine
 10
106993.2226944285
 20
97404.85764417845
 30
0.0
 11
106993.1812742968
 21
97404.85764417845
 31
0.0
  0
LINE
  5
E0937
330
1F
100
AcDbEntity
  8
freecads.com
100
AcDbLine
 10
106993.2226944285
 20
97404.84383747761
 30
0.0
 11
106993.2226944285
 21
97404.85764417845
 31
0.0
  0
LINE
  5
E0938
330
1F
100
AcDbEntity
  8
freecads.com
100
AcDbLine
 10
106993.2226944285
 20
97404.82312740452
 30
0.0
 11
106993.2226944285
 21
97404.84383747761
 31
0.0
  0
LINE
  5
E0939
330
1F
100
AcDbEntity
  8
freecads.com
100
AcDbLine
 10
106993.2641145989
 20
97404.80932071818
 30
0.0
 11
106993.2226944285
 21
97404.82312740452
 31
0.0
  0
LINE
  5
E093A
330
1F
100
AcDbEntity
  8
freecads.com
100
AcDbLine
 10
106993.2710179614
 20
97404.77480391517
 30
0.0
 11
106993.2641145989
 21
97404.80932071818
 31
0.0
  0
LINE
  5
E093B
330
1F
100
AcDbEntity
  8
freecads.com
100
AcDbLine
 10
106993.2365011584
 20
97404.77480391517
 30
0.0
 11
106993.2710179614
 21
97404.77480391517
 31
0.0
  0
LINE
  5
E093C
330
1F
100
AcDbEntity
  8
freecads.com
100
AcDbLine
 10
106993.2157910999
 20
97404.78861060148
 30
0.0
 11
106993.2365011584
 21
97404.77480391517
 31
0.0
  0
LINE
  5
E093D
330
1F
100
AcDbEntity
  8
freecads.com
100
AcDbLine
 10
106993.1122406908
 20
97404.75409380332
 30
0.0
 11
106993.2157910999
 21
97404.78861060148
 31
0.0
  0
LINE
  5
E093E
330
1F
100
AcDbEntity
  8
freecads.com
100
AcDbLine
 10
106993.2088877325
 20
97404.76099720462
 30
0.0
 11
106993.1605641947
 21
97404.75409380332
 31
0.0
  0
LINE
  5
E093F
330
1F
100
AcDbEntity
  8
freecads.com
100
AcDbLine
 10
106993.1950809492
 20
97404.78170723894
 30
0.0
 11
106993.2088877325
 21
97404.76099720462
 31
0.0
  0
LINE
  5
E0940
330
1F
100
AcDbEntity
  8
freecads.com
100
AcDbLine
 10
106993.1674675669
 20
97404.78861060148
 30
0.0
 11
106993.1950809492
 21
97404.78170723894
 31
0.0
  0
LINE
  5
E0941
330
1F
100
AcDbEntity
  8
freecads.com
100
AcDbLine
 10
106993.2019843602
 20
97404.78170723894
 30
0.0
 11
106993.1743708859
 21
97404.80932071818
 31
0.0
  0
LINE
  5
E0942
330
1F
100
AcDbEntity
  8
freecads.com
100
AcDbLine
 10
106993.2019843602
 20
97404.74028711215
 30
0.0
 11
106993.2019843602
 21
97404.78170723894
 31
0.0
  0
LINE
  5
E0943
330
1F
100
AcDbEntity
  8
freecads.com
100
AcDbLine
 10
106993.2019843602
 20
97404.71957704874
 30
0.0
 11
106993.2019843602
 21
97404.74028711215
 31
0.0
  0
LINE
  5
E0944
330
1F
100
AcDbEntity
  8
freecads.com
100
AcDbLine
 10
106993.2088877325
 20
97404.69196361797
 30
0.0
 11
106993.2019843602
 21
97404.71957704874
 31
0.0
  0
LINE
  5
E0945
330
1F
100
AcDbEntity
  8
freecads.com
100
AcDbLine
 10
106993.2503078496
 20
97404.6712535158
 30
0.0
 11
106993.2088877325
 21
97404.69196361797
 31
0.0
  0
LINE
  5
E0946
330
1F
100
AcDbEntity
  8
freecads.com
100
AcDbLine
 10
106992.6252006905
 20
97404.77523874327
 30
0.0
 11
106992.5980220781
 21
97404.69370305151
 31
0.0
  0
LINE
  5
E0947
330
1F
100
AcDbEntity
  8
freecads.com
100
AcDbLine
 10
106992.6088935173
 20
97404.81872446105
 30
0.0
 11
106992.6252006905
 21
97404.77523874327
 31
0.0
  0
LINE
  5
E0948
330
1F
100
AcDbEntity
  8
freecads.com
100
AcDbLine
 10
106992.5436649503
 20
97404.85133875422
 30
0.0
 11
106992.6088935173
 21
97404.81872446105
 31
0.0
  0
LINE
  5
E0949
330
1F
100
AcDbEntity
  8
freecads.com
100
AcDbLine
 10
106992.5001792325
 20
97404.78067446284
 30
0.0
 11
106992.5436649503
 21
97404.85133875422
 31
0.0
  0
LINE
  5
E094A
330
1F
100
AcDbEntity
  8
freecads.com
100
AcDbLine
 10
106992.3642863257
 20
97404.84590307341
 30
0.0
 11
106992.5001792325
 21
97404.78067446284
 31
0.0
  0
LINE
  5
E094B
330
1F
100
AcDbEntity
  8
freecads.com
100
AcDbLine
 10
106992.380593499
 20
97404.98179593176
 30
0.0
 11
106992.3534149399
 21
97404.92200306499
 31
0.0
  0
LINE
  5
E094C
330
1F
100
AcDbEntity
  8
freecads.com
100
AcDbLine
 10
106992.3262363614
 20
97404.97636019282
 30
0.0
 11
106992.3425435298
 21
97405.00897444238
 31
0.0
  0
LINE
  5
E094D
330
1F
100
AcDbEntity
  8
freecads.com
100
AcDbLine
 10
106992.4458220708
 20
97404.55781015926
 30
0.0
 11
106992.4633251206
 21
97404.42273266779
 31
0.0
  0
LINE
  5
E094E
330
1F
100
AcDbEntity
  8
freecads.com
100
AcDbLine
 10
106992.3914649332
 20
97404.51432448992
 30
0.0
 11
106992.4458220708
 21
97404.55781015926
 31
0.0
  0
LINE
  5
E094F
330
1F
100
AcDbEntity
  8
freecads.com
100
AcDbLine
 10
106992.2936220537
 20
97404.5904244379
 30
0.0
 11
106992.3208006515
 21
97404.53606736819
 31
0.0
  0
LINE
  5
E0950
330
1F
100
AcDbEntity
  8
freecads.com
100
AcDbLine
 10
106992.2827506001
 20
97404.62847449908
 30
0.0
 11
106992.2936220537
 21
97404.5904244379
 31
0.0
  0
LINE
  5
E0951
330
1F
100
AcDbEntity
  8
freecads.com
100
AcDbLine
 10
106992.2827506001
 20
97404.55781015926
 30
0.0
 11
106992.2447006357
 21
97404.57411733732
 31
0.0
  0
LINE
  5
E0952
330
1F
100
AcDbEntity
  8
freecads.com
100
AcDbLine
 10
106992.2501363699
 20
97404.50888872192
 30
0.0
 11
106992.2827506001
 21
97404.55781015926
 31
0.0
  0
LINE
  5
E0953
330
1F
100
AcDbEntity
  8
freecads.com
100
AcDbLine
 10
106993.3856027599
 20
97404.51937966101
 30
0.0
 11
106993.3786994313
 21
97404.53318639094
 31
0.0
  0
LINE
  5
E0954
330
1F
100
AcDbEntity
  8
freecads.com
100
AcDbLine
 10
106993.4132162295
 20
97404.49176623023
 30
0.0
 11
106993.3856027599
 21
97404.51937966101
 31
0.0
  0
LINE
  5
E0955
330
1F
100
AcDbEntity
  8
freecads.com
100
AcDbLine
 10
106993.454636332
 20
97404.47795953906
 30
0.0
 11
106993.4132162295
 21
97404.49176623023
 31
0.0
  0
LINE
  5
E0956
330
1F
100
AcDbEntity
  8
freecads.com
100
AcDbLine
 10
106993.454636332
 20
97404.45034605983
 30
0.0
 11
106993.454636332
 21
97404.47795953906
 31
0.0
  0
LINE
  5
E0957
330
1F
100
AcDbEntity
  8
freecads.com
100
AcDbLine
 10
106993.4477329937
 20
97404.43653940257
 30
0.0
 11
106993.454636332
 21
97404.45034605983
 31
0.0
  0
LINE
  5
E0958
330
1F
100
AcDbEntity
  8
freecads.com
100
AcDbLine
 10
106993.4063128621
 20
97404.43653940257
 30
0.0
 11
106993.4477329937
 21
97404.43653940257
 31
0.0
  0
LINE
  5
E0959
330
1F
100
AcDbEntity
  8
freecads.com
100
AcDbLine
 10
106993.3648927401
 20
97404.43653940257
 30
0.0
 11
106993.4063128621
 21
97404.43653940257
 31
0.0
  0
LINE
  5
E095A
330
1F
100
AcDbEntity
  8
freecads.com
100
AcDbLine
 10
106993.37179603
 20
97404.62292998286
 30
0.0
 11
106993.3648927401
 21
97404.64364013346
 31
0.0
  0
LINE
  5
E095B
330
1F
100
AcDbEntity
  8
freecads.com
100
AcDbLine
 10
106993.37179603
 20
97404.55389641073
 30
0.0
 11
106993.37179603
 21
97404.62292998286
 31
0.0
  0
LINE
  5
E095C
330
1F
100
AcDbEntity
  8
freecads.com
100
AcDbLine
 10
106993.3786994313
 20
97404.53318639094
 30
0.0
 11
106993.37179603
 21
97404.55389641073
 31
0.0
  0
LINE
  5
E095D
330
1F
100
AcDbEntity
  8
freecads.com
100
AcDbLine
 10
106992.6980392629
 20
97405.60320681453
 30
0.0
 11
106992.684232533
 21
97405.65153031839
 31
0.0
  0
LINE
  5
E095E
330
1F
100
AcDbEntity
  8
freecads.com
100
AcDbLine
 10
106992.4564217532
 20
97405.65153031839
 30
0.0
 11
106992.4633251206
 21
97405.60320681453
 31
0.0
  0
LINE
  5
E095F
330
1F
100
AcDbEntity
  8
freecads.com
100
AcDbLine
 10
106992.4011948868
 20
97405.64462693647
 30
0.0
 11
106992.4357116898
 21
97405.65153031839
 31
0.0
  0
LINE
  5
E0960
330
1F
100
AcDbEntity
  8
freecads.com
100
AcDbLine
 10
106991.5796953161
 20
97405.64462693647
 30
0.0
 11
106991.5796953161
 21
97405.65153031839
 31
0.0
  0
LINE
  5
E0961
330
1F
100
AcDbEntity
  8
freecads.com
100
AcDbLine
 10
106992.0767370557
 20
97405.66533701441
 30
0.0
 11
106992.0905437905
 21
97405.64462693647
 31
0.0
  0
LINE
  5
E0962
330
1F
100
AcDbEntity
  8
freecads.com
100
AcDbLine
 10
106991.2552375576
 20
97405.63082021139
 30
0.0
 11
106991.2552375576
 21
97405.6584336761
 31
0.0
  0
LINE
  5
E0963
330
1F
100
AcDbEntity
  8
freecads.com
100
AcDbLine
 10
106992.2079008374
 20
97405.69295050818
 30
0.0
 11
106992.0905437905
 21
97405.64462693647
 31
0.0
  0
LINE
  5
E0964
330
1F
100
AcDbEntity
  8
freecads.com
100
AcDbLine
 10
106992.1957791984
 20
97405.237274514
 30
0.0
 11
106992.2664435237
 21
97405.21009590162
 31
0.0
  0
LINE
  5
E0965
330
1F
100
AcDbEntity
  8
freecads.com
100
AcDbLine
 10
106992.0629303839
 20
97405.61701351538
 30
0.0
 11
106992.0422203157
 21
97405.60320681453
 31
0.0
  0
LINE
  5
E0966
330
1F
100
AcDbEntity
  8
freecads.com
100
AcDbLine
 10
106992.0836404134
 20
97405.63082021139
 30
0.0
 11
106992.0629303839
 21
97405.61701351538
 31
0.0
  0
LINE
  5
E0967
330
1F
100
AcDbEntity
  8
freecads.com
100
AcDbLine
 10
106991.2897543025
 20
97405.61701351538
 30
0.0
 11
106991.2552375576
 21
97405.63082021139
 31
0.0
  0
LINE
  5
E0968
330
1F
100
AcDbEntity
  8
freecads.com
100
AcDbLine
 10
106991.3173677527
 20
97405.61701351538
 30
0.0
 11
106991.2897543025
 21
97405.61701351538
 31
0.0
  0
LINE
  5
E0969
330
1F
100
AcDbEntity
  8
freecads.com
100
AcDbLine
 10
106991.3242711395
 20
97405.61701351538
 30
0.0
 11
106991.3173677527
 21
97405.61701351538
 31
0.0
  0
LINE
  5
E096A
330
1F
100
AcDbEntity
  8
freecads.com
100
AcDbLine
 10
106991.3518844927
 20
97405.62391691183
 30
0.0
 11
106991.3242711395
 21
97405.61701351538
 31
0.0
  0
LINE
  5
E096B
330
1F
100
AcDbEntity
  8
freecads.com
100
AcDbLine
 10
106991.3656912808
 20
97405.63772361269
 30
0.0
 11
106991.3518844927
 21
97405.62391691183
 31
0.0
  0
LINE
  5
E096C
330
1F
100
AcDbEntity
  8
freecads.com
100
AcDbLine
 10
106991.4002079966
 20
97405.63772361269
 30
0.0
 11
106991.3656912808
 21
97405.63772361269
 31
0.0
  0
LINE
  5
E096D
330
1F
100
AcDbEntity
  8
freecads.com
100
AcDbLine
 10
106991.4071114173
 20
97405.61701351538
 30
0.0
 11
106991.4002079966
 21
97405.63772361269
 31
0.0
  0
LINE
  5
E096E
330
1F
100
AcDbEntity
  8
freecads.com
100
AcDbLine
 10
106991.4071114173
 20
97405.5894000846
 30
0.0
 11
106991.4071114173
 21
97405.61701351538
 31
0.0
  0
LINE
  5
E096F
330
1F
100
AcDbEntity
  8
freecads.com
100
AcDbLine
 10
106991.4278214516
 20
97405.58249674629
 30
0.0
 11
106991.4071114173
 21
97405.5894000846
 31
0.0
  0
LINE
  5
E0970
330
1F
100
AcDbEntity
  8
freecads.com
100
AcDbLine
 10
106991.4485315295
 20
97405.58249674629
 30
0.0
 11
106991.4278214516
 21
97405.58249674629
 31
0.0
  0
LINE
  5
E0971
330
1F
100
AcDbEntity
  8
freecads.com
100
AcDbLine
 10
106991.4623382255
 20
97405.5617866538
 30
0.0
 11
106991.4485315295
 21
97405.58249674629
 31
0.0
  0
LINE
  5
E0972
330
1F
100
AcDbEntity
  8
freecads.com
100
AcDbLine
 10
106991.4623382255
 20
97405.54107661948
 30
0.0
 11
106991.4623382255
 21
97405.5617866538
 31
0.0
  0
LINE
  5
E0973
330
1F
100
AcDbEntity
  8
freecads.com
100
AcDbLine
 10
106991.4899516806
 20
97405.54797991419
 30
0.0
 11
106991.4623382255
 21
97405.54107661948
 31
0.0
  0
LINE
  5
E0974
330
1F
100
AcDbEntity
  8
freecads.com
100
AcDbLine
 10
106991.5175651743
 20
97405.55488331549
 30
0.0
 11
106991.4899516806
 21
97405.54797991419
 31
0.0
  0
LINE
  5
E0975
330
1F
100
AcDbEntity
  8
freecads.com
100
AcDbLine
 10
106991.5451785276
 20
97405.55488331549
 30
0.0
 11
106991.5175651743
 21
97405.55488331549
 31
0.0
  0
LINE
  5
E0976
330
1F
100
AcDbEntity
  8
freecads.com
100
AcDbLine
 10
106991.5589852285
 20
97405.53417317457
 30
0.0
 11
106991.5451785276
 21
97405.55488331549
 31
0.0
  0
LINE
  5
E0977
330
1F
100
AcDbEntity
  8
freecads.com
100
AcDbLine
 10
106991.6004054231
 20
97405.52036647857
 30
0.0
 11
106991.5589852285
 21
97405.53417317457
 31
0.0
  0
LINE
  5
E0978
330
1F
100
AcDbEntity
  8
freecads.com
100
AcDbLine
 10
106991.5935020121
 20
97405.51346318385
 30
0.0
 11
106991.6004054231
 21
97405.52036647857
 31
0.0
  0
LINE
  5
E0979
330
1F
100
AcDbEntity
  8
freecads.com
100
AcDbLine
 10
106991.5727919584
 20
97405.49275308653
 30
0.0
 11
106991.5935020121
 21
97405.51346318385
 31
0.0
  0
LINE
  5
E097A
330
1F
100
AcDbEntity
  8
freecads.com
100
AcDbLine
 10
106991.5106617633
 20
97405.4789463566
 30
0.0
 11
106991.5727919584
 21
97405.49275308653
 31
0.0
  0
LINE
  5
E097B
330
1F
100
AcDbEntity
  8
freecads.com
100
AcDbLine
 10
106991.4623382255
 20
97405.47204302314
 30
0.0
 11
106991.4761449555
 21
97405.47204302314
 31
0.0
  0
LINE
  5
E097C
330
1F
100
AcDbEntity
  8
freecads.com
100
AcDbLine
 10
106991.4002079966
 20
97405.48584972884
 30
0.0
 11
106991.4623382255
 21
97405.49275308653
 31
0.0
  0
LINE
  5
E097D
330
1F
100
AcDbEntity
  8
freecads.com
100
AcDbLine
 10
106991.3587879134
 20
97405.4789463566
 30
0.0
 11
106991.4002079966
 21
97405.48584972884
 31
0.0
  0
LINE
  5
E097E
330
1F
100
AcDbEntity
  8
freecads.com
100
AcDbLine
 10
106991.3242711395
 20
97405.48584972884
 30
0.0
 11
106991.3587879134
 21
97405.4789463566
 31
0.0
  0
LINE
  5
E097F
330
1F
100
AcDbEntity
  8
freecads.com
100
AcDbLine
 10
106991.2966576747
 20
97405.51346318385
 30
0.0
 11
106991.3242711395
 21
97405.48584972884
 31
0.0
  0
LINE
  5
E0980
330
1F
100
AcDbEntity
  8
freecads.com
100
AcDbLine
 10
106991.2690442537
 20
97405.53417317457
 30
0.0
 11
106991.2966576747
 21
97405.51346318385
 31
0.0
  0
LINE
  5
E0981
330
1F
100
AcDbEntity
  8
freecads.com
100
AcDbLine
 10
106991.2690442537
 20
97405.49965645392
 30
0.0
 11
106991.2690442537
 21
97405.53417317457
 31
0.0
  0
LINE
  5
E0982
330
1F
100
AcDbEntity
  8
freecads.com
100
AcDbLine
 10
106991.2897543025
 20
97405.45823627867
 30
0.0
 11
106991.2690442537
 21
97405.49965645392
 31
0.0
  0
LINE
  5
E0983
330
1F
100
AcDbEntity
  8
freecads.com
100
AcDbLine
 10
106991.2414307744
 20
97405.43062289633
 30
0.0
 11
106991.2897543025
 21
97405.45823627867
 31
0.0
  0
LINE
  5
E0984
330
1F
100
AcDbEntity
  8
freecads.com
100
AcDbLine
 10
106992.1522935097
 20
97405.24814594827
 30
0.0
 11
106992.1957791984
 21
97405.237274514
 31
0.0
  0
LINE
  5
E0985
330
1F
100
AcDbEntity
  8
freecads.com
100
AcDbLine
 10
106992.0653220645
 20
97405.24271022872
 30
0.0
 11
106992.1522935097
 21
97405.24814594827
 31
0.0
  0
LINE
  5
E0986
330
1F
100
AcDbEntity
  8
freecads.com
100
AcDbLine
 10
106992.0544506738
 20
97405.20466022081
 30
0.0
 11
106992.0653220645
 21
97405.24271022872
 31
0.0
  0
LINE
  5
E0987
330
1F
100
AcDbEntity
  8
freecads.com
100
AcDbLine
 10
106992.0653220645
 20
97405.1339959246
 30
0.0
 11
106992.0544506738
 21
97405.20466022081
 31
0.0
  0
LINE
  5
E0988
330
1F
100
AcDbEntity
  8
freecads.com
100
AcDbLine
 10
106991.8642006537
 20
97405.0796388113
 30
0.0
 11
106991.8913792128
 21
97405.05789597179
 31
0.0
  0
LINE
  5
E0989
330
1F
100
AcDbEntity
  8
freecads.com
100
AcDbLine
 10
106991.8152792066
 20
97405.0633316526
 30
0.0
 11
106991.7826649232
 21
97405.04158877433
 31
0.0
  0
LINE
  5
E098A
330
1F
100
AcDbEntity
  8
freecads.com
100
AcDbLine
 10
106991.8642006537
 20
97405.0796388113
 30
0.0
 11
106991.8152792066
 21
97405.0633316526
 31
0.0
  0
LINE
  5
E098B
330
1F
100
AcDbEntity
  8
freecads.com
100
AcDbLine
 10
106991.9185577525
 20
97405.12856021956
 30
0.0
 11
106991.8642006537
 21
97405.0796388113
 31
0.0
  0
LINE
  5
E098C
330
1F
100
AcDbEntity
  8
freecads.com
100
AcDbLine
 10
106991.9511720892
 20
97405.16117446428
 30
0.0
 11
106991.9185577525
 21
97405.12856021956
 31
0.0
  0
LINE
  5
E098D
330
1F
100
AcDbEntity
  8
freecads.com
100
AcDbLine
 10
106991.9892220148
 20
97405.19922449156
 30
0.0
 11
106991.9511720892
 21
97405.16117446428
 31
0.0
  0
LINE
  5
E098E
330
1F
100
AcDbEntity
  8
freecads.com
100
AcDbLine
 10
106992.0109649027
 20
97405.22640310876
 30
0.0
 11
106991.9892220148
 21
97405.19922449156
 31
0.0
  0
LINE
  5
E098F
330
1F
100
AcDbEntity
  8
freecads.com
100
AcDbLine
 10
106992.0109649027
 20
97405.28076023176
 30
0.0
 11
106992.0109649027
 21
97405.22640310876
 31
0.0
  0
LINE
  5
E0990
330
1F
100
AcDbEntity
  8
freecads.com
100
AcDbLine
 10
106991.9837863388
 20
97405.26988879263
 30
0.0
 11
106992.0109649027
 21
97405.28076023176
 31
0.0
  0
LINE
  5
E0991
330
1F
100
AcDbEntity
  8
freecads.com
100
AcDbLine
 10
106991.9185577525
 20
97405.237274514
 30
0.0
 11
106991.9837863388
 21
97405.26988879263
 31
0.0
  0
LINE
  5
E0992
330
1F
100
AcDbEntity
  8
freecads.com
100
AcDbLine
 10
106991.8750720492
 20
97405.237274514
 30
0.0
 11
106991.9185577525
 21
97405.237274514
 31
0.0
  0
LINE
  5
E0993
330
1F
100
AcDbEntity
  8
freecads.com
100
AcDbLine
 10
106991.7826649232
 20
97405.19922449156
 30
0.0
 11
106991.8750720492
 21
97405.237274514
 31
0.0
  0
LINE
  5
E0994
330
1F
100
AcDbEntity
  8
freecads.com
100
AcDbLine
 10
106991.7663577645
 20
97405.12856021956
 30
0.0
 11
106991.7826649232
 21
97405.15030309781
 31
0.0
  0
LINE
  5
E0995
330
1F
100
AcDbEntity
  8
freecads.com
100
AcDbLine
 10
106991.722872037
 20
97405.11225308994
 30
0.0
 11
106991.7663577645
 21
97405.12856021956
 31
0.0
  0
LINE
  5
E0996
330
1F
100
AcDbEntity
  8
freecads.com
100
AcDbLine
 10
106991.7120006027
 20
97405.14486732982
 30
0.0
 11
106991.722872037
 21
97405.11225308994
 31
0.0
  0
LINE
  5
E0997
330
1F
100
AcDbEntity
  8
freecads.com
100
AcDbLine
 10
106991.6739506336
 20
97405.19922449156
 30
0.0
 11
106991.7120006027
 21
97405.14486732982
 31
0.0
  0
LINE
  5
E0998
330
1F
100
AcDbEntity
  8
freecads.com
100
AcDbLine
 10
106991.7174363465
 20
97405.21553164542
 30
0.0
 11
106991.6739506336
 21
97405.19922449156
 31
0.0
  0
LINE
  5
E0999
330
1F
100
AcDbEntity
  8
freecads.com
100
AcDbLine
 10
106991.6304649061
 20
97405.23183874113
 30
0.0
 11
106991.7174363465
 21
97405.21553164542
 31
0.0
  0
LINE
  5
E099A
330
1F
100
AcDbEntity
  8
freecads.com
100
AcDbLine
 10
106991.6195934961
 20
97405.0796388113
 30
0.0
 11
106991.6685149092
 21
97405.0633316526
 31
0.0
  0
LINE
  5
E099B
330
1F
100
AcDbEntity
  8
freecads.com
100
AcDbLine
 10
106991.5652362955
 20
97405.09051021167
 30
0.0
 11
106991.6195934961
 21
97405.0796388113
 31
0.0
  0
LINE
  5
E099C
330
1F
100
AcDbEntity
  8
freecads.com
100
AcDbLine
 10
106991.5652362955
 20
97405.0687673334
 30
0.0
 11
106991.5652362955
 21
97405.09051021167
 31
0.0
  0
LINE
  5
E099D
330
1F
100
AcDbEntity
  8
freecads.com
100
AcDbLine
 10
106991.5271863313
 20
97405.10138165564
 30
0.0
 11
106991.5380577365
 21
97405.05246020861
 31
0.0
  0
LINE
  5
E099E
330
1F
100
AcDbEntity
  8
freecads.com
100
AcDbLine
 10
106991.5271863313
 20
97405.1339959246
 30
0.0
 11
106991.5271863313
 21
97405.10138165564
 31
0.0
  0
LINE
  5
E099F
330
1F
100
AcDbEntity
  8
freecads.com
100
AcDbLine
 10
106991.5108791822
 20
97405.20466022081
 30
0.0
 11
106991.5380577365
 21
97405.20466022081
 31
0.0
  0
LINE
  5
E09A0
330
1F
100
AcDbEntity
  8
freecads.com
100
AcDbLine
 10
106991.4837006183
 20
97405.1339959246
 30
0.0
 11
106991.5108791822
 21
97405.20466022081
 31
0.0
  0
LINE
  5
E09A1
330
1F
100
AcDbEntity
  8
freecads.com
100
AcDbLine
 10
106991.46195774
 20
97405.04158877433
 30
0.0
 11
106991.4837006183
 21
97405.1339959246
 31
0.0
  0
LINE
  5
E09A2
330
1F
100
AcDbEntity
  8
freecads.com
100
AcDbLine
 10
106991.4076006122
 20
97405.05246020861
 30
0.0
 11
106991.46195774
 21
97405.04158877433
 31
0.0
  0
LINE
  5
E09A3
330
1F
100
AcDbEntity
  8
freecads.com
100
AcDbLine
 10
106992.6013922455
 20
97405.09235835951
 30
0.0
 11
106992.5944888393
 21
97405.05784156619
 31
0.0
  0
LINE
  5
E09A4
330
1F
100
AcDbEntity
  8
freecads.com
100
AcDbLine
 10
106992.608295608
 20
97405.05784156619
 30
0.0
 11
106992.6013922455
 21
97405.09235835951
 31
0.0
  0
LINE
  5
E09A5
330
1F
100
AcDbEntity
  8
freecads.com
100
AcDbLine
 10
106992.6566191361
 20
97405.03713152701
 30
0.0
 11
106992.608295608
 21
97405.05784156619
 31
0.0
  0
LINE
  5
E09A6
330
1F
100
AcDbEntity
  8
freecads.com
100
AcDbLine
 10
106992.6980392629
 20
97405.03713152701
 30
0.0
 11
106992.6566191361
 21
97405.03713152701
 31
0.0
  0
LINE
  5
E09A7
330
1F
100
AcDbEntity
  8
freecads.com
100
AcDbLine
 10
106992.7325560611
 20
97405.03713152701
 30
0.0
 11
106992.6980392629
 21
97405.03713152701
 31
0.0
  0
LINE
  5
E09A8
330
1F
100
AcDbEntity
  8
freecads.com
100
AcDbLine
 10
106992.9051399841
 20
97405.0302280821
 30
0.0
 11
106992.8430097503
 21
97405.0302280821
 31
0.0
  0
LINE
  5
E09A9
330
1F
100
AcDbEntity
  8
freecads.com
100
AcDbLine
 10
106992.9327533713
 20
97405.06474494811
 30
0.0
 11
106992.9051399841
 21
97405.0302280821
 31
0.0
  0
LINE
  5
E09AA
330
1F
100
AcDbEntity
  8
freecads.com
100
AcDbLine
 10
106992.9120433515
 20
97405.07855164413
 30
0.0
 11
106992.9327533713
 21
97405.06474494811
 31
0.0
  0
LINE
  5
E09AB
330
1F
100
AcDbEntity
  8
freecads.com
100
AcDbLine
 10
106992.946560077
 20
97405.08545499698
 30
0.0
 11
106992.9120433515
 21
97405.07855164413
 31
0.0
  0
LINE
  5
E09AC
330
1F
100
AcDbEntity
  8
freecads.com
100
AcDbLine
 10
106992.9948836051
 20
97405.07855164413
 30
0.0
 11
106992.946560077
 21
97405.08545499698
 31
0.0
  0
LINE
  5
E09AD
330
1F
100
AcDbEntity
  8
freecads.com
100
AcDbLine
 10
106993.0086903351
 20
97405.07855164413
 30
0.0
 11
106992.9948836051
 21
97405.07855164413
 31
0.0
  0
LINE
  5
E09AE
330
1F
100
AcDbEntity
  8
freecads.com
100
AcDbLine
 10
106993.070820564
 20
97405.08545499698
 30
0.0
 11
106993.0086903351
 21
97405.07855164413
 31
0.0
  0
LINE
  5
E09AF
330
1F
100
AcDbEntity
  8
freecads.com
100
AcDbLine
 10
106993.0846272697
 20
97405.12687510925
 30
0.0
 11
106993.070820564
 21
97405.08545499698
 31
0.0
  0
LINE
  5
E09B0
330
1F
100
AcDbEntity
  8
freecads.com
100
AcDbLine
 10
106993.070820564
 20
97405.13377848632
 30
0.0
 11
106993.0846272697
 21
97405.12687510925
 31
0.0
  0
LINE
  5
E09B1
330
1F
100
AcDbEntity
  8
freecads.com
100
AcDbLine
 10
106993.0432071138
 20
97405.15448854488
 30
0.0
 11
106993.070820564
 21
97405.13377848632
 31
0.0
  0
LINE
  5
E09B2
330
1F
100
AcDbEntity
  8
freecads.com
100
AcDbLine
 10
106993.0155936734
 20
97405.14758525501
 30
0.0
 11
106993.0432071138
 21
97405.15448854488
 31
0.0
  0
LINE
  5
E09B3
330
1F
100
AcDbEntity
  8
freecads.com
100
AcDbLine
 10
106992.9672702228
 20
97405.1682952651
 30
0.0
 11
106993.0155936734
 21
97405.14758525501
 31
0.0
  0
LINE
  5
E09B4
330
1F
100
AcDbEntity
  8
freecads.com
100
AcDbLine
 10
106992.9603668554
 20
97405.17519861796
 30
0.0
 11
106992.9672702228
 21
97405.1682952651
 31
0.0
  0
LINE
  5
E09B5
330
1F
100
AcDbEntity
  8
freecads.com
100
AcDbLine
 10
106992.9051399841
 20
97405.23042556674
 30
0.0
 11
106992.9603668554
 21
97405.17519861796
 31
0.0
  0
LINE
  5
E09B6
330
1F
100
AcDbEntity
  8
freecads.com
100
AcDbLine
 10
106992.891333259
 20
97405.26494227285
 30
0.0
 11
106992.9051399841
 21
97405.23042556674
 31
0.0
  0
LINE
  5
E09B7
330
1F
100
AcDbEntity
  8
freecads.com
100
AcDbLine
 10
106992.8499131129
 20
97405.26494227285
 30
0.0
 11
106992.891333259
 21
97405.26494227285
 31
0.0
  0
LINE
  5
E09B8
330
1F
100
AcDbEntity
  8
freecads.com
100
AcDbLine
 10
106992.8292030591
 20
97405.2718456693
 30
0.0
 11
106992.8499131129
 21
97405.26494227285
 31
0.0
  0
LINE
  5
E09B9
330
1F
100
AcDbEntity
  8
freecads.com
100
AcDbLine
 10
106992.8292030591
 20
97405.29255570365
 30
0.0
 11
106992.8292030591
 21
97405.2718456693
 31
0.0
  0
LINE
  5
E09BA
330
1F
100
AcDbEntity
  8
freecads.com
100
AcDbLine
 10
106992.8292030591
 20
97405.29945907587
 30
0.0
 11
106992.8292030591
 21
97405.29255570365
 31
0.0
  0
LINE
  5
E09BB
330
1F
100
AcDbEntity
  8
freecads.com
100
AcDbLine
 10
106992.8568164803
 20
97405.32707250666
 30
0.0
 11
106992.8292030591
 21
97405.29945907587
 31
0.0
  0
LINE
  5
E09BC
330
1F
100
AcDbEntity
  8
freecads.com
100
AcDbLine
 10
106992.8015896284
 20
97405.34087923174
 30
0.0
 11
106992.8568164803
 21
97405.32707250666
 31
0.0
  0
LINE
  5
E09BD
330
1F
100
AcDbEntity
  8
freecads.com
100
AcDbLine
 10
106992.7739761928
 20
97405.33397587888
 30
0.0
 11
106992.8015896284
 21
97405.34087923174
 31
0.0
  0
LINE
  5
E09BE
330
1F
100
AcDbEntity
  8
freecads.com
100
AcDbLine
 10
106992.7325560611
 20
97405.32016918287
 30
0.0
 11
106992.7739761928
 21
97405.33397587888
 31
0.0
  0
LINE
  5
E09BF
330
1F
100
AcDbEntity
  8
freecads.com
100
AcDbLine
 10
106992.6980392629
 20
97405.32016918287
 30
0.0
 11
106992.7325560611
 21
97405.32016918287
 31
0.0
  0
LINE
  5
E09C0
330
1F
100
AcDbEntity
  8
freecads.com
100
AcDbLine
 10
106992.684232533
 20
97405.34778257492
 30
0.0
 11
106992.6980392629
 21
97405.32016918287
 31
0.0
  0
LINE
  5
E09C1
330
1F
100
AcDbEntity
  8
freecads.com
100
AcDbLine
 10
106992.711845925
 20
97405.36849261408
 30
0.0
 11
106992.684232533
 21
97405.34778257492
 31
0.0
  0
LINE
  5
E09C2
330
1F
100
AcDbEntity
  8
freecads.com
100
AcDbLine
 10
106992.7463628056
 20
97405.37539601055
 30
0.0
 11
106992.711845925
 21
97405.36849261408
 31
0.0
  0
LINE
  5
E09C3
330
1F
100
AcDbEntity
  8
freecads.com
100
AcDbLine
 10
106992.8153963583
 20
97405.36849261408
 30
0.0
 11
106992.7463628056
 21
97405.37539601055
 31
0.0
  0
LINE
  5
E09C4
330
1F
100
AcDbEntity
  8
freecads.com
100
AcDbLine
 10
106992.8222996579
 20
97405.39610610786
 30
0.0
 11
106992.8153963583
 21
97405.36849261408
 31
0.0
  0
LINE
  5
E09C5
330
1F
100
AcDbEntity
  8
freecads.com
100
AcDbLine
 10
106992.8015896284
 20
97405.41681617125
 30
0.0
 11
106992.8222996579
 21
97405.39610610786
 31
0.0
  0
LINE
  5
E09C6
330
1F
100
AcDbEntity
  8
freecads.com
100
AcDbLine
 10
106992.7532660954
 20
97405.41681617125
 30
0.0
 11
106992.8015896284
 21
97405.41681617125
 31
0.0
  0
LINE
  5
E09C7
330
1F
100
AcDbEntity
  8
freecads.com
100
AcDbLine
 10
106992.7256526986
 20
97405.42371953864
 30
0.0
 11
106992.7532660954
 21
97405.41681617125
 31
0.0
  0
LINE
  5
E09C8
330
1F
100
AcDbEntity
  8
freecads.com
100
AcDbLine
 10
106992.7670727963
 20
97405.4444295778
 30
0.0
 11
106992.7256526986
 21
97405.42371953864
 31
0.0
  0
LINE
  5
E09C9
330
1F
100
AcDbEntity
  8
freecads.com
100
AcDbLine
 10
106992.7394593946
 20
97405.45133293066
 30
0.0
 11
106992.7670727963
 21
97405.4444295778
 31
0.0
  0
LINE
  5
E09CA
330
1F
100
AcDbEntity
  8
freecads.com
100
AcDbLine
 10
106992.6980392629
 20
97405.43062289633
 30
0.0
 11
106992.7394593946
 21
97405.45133293066
 31
0.0
  0
LINE
  5
E09CB
330
1F
100
AcDbEntity
  8
freecads.com
100
AcDbLine
 10
106992.6911359004
 20
97405.5617866538
 30
0.0
 11
106992.6980392629
 21
97405.60320681453
 31
0.0
  0
LINE
  5
E09CC
330
1F
100
AcDbEntity
  8
freecads.com
100
AcDbLine
 10
106992.6773291705
 20
97405.55488331549
 30
0.0
 11
106992.6911359004
 21
97405.5617866538
 31
0.0
  0
LINE
  5
E09CD
330
1F
100
AcDbEntity
  8
freecads.com
100
AcDbLine
 10
106992.6151989754
 20
97405.55488331549
 30
0.0
 11
106992.6773291705
 21
97405.55488331549
 31
0.0
  0
LINE
  5
E09CE
330
1F
100
AcDbEntity
  8
freecads.com
100
AcDbLine
 10
106992.5944888393
 20
97405.57559339343
 30
0.0
 11
106992.6151989754
 21
97405.55488331549
 31
0.0
  0
LINE
  5
E09CF
330
1F
100
AcDbEntity
  8
freecads.com
100
AcDbLine
 10
106992.5944888393
 20
97405.60320681453
 30
0.0
 11
106992.5944888393
 21
97405.57559339343
 31
0.0
  0
LINE
  5
E09D0
330
1F
100
AcDbEntity
  8
freecads.com
100
AcDbLine
 10
106992.5737788534
 20
97405.61011019645
 30
0.0
 11
106992.5944888393
 21
97405.60320681453
 31
0.0
  0
LINE
  5
E09D1
330
1F
100
AcDbEntity
  8
freecads.com
100
AcDbLine
 10
106992.5323586685
 20
97405.5894000846
 30
0.0
 11
106992.5737788534
 21
97405.61011019645
 31
0.0
  0
LINE
  5
E09D2
330
1F
100
AcDbEntity
  8
freecads.com
100
AcDbLine
 10
106992.5047452426
 20
97405.57559339343
 30
0.0
 11
106992.5323586685
 21
97405.5894000846
 31
0.0
  0
LINE
  5
E09D3
330
1F
100
AcDbEntity
  8
freecads.com
100
AcDbLine
 10
106992.4564217532
 20
97405.57559339343
 30
0.0
 11
106992.5047452426
 21
97405.57559339343
 31
0.0
  0
LINE
  5
E09D4
330
1F
100
AcDbEntity
  8
freecads.com
100
AcDbLine
 10
106992.4426150282
 20
97405.58249674629
 30
0.0
 11
106992.4564217532
 21
97405.57559339343
 31
0.0
  0
LINE
  5
E09D5
330
1F
100
AcDbEntity
  8
freecads.com
100
AcDbLine
 10
106992.4633251206
 20
97405.60320681453
 30
0.0
 11
106992.4426150282
 21
97405.58249674629
 31
0.0
  0
LINE
  5
E09D6
330
1F
100
AcDbEntity
  8
freecads.com
100
AcDbLine
 10
106992.3528713684
 20
97405.62391691183
 30
0.0
 11
106992.4011948868
 21
97405.64462693647
 31
0.0
  0
LINE
  5
E09D7
330
1F
100
AcDbEntity
  8
freecads.com
100
AcDbLine
 10
106992.3114512367
 20
97405.60320681453
 30
0.0
 11
106992.3528713684
 21
97405.62391691183
 31
0.0
  0
LINE
  5
E09D8
330
1F
100
AcDbEntity
  8
freecads.com
100
AcDbLine
 10
106992.2769344386
 20
97405.58249674629
 30
0.0
 11
106992.3114512367
 21
97405.60320681453
 31
0.0
  0
LINE
  5
E09D9
330
1F
100
AcDbEntity
  8
freecads.com
100
AcDbLine
 10
106992.249321003
 20
97405.56869004542
 30
0.0
 11
106992.2769344386
 21
97405.58249674629
 31
0.0
  0
LINE
  5
E09DA
330
1F
100
AcDbEntity
  8
freecads.com
100
AcDbLine
 10
106992.3914649332
 20
97405.19922449156
 30
0.0
 11
106992.4186434923
 21
97405.19378882529
 31
0.0
  0
LINE
  5
E09DB
330
1F
100
AcDbEntity
  8
freecads.com
100
AcDbLine
 10
106992.3914649332
 20
97405.27532455097
 30
0.0
 11
106992.3914649332
 21
97405.19922449156
 31
0.0
  0
LINE
  5
E09DC
330
1F
100
AcDbEntity
  8
freecads.com
100
AcDbLine
 10
106992.4077721113
 20
97405.29706734687
 30
0.0
 11
106992.3914649332
 21
97405.27532455097
 31
0.0
  0
LINE
  5
E09DD
330
1F
100
AcDbEntity
  8
freecads.com
100
AcDbLine
 10
106992.4349506995
 20
97405.30793879084
 30
0.0
 11
106992.4077721113
 21
97405.29706734687
 31
0.0
  0
LINE
  5
E09DE
330
1F
100
AcDbEntity
  8
freecads.com
100
AcDbLine
 10
106992.4730006637
 20
97405.31881018153
 30
0.0
 11
106992.4349506995
 21
97405.30793879084
 31
0.0
  0
LINE
  5
E09DF
330
1F
100
AcDbEntity
  8
freecads.com
100
AcDbLine
 10
106992.5164863476
 20
97405.25358166784
 30
0.0
 11
106992.4730006637
 21
97405.31881018153
 31
0.0
  0
LINE
  5
E09E0
330
1F
100
AcDbEntity
  8
freecads.com
100
AcDbLine
 10
106992.5436649503
 20
97405.19378882529
 30
0.0
 11
106992.5164863476
 21
97405.25358166784
 31
0.0
  0
LINE
  5
E09E1
330
1F
100
AcDbEntity
  8
freecads.com
100
AcDbLine
 10
106992.570843553
 20
97405.12312445639
 30
0.0
 11
106992.5436649503
 21
97405.19378882529
 31
0.0
  0
LINE
  5
E09E2
330
1F
100
AcDbEntity
  8
freecads.com
100
AcDbLine
 10
106992.6013922455
 20
97405.09235835951
 30
0.0
 11
106992.570843553
 21
97405.12312445639
 31
0.0
  0
LINE
  5
E09E3
330
1F
100
AcDbEntity
  8
freecads.com
100
AcDbLine
 10
106992.608295608
 20
97405.05784156619
 30
0.0
 11
106992.6013922455
 21
97405.09235835951
 31
0.0
  0
LINE
  5
E09E4
330
1F
100
AcDbEntity
  8
freecads.com
100
AcDbLine
 10
106992.3262363614
 20
97405.09051021167
 30
0.0
 11
106992.380593499
 21
97405.08507447756
 31
0.0
  0
LINE
  5
E09E5
330
1F
100
AcDbEntity
  8
freecads.com
100
AcDbLine
 10
106992.3262363614
 20
97405.03071737879
 30
0.0
 11
106992.3262363614
 21
97405.09051021167
 31
0.0
  0
LINE
  5
E09E6
330
1F
100
AcDbEntity
  8
freecads.com
100
AcDbLine
 10
106992.2664435237
 20
97405.21009590162
 30
0.0
 11
106992.2990577927
 21
97405.14486732982
 31
0.0
  0
LINE
  5
E09E7
330
1F
100
AcDbEntity
  8
freecads.com
100
AcDbLine
 10
106992.2148042096
 20
97405.99669814994
 30
0.0
 11
106992.2424176404
 21
97405.98979482616
 31
0.0
  0
LINE
  5
E09E8
330
1F
100
AcDbEntity
  8
freecads.com
100
AcDbLine
 10
106992.2424176404
 20
97406.05882840796
 30
0.0
 11
106992.2286109056
 21
97406.05192504057
 31
0.0
  0
LINE
  5
E09E9
330
1F
100
AcDbEntity
  8
freecads.com
100
AcDbLine
 10
106992.2769344386
 20
97406.10024853475
 30
0.0
 11
106992.2217076158
 21
97406.10715191184
 31
0.0
  0
LINE
  5
E09EA
330
1F
100
AcDbEntity
  8
freecads.com
100
AcDbLine
 10
106992.1940941317
 20
97405.99669814994
 30
0.0
 11
106992.2148042096
 21
97405.99669814994
 31
0.0
  0
LINE
  5
E09EB
330
1F
100
AcDbEntity
  8
freecads.com
100
AcDbLine
 10
106992.1664806912
 20
97406.01050487502
 30
0.0
 11
106992.1940941317
 21
97405.99669814994
 31
0.0
  0
LINE
  5
E09EC
330
1F
100
AcDbEntity
  8
freecads.com
100
AcDbLine
 10
106992.1526740388
 20
97406.02431158073
 30
0.0
 11
106992.1664806912
 21
97406.01050487502
 31
0.0
  0
LINE
  5
E09ED
330
1F
100
AcDbEntity
  8
freecads.com
100
AcDbLine
 10
106992.1319638737
 20
97406.03811834455
 30
0.0
 11
106992.1526740388
 21
97406.02431158073
 31
0.0
  0
LINE
  5
E09EE
330
1F
100
AcDbEntity
  8
freecads.com
100
AcDbLine
 10
106992.1319638737
 20
97406.05882840796
 30
0.0
 11
106992.1319638737
 21
97406.03811834455
 31
0.0
  0
LINE
  5
E09EF
330
1F
100
AcDbEntity
  8
freecads.com
100
AcDbLine
 10
106992.1595773238
 20
97406.05192504057
 30
0.0
 11
106992.1319638737
 21
97406.05882840796
 31
0.0
  0
LINE
  5
E09F0
330
1F
100
AcDbEntity
  8
freecads.com
100
AcDbLine
 10
106992.187190774
 20
97406.05192504057
 30
0.0
 11
106992.1595773238
 21
97406.05192504057
 31
0.0
  0
LINE
  5
E09F1
330
1F
100
AcDbEntity
  8
freecads.com
100
AcDbLine
 10
106992.2286109056
 20
97406.05192504057
 30
0.0
 11
106992.187190774
 21
97406.05192504057
 31
0.0
  0
LINE
  5
E09F2
330
1F
100
AcDbEntity
  8
freecads.com
100
AcDbLine
 10
106992.0560269874
 20
97406.23141232131
 30
0.0
 11
106992.0215102232
 21
97406.23141232131
 31
0.0
  0
LINE
  5
E09F3
330
1F
100
AcDbEntity
  8
freecads.com
100
AcDbLine
 10
106992.1043505107
 20
97406.23141232131
 30
0.0
 11
106992.0560269874
 21
97406.23141232131
 31
0.0
  0
LINE
  5
E09F4
330
1F
100
AcDbEntity
  8
freecads.com
100
AcDbLine
 10
106992.1250605935
 20
97406.2107022579
 30
0.0
 11
106992.1043505107
 21
97406.23141232131
 31
0.0
  0
LINE
  5
E09F5
330
1F
100
AcDbEntity
  8
freecads.com
100
AcDbLine
 10
106992.1112538732
 20
97406.18308880289
 30
0.0
 11
106992.1250605935
 21
97406.2107022579
 31
0.0
  0
LINE
  5
E09F6
330
1F
100
AcDbEntity
  8
freecads.com
100
AcDbLine
 10
106992.1250605935
 20
97406.18308880289
 30
0.0
 11
106992.1112538732
 21
97406.18308880289
 31
0.0
  0
LINE
  5
E09F7
330
1F
100
AcDbEntity
  8
freecads.com
100
AcDbLine
 10
106992.1457706472
 20
97406.18308880289
 30
0.0
 11
106992.1250605935
 21
97406.18308880289
 31
0.0
  0
LINE
  5
E09F8
330
1F
100
AcDbEntity
  8
freecads.com
100
AcDbLine
 10
106992.1457706472
 20
97406.1485720677
 30
0.0
 11
106992.1457706472
 21
97406.18308880289
 31
0.0
  0
LINE
  5
E09F9
330
1F
100
AcDbEntity
  8
freecads.com
100
AcDbLine
 10
106992.1457706472
 20
97406.13476533292
 30
0.0
 11
106992.1457706472
 21
97406.1485720677
 31
0.0
  0
LINE
  5
E09FA
330
1F
100
AcDbEntity
  8
freecads.com
100
AcDbLine
 10
106992.1733840877
 20
97406.10715191184
 30
0.0
 11
106992.1457706472
 21
97406.13476533292
 31
0.0
  0
LINE
  5
E09FB
330
1F
100
AcDbEntity
  8
freecads.com
100
AcDbLine
 10
106992.2217076158
 20
97406.10715191184
 30
0.0
 11
106992.1733840877
 21
97406.10715191184
 31
0.0
  0
LINE
  5
E09FC
330
1F
100
AcDbEntity
  8
freecads.com
100
AcDbLine
 10
106991.82131285
 20
97405.6584336761
 30
0.0
 11
106991.8558295852
 21
97405.6584336761
 31
0.0
  0
LINE
  5
E09FD
330
1F
100
AcDbEntity
  8
freecads.com
100
AcDbLine
 10
106991.7936993998
 20
97405.6584336761
 30
0.0
 11
106991.82131285
 21
97405.6584336761
 31
0.0
  0
LINE
  5
E09FE
330
1F
100
AcDbEntity
  8
freecads.com
100
AcDbLine
 10
106991.7798927523
 20
97405.6584336761
 30
0.0
 11
106991.7936993998
 21
97405.6584336761
 31
0.0
  0
LINE
  5
E09FF
330
1F
100
AcDbEntity
  8
freecads.com
100
AcDbLine
 10
106991.7936993998
 20
97405.68604712141
 30
0.0
 11
106991.7798927523
 21
97405.6584336761
 31
0.0
  0
LINE
  5
E0A00
330
1F
100
AcDbEntity
  8
freecads.com
100
AcDbLine
 10
106991.7867960034
 20
97405.7205638663
 30
0.0
 11
106991.7936993998
 21
97405.68604712141
 31
0.0
  0
LINE
  5
E0A01
330
1F
100
AcDbEntity
  8
freecads.com
100
AcDbLine
 10
106991.690149078
 20
97405.6584336761
 30
0.0
 11
106991.690149078
 21
97405.69985376898
 31
0.0
  0
LINE
  5
E0A02
330
1F
100
AcDbEntity
  8
freecads.com
100
AcDbLine
 10
106991.6418255499
 20
97405.6584336761
 30
0.0
 11
106991.690149078
 21
97405.6584336761
 31
0.0
  0
LINE
  5
E0A03
330
1F
100
AcDbEntity
  8
freecads.com
100
AcDbLine
 10
106991.6073088196
 20
97405.69985376898
 30
0.0
 11
106991.6418255499
 21
97405.6584336761
 31
0.0
  0
LINE
  5
E0A04
330
1F
100
AcDbEntity
  8
freecads.com
100
AcDbLine
 10
106991.5796953161
 20
97405.66533701441
 30
0.0
 11
106991.6073088196
 21
97405.69985376898
 31
0.0
  0
LINE
  5
E0A05
330
1F
100
AcDbEntity
  8
freecads.com
100
AcDbLine
 10
106991.5796953161
 20
97405.65153031839
 30
0.0
 11
106991.5796953161
 21
97405.66533701441
 31
0.0
  0
LINE
  5
E0A06
330
1F
100
AcDbEntity
  8
freecads.com
100
AcDbLine
 10
106992.2079008374
 20
97405.69295050818
 30
0.0
 11
106992.1664806912
 21
97405.67914370558
 31
0.0
  0
LINE
  5
E0A07
330
1F
100
AcDbEntity
  8
freecads.com
100
AcDbLine
 10
106992.0905437905
 20
97405.78959743842
 30
0.0
 11
106992.0974471869
 21
97405.77579076662
 31
0.0
  0
LINE
  5
E0A08
330
1F
100
AcDbEntity
  8
freecads.com
100
AcDbLine
 10
106991.8558295852
 20
97405.87934112724
 30
0.0
 11
106991.9455732546
 21
97405.87934112724
 31
0.0
  0
LINE
  5
E0A09
330
1F
100
AcDbEntity
  8
freecads.com
100
AcDbLine
 10
106991.8558295852
 20
97405.84482428545
 30
0.0
 11
106991.8558295852
 21
97405.87934112724
 31
0.0
  0
LINE
  5
E0A0A
330
1F
100
AcDbEntity
  8
freecads.com
100
AcDbLine
 10
106991.8972497653
 20
97405.82411421723
 30
0.0
 11
106991.8558295852
 21
97405.84482428545
 31
0.0
  0
LINE
  5
E0A0B
330
1F
100
AcDbEntity
  8
freecads.com
100
AcDbLine
 10
106991.8972497653
 20
97405.81030752604
 30
0.0
 11
106991.8972497653
 21
97405.82411421723
 31
0.0
  0
LINE
  5
E0A0C
330
1F
100
AcDbEntity
  8
freecads.com
100
AcDbLine
 10
106991.8696363684
 20
97405.80340419256
 30
0.0
 11
106991.8972497653
 21
97405.81030752604
 31
0.0
  0
LINE
  5
E0A0D
330
1F
100
AcDbEntity
  8
freecads.com
100
AcDbLine
 10
106991.8627330059
 20
97405.78959743842
 30
0.0
 11
106991.8696363684
 21
97405.80340419256
 31
0.0
  0
LINE
  5
E0A0E
330
1F
100
AcDbEntity
  8
freecads.com
100
AcDbLine
 10
106991.8558295852
 20
97405.79650082517
 30
0.0
 11
106991.8627330059
 21
97405.78269409525
 31
0.0
  0
LINE
  5
E0A0F
330
1F
100
AcDbEntity
  8
freecads.com
100
AcDbLine
 10
106991.8351195799
 20
97405.81030752604
 30
0.0
 11
106991.8558295852
 21
97405.79650082517
 31
0.0
  0
LINE
  5
E0A10
330
1F
100
AcDbEntity
  8
freecads.com
100
AcDbLine
 10
106991.8075060958
 20
97405.83792097137
 30
0.0
 11
106991.8351195799
 21
97405.81030752604
 31
0.0
  0
LINE
  5
E0A11
330
1F
100
AcDbEntity
  8
freecads.com
100
AcDbLine
 10
106991.7729893413
 20
97405.85863102023
 30
0.0
 11
106991.8075060958
 21
97405.83792097137
 31
0.0
  0
LINE
  5
E0A12
330
1F
100
AcDbEntity
  8
freecads.com
100
AcDbLine
 10
106991.7384725431
 20
97405.86553442152
 30
0.0
 11
106991.7729893413
 21
97405.85863102023
 31
0.0
  0
LINE
  5
E0A13
330
1F
100
AcDbEntity
  8
freecads.com
100
AcDbLine
 10
106991.697052426
 20
97405.88624448976
 30
0.0
 11
106991.7384725431
 21
97405.86553442152
 31
0.0
  0
LINE
  5
E0A14
330
1F
100
AcDbEntity
  8
freecads.com
100
AcDbLine
 10
106991.6832456864
 20
97405.90695455802
 30
0.0
 11
106991.697052426
 21
97405.88624448976
 31
0.0
  0
LINE
  5
E0A15
330
1F
100
AcDbEntity
  8
freecads.com
100
AcDbLine
 10
106991.690149078
 20
97405.93456798396
 30
0.0
 11
106991.6832456864
 21
97405.90695455802
 31
0.0
  0
LINE
  5
E0A16
330
1F
100
AcDbEntity
  8
freecads.com
100
AcDbLine
 10
106991.7108591123
 20
97405.96218141959
 30
0.0
 11
106991.690149078
 21
97405.93456798396
 31
0.0
  0
LINE
  5
E0A17
330
1F
100
AcDbEntity
  8
freecads.com
100
AcDbLine
 10
106991.752279244
 20
97405.96908474822
 30
0.0
 11
106991.7108591123
 21
97405.96218141959
 31
0.0
  0
LINE
  5
E0A18
330
1F
100
AcDbEntity
  8
freecads.com
100
AcDbLine
 10
106991.8006028108
 20
97405.97598811561
 30
0.0
 11
106991.752279244
 21
97405.96908474822
 31
0.0
  0
LINE
  5
E0A19
330
1F
100
AcDbEntity
  8
freecads.com
100
AcDbLine
 10
106991.8075060958
 20
97405.98979482616
 30
0.0
 11
106991.8006028108
 21
97405.97598811561
 31
0.0
  0
LINE
  5
E0A1A
330
1F
100
AcDbEntity
  8
freecads.com
100
AcDbLine
 10
106991.8282162319
 20
97405.98289144424
 30
0.0
 11
106991.8489262953
 21
97405.96908474822
 31
0.0
  0
LINE
  5
E0A1B
330
1F
100
AcDbEntity
  8
freecads.com
100
AcDbLine
 10
106991.8075060958
 20
97406.00360154154
 30
0.0
 11
106991.8282162319
 21
97405.98289144424
 31
0.0
  0
LINE
  5
E0A1C
330
1F
100
AcDbEntity
  8
freecads.com
100
AcDbLine
 10
106991.7867960034
 20
97406.02431158073
 30
0.0
 11
106991.8075060958
 21
97406.00360154154
 31
0.0
  0
LINE
  5
E0A1D
330
1F
100
AcDbEntity
  8
freecads.com
100
AcDbLine
 10
106991.7591826501
 20
97406.04502171194
 30
0.0
 11
106991.7867960034
 21
97406.02431158073
 31
0.0
  0
LINE
  5
E0A1E
330
1F
100
AcDbEntity
  8
freecads.com
100
AcDbLine
 10
106991.7453759105
 20
97406.05882840796
 30
0.0
 11
106991.7591826501
 21
97406.04502171194
 31
0.0
  0
LINE
  5
E0A1F
330
1F
100
AcDbEntity
  8
freecads.com
100
AcDbLine
 10
106991.7453759105
 20
97406.08644183875
 30
0.0
 11
106991.7453759105
 21
97406.05882840796
 31
0.0
  0
LINE
  5
E0A20
330
1F
100
AcDbEntity
  8
freecads.com
100
AcDbLine
 10
106991.7729893413
 20
97406.10715191184
 30
0.0
 11
106991.7453759105
 21
97406.08644183875
 31
0.0
  0
LINE
  5
E0A21
330
1F
100
AcDbEntity
  8
freecads.com
100
AcDbLine
 10
106991.7936993998
 20
97406.11405527438
 30
0.0
 11
106991.7729893413
 21
97406.10715191184
 31
0.0
  0
LINE
  5
E0A22
330
1F
100
AcDbEntity
  8
freecads.com
100
AcDbLine
 10
106991.8144094971
 20
97406.12095861269
 30
0.0
 11
106991.7936993998
 21
97406.11405527438
 31
0.0
  0
LINE
  5
E0A23
330
1F
100
AcDbEntity
  8
freecads.com
100
AcDbLine
 10
106991.8420229328
 20
97406.13476533292
 30
0.0
 11
106991.8144094971
 21
97406.12095861269
 31
0.0
  0
LINE
  5
E0A24
330
1F
100
AcDbEntity
  8
freecads.com
100
AcDbLine
 10
106991.8696363684
 20
97406.14166866157
 30
0.0
 11
106991.8420229328
 21
97406.13476533292
 31
0.0
  0
LINE
  5
E0A25
330
1F
100
AcDbEntity
  8
freecads.com
100
AcDbLine
 10
106991.8834430741
 20
97406.1485720677
 30
0.0
 11
106991.8696363684
 21
97406.14166866157
 31
0.0
  0
LINE
  5
E0A26
330
1F
100
AcDbEntity
  8
freecads.com
100
AcDbLine
 10
106991.8627330059
 20
97406.16237876857
 30
0.0
 11
106991.8834430741
 21
97406.1485720677
 31
0.0
  0
LINE
  5
E0A27
330
1F
100
AcDbEntity
  8
freecads.com
100
AcDbLine
 10
106991.8420229328
 20
97406.17618550334
 30
0.0
 11
106991.8627330059
 21
97406.16237876857
 31
0.0
  0
LINE
  5
E0A28
330
1F
100
AcDbEntity
  8
freecads.com
100
AcDbLine
 10
106991.82131285
 20
97406.18999221872
 30
0.0
 11
106991.8420229328
 21
97406.17618550334
 31
0.0
  0
LINE
  5
E0A29
330
1F
100
AcDbEntity
  8
freecads.com
100
AcDbLine
 10
106991.7660859739
 20
97406.18999221872
 30
0.0
 11
106991.82131285
 21
97406.18999221872
 31
0.0
  0
LINE
  5
E0A2A
330
1F
100
AcDbEntity
  8
freecads.com
100
AcDbLine
 10
106991.7315692242
 20
97406.18308880289
 30
0.0
 11
106991.7660859739
 21
97406.18999221872
 31
0.0
  0
LINE
  5
E0A2B
330
1F
100
AcDbEntity
  8
freecads.com
100
AcDbLine
 10
106991.6832456864
 20
97406.16237876857
 30
0.0
 11
106991.7315692242
 21
97406.18308880289
 31
0.0
  0
LINE
  5
E0A2C
330
1F
100
AcDbEntity
  8
freecads.com
100
AcDbLine
 10
106991.6694389952
 20
97406.14166866157
 30
0.0
 11
106991.6832456864
 21
97406.16237876857
 31
0.0
  0
LINE
  5
E0A2D
330
1F
100
AcDbEntity
  8
freecads.com
100
AcDbLine
 10
106991.662535623
 20
97406.12095861269
 30
0.0
 11
106991.6694389952
 21
97406.14166866157
 31
0.0
  0
LINE
  5
E0A2E
330
1F
100
AcDbEntity
  8
freecads.com
100
AcDbLine
 10
106991.6280187763
 20
97406.09334520128
 30
0.0
 11
106991.662535623
 21
97406.12095861269
 31
0.0
  0
LINE
  5
E0A2F
330
1F
100
AcDbEntity
  8
freecads.com
100
AcDbLine
 10
106991.6073088196
 20
97406.09334520128
 30
0.0
 11
106991.6280187763
 21
97406.09334520128
 31
0.0
  0
LINE
  5
E0A30
330
1F
100
AcDbEntity
  8
freecads.com
100
AcDbLine
 10
106991.6004054231
 20
97406.10715191184
 30
0.0
 11
106991.6073088196
 21
97406.09334520128
 31
0.0
  0
LINE
  5
E0A31
330
1F
100
AcDbEntity
  8
freecads.com
100
AcDbLine
 10
106991.5865986883
 20
97406.10715191184
 30
0.0
 11
106991.6004054231
 21
97406.10715191184
 31
0.0
  0
LINE
  5
E0A32
330
1F
100
AcDbEntity
  8
freecads.com
100
AcDbLine
 10
106991.5658886249
 20
97406.10024853475
 30
0.0
 11
106991.5865986883
 21
97406.10715191184
 31
0.0
  0
LINE
  5
E0A33
330
1F
100
AcDbEntity
  8
freecads.com
100
AcDbLine
 10
106991.5382751941
 20
97406.07263510883
 30
0.0
 11
106991.5658886249
 21
97406.10024853475
 31
0.0
  0
LINE
  5
E0A34
330
1F
100
AcDbEntity
  8
freecads.com
100
AcDbLine
 10
106991.5106617633
 20
97406.04502171194
 30
0.0
 11
106991.5382751941
 21
97406.07263510883
 31
0.0
  0
LINE
  5
E0A35
330
1F
100
AcDbEntity
  8
freecads.com
100
AcDbLine
 10
106991.5037583863
 20
97405.98979482616
 30
0.0
 11
106991.5106617633
 21
97406.04502171194
 31
0.0
  0
LINE
  5
E0A36
330
1F
100
AcDbEntity
  8
freecads.com
100
AcDbLine
 10
106991.4899516806
 20
97405.96908474822
 30
0.0
 11
106991.5037583863
 21
97405.98979482616
 31
0.0
  0
LINE
  5
E0A37
330
1F
100
AcDbEntity
  8
freecads.com
100
AcDbLine
 10
106991.4899516806
 20
97405.94147128351
 30
0.0
 11
106991.4899516806
 21
97405.96908474822
 31
0.0
  0
LINE
  5
E0A38
330
1F
100
AcDbEntity
  8
freecads.com
100
AcDbLine
 10
106991.4830483035
 20
97405.94147128351
 30
0.0
 11
106991.4899516806
 21
97405.94147128351
 31
0.0
  0
LINE
  5
E0A39
330
1F
100
AcDbEntity
  8
freecads.com
100
AcDbLine
 10
106991.4692416075
 20
97405.82411421723
 30
0.0
 11
106991.4830483035
 21
97405.83792097137
 31
0.0
  0
LINE
  5
E0A3A
330
1F
100
AcDbEntity
  8
freecads.com
100
AcDbLine
 10
106991.4554348582
 20
97405.81030752604
 30
0.0
 11
106991.4692416075
 21
97405.82411421723
 31
0.0
  0
LINE
  5
E0A3B
330
1F
100
AcDbEntity
  8
freecads.com
100
AcDbLine
 10
106991.4416281525
 20
97405.79650082517
 30
0.0
 11
106991.4554348582
 21
97405.81030752604
 31
0.0
  0
LINE
  5
E0A3C
330
1F
100
AcDbEntity
  8
freecads.com
100
AcDbLine
 10
106991.4278214516
 20
97405.77579076662
 30
0.0
 11
106991.4416281525
 21
97405.79650082517
 31
0.0
  0
LINE
  5
E0A3D
330
1F
100
AcDbEntity
  8
freecads.com
100
AcDbLine
 10
106991.4278214516
 20
97405.76198399795
 30
0.0
 11
106991.4278214516
 21
97405.77579076662
 31
0.0
  0
LINE
  5
E0A3E
330
1F
100
AcDbEntity
  8
freecads.com
100
AcDbLine
 10
106991.4278214516
 20
97405.75508066932
 30
0.0
 11
106991.4278214516
 21
97405.76198399795
 31
0.0
  0
LINE
  5
E0A3F
330
1F
100
AcDbEntity
  8
freecads.com
100
AcDbLine
 10
106991.4692416075
 20
97405.73437064467
 30
0.0
 11
106991.4761449555
 21
97405.69985376898
 31
0.0
  0
LINE
  5
E0A40
330
1F
100
AcDbEntity
  8
freecads.com
100
AcDbLine
 10
106991.4554348582
 20
97405.75508066932
 30
0.0
 11
106991.4692416075
 21
97405.73437064467
 31
0.0
  0
LINE
  5
E0A41
330
1F
100
AcDbEntity
  8
freecads.com
100
AcDbLine
 10
106991.4416281525
 20
97405.75508066932
 30
0.0
 11
106991.4554348582
 21
97405.75508066932
 31
0.0
  0
LINE
  5
E0A42
330
1F
100
AcDbEntity
  8
freecads.com
100
AcDbLine
 10
106991.4140147265
 20
97405.72746727728
 30
0.0
 11
106991.4416281525
 21
97405.75508066932
 31
0.0
  0
LINE
  5
E0A43
330
1F
100
AcDbEntity
  8
freecads.com
100
AcDbLine
 10
106991.4071114173
 20
97405.72746727728
 30
0.0
 11
106991.4140147265
 21
97405.72746727728
 31
0.0
  0
LINE
  5
E0A44
330
1F
100
AcDbEntity
  8
freecads.com
100
AcDbLine
 10
106991.4002079966
 20
97405.72746727728
 30
0.0
 11
106991.4071114173
 21
97405.72746727728
 31
0.0
  0
LINE
  5
E0A45
330
1F
100
AcDbEntity
  8
freecads.com
100
AcDbLine
 10
106991.3104644144
 20
97405.70675716544
 30
0.0
 11
106991.3242711395
 21
97405.71366053282
 31
0.0
  0
LINE
  5
E0A46
330
1F
100
AcDbEntity
  8
freecads.com
100
AcDbLine
 10
106991.2690442537
 20
97405.67224036727
 30
0.0
 11
106991.3104644144
 21
97405.70675716544
 31
0.0
  0
LINE
  5
E0A47
330
1F
100
AcDbEntity
  8
freecads.com
100
AcDbLine
 10
106991.2552375576
 20
97405.6584336761
 30
0.0
 11
106991.2690442537
 21
97405.67224036727
 31
0.0
  0
LINE
  5
E0A48
330
1F
100
AcDbEntity
  8
freecads.com
100
AcDbLine
 10
106992.0905437905
 20
97405.78959743842
 30
0.0
 11
106992.2079008374
 21
97405.69295050818
 31
0.0
  0
LINE
  5
E0A49
330
1F
100
AcDbEntity
  8
freecads.com
100
AcDbLine
 10
106991.9455732546
 20
97405.87934112724
 30
0.0
 11
106992.0905437905
 21
97405.78959743842
 31
0.0
  0
LINE
  5
E0A4A
330
1F
100
AcDbEntity
  8
freecads.com
100
AcDbLine
 10
106992.2631277087
 20
97405.98979482616
 30
0.0
 11
106992.2907412073
 21
97405.98979482616
 31
0.0
  0
LINE
  5
E0A4B
330
1F
100
AcDbEntity
  8
freecads.com
100
AcDbLine
 10
106992.2424176404
 20
97405.98979482616
 30
0.0
 11
106992.2631277087
 21
97405.98979482616
 31
0.0
  0
LINE
  5
E0A4C
330
1F
100
AcDbEntity
  8
freecads.com
100
AcDbLine
 10
106992.2631277087
 20
97406.06573177535
 30
0.0
 11
106992.2424176404
 21
97406.05882840796
 31
0.0
  0
LINE
  5
E0A4D
330
1F
100
AcDbEntity
  8
freecads.com
100
AcDbLine
 10
106992.2769344386
 20
97406.07263510883
 30
0.0
 11
106992.2631277087
 21
97406.06573177535
 31
0.0
  0
LINE
  5
E0A4E
330
1F
100
AcDbEntity
  8
freecads.com
100
AcDbLine
 10
106992.3045478936
 20
97406.07263510883
 30
0.0
 11
106992.2769344386
 21
97406.07263510883
 31
0.0
  0
LINE
  5
E0A4F
330
1F
100
AcDbEntity
  8
freecads.com
100
AcDbLine
 10
106992.2976444923
 20
97406.07263510883
 30
0.0
 11
106992.3045478936
 21
97406.07263510883
 31
0.0
  0
LINE
  5
E0A50
330
1F
100
AcDbEntity
  8
freecads.com
100
AcDbLine
 10
106992.2976444923
 20
97406.08644183875
 30
0.0
 11
106992.2769344386
 21
97406.10024853475
 31
0.0
  0
LINE
  5
E0A51
330
1F
100
AcDbEntity
  8
freecads.com
100
AcDbLine
 10
106992.3459680301
 20
97406.05882840796
 30
0.0
 11
106992.2976444923
 21
97406.08644183875
 31
0.0
  0
LINE
  5
E0A52
330
1F
100
AcDbEntity
  8
freecads.com
100
AcDbLine
 10
106992.4633251206
 20
97406.03811834455
 30
0.0
 11
106992.4150016264
 21
97406.05882840796
 31
0.0
  0
LINE
  5
E0A53
330
1F
100
AcDbEntity
  8
freecads.com
100
AcDbLine
 10
106992.490938503
 20
97406.03811834455
 30
0.0
 11
106992.4633251206
 21
97406.03811834455
 31
0.0
  0
LINE
  5
E0A54
330
1F
100
AcDbEntity
  8
freecads.com
100
AcDbLine
 10
106992.5461653742
 20
97406.03811834455
 30
0.0
 11
106992.490938503
 21
97406.03811834455
 31
0.0
  0
LINE
  5
E0A55
330
1F
100
AcDbEntity
  8
freecads.com
100
AcDbLine
 10
106992.5944888393
 20
97406.03121501592
 30
0.0
 11
106992.5461653742
 21
97406.03811834455
 31
0.0
  0
LINE
  5
E0A56
330
1F
100
AcDbEntity
  8
freecads.com
100
AcDbLine
 10
106992.629005686
 20
97406.01050487502
 30
0.0
 11
106992.5944888393
 21
97406.03121501592
 31
0.0
  0
LINE
  5
E0A57
330
1F
100
AcDbEntity
  8
freecads.com
100
AcDbLine
 10
106992.64971573
 20
97405.96218141959
 30
0.0
 11
106992.629005686
 21
97406.01050487502
 31
0.0
  0
LINE
  5
E0A58
330
1F
100
AcDbEntity
  8
freecads.com
100
AcDbLine
 10
106992.629005686
 20
97405.96218141959
 30
0.0
 11
106992.64971573
 21
97405.96218141959
 31
0.0
  0
LINE
  5
E0A59
330
1F
100
AcDbEntity
  8
freecads.com
100
AcDbLine
 10
106992.608295608
 20
97405.98289144424
 30
0.0
 11
106992.629005686
 21
97405.96218141959
 31
0.0
  0
LINE
  5
E0A5A
330
1F
100
AcDbEntity
  8
freecads.com
100
AcDbLine
 10
106992.5875855398
 20
97405.98289144424
 30
0.0
 11
106992.608295608
 21
97405.98289144424
 31
0.0
  0
LINE
  5
E0A5B
330
1F
100
AcDbEntity
  8
freecads.com
100
AcDbLine
 10
106992.5737788534
 20
97405.96908474822
 30
0.0
 11
106992.5875855398
 21
97405.98289144424
 31
0.0
  0
LINE
  5
E0A5C
330
1F
100
AcDbEntity
  8
freecads.com
100
AcDbLine
 10
106992.5599721574
 20
97405.94837467511
 30
0.0
 11
106992.5737788534
 21
97405.96908474822
 31
0.0
  0
LINE
  5
E0A5D
330
1F
100
AcDbEntity
  8
freecads.com
100
AcDbLine
 10
106992.5185519386
 20
97405.96908474822
 30
0.0
 11
106992.5599721574
 21
97405.94837467511
 31
0.0
  0
LINE
  5
E0A5E
330
1F
100
AcDbEntity
  8
freecads.com
100
AcDbLine
 10
106992.4978418703
 20
97405.96908474822
 30
0.0
 11
106992.5185519386
 21
97405.96908474822
 31
0.0
  0
LINE
  5
E0A5F
330
1F
100
AcDbEntity
  8
freecads.com
100
AcDbLine
 10
106992.3252579618
 20
97405.92076128795
 30
0.0
 11
106992.3804847992
 21
97405.92766461658
 31
0.0
  0
LINE
  5
E0A60
330
1F
100
AcDbEntity
  8
freecads.com
100
AcDbLine
 10
106992.3666780838
 20
97405.87934112724
 30
0.0
 11
106992.3252579618
 21
97405.92076128795
 31
0.0
  0
LINE
  5
E0A61
330
1F
100
AcDbEntity
  8
freecads.com
100
AcDbLine
 10
106992.4150016264
 20
97405.87243768233
 30
0.0
 11
106992.3666780838
 21
97405.87934112724
 31
0.0
  0
LINE
  5
E0A62
330
1F
100
AcDbEntity
  8
freecads.com
100
AcDbLine
 10
106992.477131836
 20
97405.87934112724
 30
0.0
 11
106992.4150016264
 21
97405.87243768233
 31
0.0
  0
LINE
  5
E0A63
330
1F
100
AcDbEntity
  8
freecads.com
100
AcDbLine
 10
106992.5185519386
 20
97405.87243768233
 30
0.0
 11
106992.477131836
 21
97405.87934112724
 31
0.0
  0
LINE
  5
E0A64
330
1F
100
AcDbEntity
  8
freecads.com
100
AcDbLine
 10
106992.5668754473
 20
97405.85172773036
 30
0.0
 11
106992.5185519386
 21
97405.87243768233
 31
0.0
  0
LINE
  5
E0A65
330
1F
100
AcDbEntity
  8
freecads.com
100
AcDbLine
 10
106992.5944888393
 20
97405.82411421723
 30
0.0
 11
106992.5668754473
 21
97405.85172773036
 31
0.0
  0
LINE
  5
E0A66
330
1F
100
AcDbEntity
  8
freecads.com
100
AcDbLine
 10
106992.6428124353
 20
97405.81721089826
 30
0.0
 11
106992.5944888393
 21
97405.82411421723
 31
0.0
  0
LINE
  5
E0A67
330
1F
100
AcDbEntity
  8
freecads.com
100
AcDbLine
 10
106992.7187493021
 20
97405.79650082517
 30
0.0
 11
106992.6428124353
 21
97405.81721089826
 31
0.0
  0
LINE
  5
E0A68
330
1F
100
AcDbEntity
  8
freecads.com
100
AcDbLine
 10
106992.7463628056
 20
97405.78959743842
 30
0.0
 11
106992.7187493021
 21
97405.79650082517
 31
0.0
  0
LINE
  5
E0A69
330
1F
100
AcDbEntity
  8
freecads.com
100
AcDbLine
 10
106992.7808795165
 20
97405.75508066932
 30
0.0
 11
106992.7463628056
 21
97405.78959743842
 31
0.0
  0
LINE
  5
E0A6A
330
1F
100
AcDbEntity
  8
freecads.com
100
AcDbLine
 10
106992.711845925
 20
97405.72746727728
 30
0.0
 11
106992.7808795165
 21
97405.75508066932
 31
0.0
  0
LINE
  5
E0A6B
330
1F
100
AcDbEntity
  8
freecads.com
100
AcDbLine
 10
106992.5875855398
 20
97405.69985376898
 30
0.0
 11
106992.711845925
 21
97405.72746727728
 31
0.0
  0
LINE
  5
E0A6C
330
1F
100
AcDbEntity
  8
freecads.com
100
AcDbLine
 10
106992.6221022992
 20
97405.67914370558
 30
0.0
 11
106992.5875855398
 21
97405.69985376898
 31
0.0
  0
LINE
  5
E0A6D
330
1F
100
AcDbEntity
  8
freecads.com
100
AcDbLine
 10
106992.6911359004
 20
97405.67914370558
 30
0.0
 11
106992.6221022992
 21
97405.67914370558
 31
0.0
  0
LINE
  5
E0A6E
330
1F
100
AcDbEntity
  8
freecads.com
100
AcDbLine
 10
106992.684232533
 20
97405.65153031839
 30
0.0
 11
106992.6911359004
 21
97405.67914370558
 31
0.0
  0
LINE
  5
E0A6F
330
1F
100
AcDbEntity
  8
freecads.com
100
AcDbLine
 10
106992.4357116898
 20
97405.65153031839
 30
0.0
 11
106992.4564217532
 21
97405.65153031839
 31
0.0
  0
ENDSEC
  0
SECTION
  2
OBJECTS
  0
DICTIONARY
  5
C
330
0
100
AcDbDictionary
281
     1
  3
ACAD_ASSOCPERSSUBENTMANAGER
350
2C1D4
  3
ACAD_CIP_PREVIOUS_PRODUCT_INFO
350
1A5
  3
ACAD_COLOR
350
73
  3
ACAD_DETAILVIEWSTYLE
350
1AB
  3
ACAD_GROUP
350
D
  3
ACAD_LAYOUT
350
1A
  3
ACAD_MATERIAL
350
72
  3
ACAD_MLEADERSTYLE
350
D7
  3
ACAD_MLINESTYLE
350
17
  3
ACAD_PLOTSETTINGS
350
19
  3
ACAD_PLOTSTYLENAME
350
E
  3
ACAD_SCALELIST
350
B6
  3
ACAD_SECTIONVIEWSTYLE
350
1A8
  3
ACAD_TABLESTYLE
350
86
  3
ACAD_VISUALSTYLE
350
99
  3
ACDB_RECOMPOSE_DATA
350
F86C7
  3
ACDBVARIABLEDICTIONARY
350
502C5
  3
AEC_PROPERTY_SET_DEFS
350
22D1
  0
DICTIONARY
  5
18E
330
2
100
AcDbDictionary
280
     1
281
     1
  3
ACAD_LAYERSTATES
360
18F
  0
DICTIONARY
  5
E6
330
10
100
AcDbDictionary
280
     1
281
     1
  0
DICTIONARY
  5
15D
330
1F
100
AcDbDictionary
280
     1
281
     1
  3
ACAD_SORTENTS
360
28E
  0
ACDBASSOCPERSSUBENTMANAGER
  5
2C1D4
102
{ACAD_REACTORS
330
C
102
}
330
C
100
AcDbAssocPersSubentManager
 90
        2
 90
        3
 90
        0
 90
        2
 90
     1260
 90
        0
 90
     1260
 90
        1
 90
        2
 90
        3
 90
        4
 90
        5
 90
        6
 90
        7
 90
        8
 90
        9
 90
       10
 90
       11
 90
       12
 90
       13
 90
       14
 90
       15
 90
       16
 90
       17
 90
       18
 90
       19
 90
       20
 90
       21
 90
       22
 90
       23
 90
       24
 90
       25
 90
       26
 90
       27
 90
       28
 90
       29
 90
       30
 90
       31
 90
       32
 90
       33
 90
       34
 90
       35
 90
       36
 90
       37
 90
       38
 90
       39
 90
       40
 90
       41
 90
       42
 90
       43
 90
       44
 90
       45
 90
       46
 90
       47
 90
       48
 90
       49
 90
       50
 90
       51
 90
       52
 90
       53
 90
       54
 90
       55
 90
       56
 90
       57
 90
       58
 90
       59
 90
       60
 90
       61
 90
       62
 90
       63
 90
       64
 90
       65
 90
       66
 90
       67
 90
       68
 90
       69
 90
       70
 90
       71
 90
       72
 90
       73
 90
       74
 90
       75
 90
       76
 90
       77
 90
       78
 90
       79
 90
       80
 90
       81
 90
       82
 90
       83
 90
       84
 90
       85
 90
       86
 90
       87
 90
       88
 90
       89
 90
       90
 90
       91
 90
       92
 90
       93
 90
       94
 90
       95
 90
       96
 90
       97
 90
       98
 90
       99
 90
      100
 90
      101
 90
      102
 90
      103
 90
      104
 90
      105
 90
      106
 90
      107
 90
      108
 90
      109
 90
      110
 90
      111
 90
      112
 90
      113
 90
      114
 90
      115
 90
      116
 90
      117
 90
      118
 90
      119
 90
      120
 90
      121
 90
      122
 90
      123
 90
      124
 90
      125
 90
      126
 90
      127
 90
      128
 90
      129
 90
      130
 90
      131
 90
      132
 90
      133
 90
      134
 90
      135
 90
      136
 90
      137
 90
      138
 90
      139
 90
      140
 90
      141
 90
      142
 90
      143
 90
      144
 90
      145
 90
      146
 90
      147
 90
      148
 90
      149
 90
      150
 90
      151
 90
      152
 90
      153
 90
      154
 90
      155
 90
      156
 90
      157
 90
      158
 90
      159
 90
      160
 90
      161
 90
      162
 90
      163
 90
      164
 90
      165
 90
      166
 90
      167
 90
      168
 90
      169
 90
      170
 90
      171
 90
      172
 90
      173
 90
      174
 90
      175
 90
      176
 90
      177
 90
      178
 90
      179
 90
      180
 90
      181
 90
      182
 90
      183
 90
      184
 90
      185
 90
      186
 90
      187
 90
      188
 90
      189
 90
      190
 90
      191
 90
      192
 90
      193
 90
      194
 90
      195
 90
      196
 90
      197
 90
      198
 90
      199
 90
      200
 90
      201
 90
      202
 90
      203
 90
      204
 90
      205
 90
      206
 90
      207
 90
      208
 90
      209
 90
      210
 90
      211
 90
      212
 90
      213
 90
      214
 90
      215
 90
      216
 90
      217
 90
      218
 90
      219
 90
      220
 90
      221
 90
      222
 90
      223
 90
      224
 90
      225
 90
      226
 90
      227
 90
      228
 90
      229
 90
      230
 90
      231
 90
      232
 90
      233
 90
      234
 90
      235
 90
      236
 90
      237
 90
      238
 90
      239
 90
      240
 90
      241
 90
      242
 90
      243
 90
      244
 90
      245
 90
      246
 90
      247
 90
      248
 90
      249
 90
      250
 90
      251
 90
      252
 90
      253
 90
      254
 90
      255
 90
      256
 90
      257
 90
      258
 90
      259
 90
      260
 90
      261
 90
      262
 90
      263
 90
      264
 90
      265
 90
      266
 90
      267
 90
      268
 90
      269
 90
      270
 90
      271
 90
      272
 90
      273
 90
      274
 90
      275
 90
      276
 90
      277
 90
      278
 90
      279
 90
      280
 90
      281
 90
      282
 90
      283
 90
      284
 90
      285
 90
      286
 90
      287
 90
      288
 90
      289
 90
      290
 90
      291
 90
      292
 90
      293
 90
      294
 90
      295
 90
      296
 90
      297
 90
      298
 90
      299
 90
      300
 90
      301
 90
      302
 90
      303
 90
      304
 90
      305
 90
      306
 90
      307
 90
      308
 90
      309
 90
      310
 90
      311
 90
      312
 90
      313
 90
      314
 90
      315
 90
      316
 90
      317
 90
      318
 90
      319
 90
      320
 90
      321
 90
      322
 90
      323
 90
      324
 90
      325
 90
      326
 90
      327
 90
      328
 90
      329
 90
      330
 90
      331
 90
      332
 90
      333
 90
      334
 90
      335
 90
      336
 90
      337
 90
      338
 90
      339
 90
      340
 90
      341
 90
      342
 90
      343
 90
      344
 90
      345
 90
      346
 90
      347
 90
      348
 90
      349
 90
      350
 90
      351
 90
      352
 90
      353
 90
      354
 90
      355
 90
      356
 90
      357
 90
      358
 90
      359
 90
      360
 90
      361
 90
      362
 90
      363
 90
      364
 90
      365
 90
      366
 90
      367
 90
      368
 90
      369
 90
      370
 90
      371
 90
      372
 90
      373
 90
      374
 90
      375
 90
      376
 90
      377
 90
      378
 90
      379
 90
      380
 90
      381
 90
      382
 90
      383
 90
      384
 90
      385
 90
      386
 90
      387
 90
      388
 90
      389
 90
      390
 90
      391
 90
      392
 90
      393
 90
      394
 90
      395
 90
      396
 90
      397
 90
      398
 90
      399
 90
      400
 90
      401
 90
      402
 90
      403
 90
      404
 90
      405
 90
      406
 90
      407
 90
      408
 90
      409
 90
      410
 90
      411
 90
      412
 90
      413
 90
      414
 90
      415
 90
      416
 90
      417
 90
      418
 90
      419
 90
      420
 90
      421
 90
      422
 90
      423
 90
      424
 90
      425
 90
      426
 90
      427
 90
      428
 90
      429
 90
      430
 90
      431
 90
      432
 90
      433
 90
      434
 90
      435
 90
      436
 90
      437
 90
      438
 90
      439
 90
      440
 90
      441
 90
      442
 90
      443
 90
      444
 90
      445
 90
      446
 90
      447
 90
      448
 90
      449
 90
      450
 90
      451
 90
      452
 90
      453
 90
      454
 90
      455
 90
      456
 90
      457
 90
      458
 90
      459
 90
      460
 90
      461
 90
      462
 90
      463
 90
      464
 90
      465
 90
      466
 90
      467
 90
      468
 90
      469
 90
      470
 90
      471
 90
      472
 90
      473
 90
      474
 90
      475
 90
      476
 90
      477
 90
      478
 90
      479
 90
      480
 90
      481
 90
      482
 90
      483
 90
      484
 90
      485
 90
      486
 90
      487
 90
      488
 90
      489
 90
      490
 90
      491
 90
      492
 90
      493
 90
      494
 90
      495
 90
      496
 90
      497
 90
      498
 90
      499
 90
      500
 90
      501
 90
      502
 90
      503
 90
      504
 90
      505
 90
      506
 90
      507
 90
      508
 90
      509
 90
      510
 90
      511
 90
      512
 90
      513
 90
      514
 90
      515
 90
      516
 90
      517
 90
      518
 90
      519
 90
      520
 90
      521
 90
      522
 90
      523
 90
      524
 90
      525
 90
      526
 90
      527
 90
      528
 90
      529
 90
      530
 90
      531
 90
      532
 90
      533
 90
      534
 90
      535
 90
      536
 90
      537
 90
      538
 90
      539
 90
      540
 90
      541
 90
      542
 90
      543
 90
      544
 90
      545
 90
      546
 90
      547
 90
      548
 90
      549
 90
      550
 90
      551
 90
      552
 90
      553
 90
      554
 90
      555
 90
      556
 90
      557
 90
      558
 90
      559
 90
      560
 90
      561
 90
      562
 90
      563
 90
      564
 90
      565
 90
      566
 90
      567
 90
      568
 90
      569
 90
      570
 90
      571
 90
      572
 90
      573
 90
      574
 90
      575
 90
      576
 90
      577
 90
      578
 90
      579
 90
      580
 90
      581
 90
      582
 90
      583
 90
      584
 90
      585
 90
      586
 90
      587
 90
      588
 90
      589
 90
      590
 90
      591
 90
      592
 90
      593
 90
      594
 90
      595
 90
      596
 90
      597
 90
      598
 90
      599
 90
      600
 90
      601
 90
      602
 90
      603
 90
      604
 90
      605
 90
      606
 90
      607
 90
      608
 90
      609
 90
      610
 90
      611
 90
      612
 90
      613
 90
      614
 90
      615
 90
      616
 90
      617
 90
      618
 90
      619
 90
      620
 90
      621
 90
      622
 90
      623
 90
      624
 90
      625
 90
      626
 90
      627
 90
      628
 90
      629
 90
      630
 90
      631
 90
      632
 90
      633
 90
      634
 90
      635
 90
      636
 90
      637
 90
      638
 90
      639
 90
      640
 90
      641
 90
      642
 90
      643
 90
      644
 90
      645
 90
      646
 90
      647
 90
      648
 90
      649
 90
      650
 90
      651
 90
      652
 90
      653
 90
      654
 90
      655
 90
      656
 90
      657
 90
      658
 90
      659
 90
      660
 90
      661
 90
      662
 90
      663
 90
      664
 90
      665
 90
      666
 90
      667
 90
      668
 90
      669
 90
      670
 90
      671
 90
      672
 90
      673
 90
      674
 90
      675
 90
      676
 90
      677
 90
      678
 90
      679
 90
      680
 90
      681
 90
      682
 90
      683
 90
      684
 90
      685
 90
      686
 90
      687
 90
      688
 90
      689
 90
      690
 90
      691
 90
      692
 90
      693
 90
      694
 90
      695
 90
      696
 90
      697
 90
      698
 90
      699
 90
      700
 90
      701
 90
      702
 90
      703
 90
      704
 90
      705
 90
      706
 90
      707
 90
      708
 90
      709
 90
      710
 90
      711
 90
      712
 90
      713
 90
      714
 90
      715
 90
      716
 90
      717
 90
      718
 90
      719
 90
      720
 90
      721
 90
      722
 90
      723
 90
      724
 90
      725
 90
      726
 90
      727
 90
      728
 90
      729
 90
      730
 90
      731
 90
      732
 90
      733
 90
      734
 90
      735
 90
      736
 90
      737
 90
      738
 90
      739
 90
      740
 90
      741
 90
      742
 90
      743
 90
      744
 90
      745
 90
      746
 90
      747
 90
      748
 90
      749
 90
      750
 90
      751
 90
      752
 90
      753
 90
      754
 90
      755
 90
      756
 90
      757
 90
      758
 90
      759
 90
      760
 90
      761
 90
      762
 90
      763
 90
      764
 90
      765
 90
      766
 90
      767
 90
      768
 90
      769
 90
      770
 90
      771
 90
      772
 90
      773
 90
      774
 90
      775
 90
      776
 90
      777
 90
      778
 90
      779
 90
      780
 90
      781
 90
      782
 90
      783
 90
      784
 90
      785
 90
      786
 90
      787
 90
      788
 90
      789
 90
      790
 90
      791
 90
      792
 90
      793
 90
      794
 90
      795
 90
      796
 90
      797
 90
      798
 90
      799
 90
      800
 90
      801
 90
      802
 90
      803
 90
      804
 90
      805
 90
      806
 90
      807
 90
      808
 90
      809
 90
      810
 90
      811
 90
      812
 90
      813
 90
      814
 90
      815
 90
      816
 90
      817
 90
      818
 90
      819
 90
      820
 90
      821
 90
      822
 90
      823
 90
      824
 90
      825
 90
      826
 90
      827
 90
      828
 90
      829
 90
      830
 90
      831
 90
      832
 90
      833
 90
      834
 90
      835
 90
      836
 90
      837
 90
      838
 90
      839
 90
      840
 90
      841
 90
      842
 90
      843
 90
      844
 90
      845
 90
      846
 90
      847
 90
      848
 90
      849
 90
      850
 90
      851
 90
      852
 90
      853
 90
      854
 90
      855
 90
      856
 90
      857
 90
      858
 90
      859
 90
      860
 90
      861
 90
      862
 90
      863
 90
      864
 90
      865
 90
      866
 90
      867
 90
      868
 90
      869
 90
      870
 90
      871
 90
      872
 90
      873
 90
      874
 90
      875
 90
      876
 90
      877
 90
      878
 90
      879
 90
      880
 90
      881
 90
      882
 90
      883
 90
      884
 90
      885
 90
      886
 90
      887
 90
      888
 90
      889
 90
      890
 90
      891
 90
      892
 90
      893
 90
      894
 90
      895
 90
      896
 90
      897
 90
      898
 90
      899
 90
      900
 90
      901
 90
      902
 90
      903
 90
      904
 90
      905
 90
      906
 90
      907
 90
      908
 90
      909
 90
      910
 90
      911
 90
      912
 90
      913
 90
      914
 90
      915
 90
      916
 90
      917
 90
      918
 90
      919
 90
      920
 90
      921
 90
      922
 90
      923
 90
      924
 90
      925
 90
      926
 90
      927
 90
      928
 90
      929
 90
      930
 90
      931
 90
      932
 90
      933
 90
      934
 90
      935
 90
      936
 90
      937
 90
      938
 90
      939
 90
      940
 90
      941
 90
      942
 90
      943
 90
      944
 90
      945
 90
      946
 90
      947
 90
      948
 90
      949
 90
      950
 90
      951
 90
      952
 90
      953
 90
      954
 90
      955
 90
      956
 90
      957
 90
      958
 90
      959
 90
      960
 90
      961
 90
      962
 90
      963
 90
      964
 90
      965
 90
      966
 90
      967
 90
      968
 90
      969
 90
      970
 90
      971
 90
      972
 90
      973
 90
      974
 90
      975
 90
      976
 90
      977
 90
      978
 90
      979
 90
      980
 90
      981
 90
      982
 90
      983
 90
      984
 90
      985
 90
      986
 90
      987
 90
      988
 90
      989
 90
      990
 90
      991
 90
      992
 90
      993
 90
      994
 90
      995
 90
      996
 90
      997
 90
      998
 90
      999
 90
     1000
 90
     1001
 90
     1002
 90
     1003
 90
     1004
 90
     1005
 90
     1006
 90
     1007
 90
     1008
 90
     1009
 90
     1010
 90
     1011
 90
     1012
 90
     1013
 90
     1014
 90
     1015
 90
     1016
 90
     1017
 90
     1018
 90
     1019
 90
     1020
 90
     1021
 90
     1022
 90
     1023
 90
     1024
 90
     1025
 90
     1026
 90
     1027
 90
     1028
 90
     1029
 90
     1030
 90
     1031
 90
     1032
 90
     1033
 90
     1034
 90
     1035
 90
     1036
 90
     1037
 90
     1038
 90
     1039
 90
     1040
 90
     1041
 90
     1042
 90
     1043
 90
     1044
 90
     1045
 90
     1046
 90
     1047
 90
     1048
 90
     1049
 90
     1050
 90
     1051
 90
     1052
 90
     1053
 90
     1054
 90
     1055
 90
     1056
 90
     1057
 90
     1058
 90
     1059
 90
     1060
 90
     1061
 90
     1062
 90
     1063
 90
     1064
 90
     1065
 90
     1066
 90
     1067
 90
     1068
 90
     1069
 90
     1070
 90
     1071
 90
     1072
 90
     1073
 90
     1074
 90
     1075
 90
     1076
 90
     1077
 90
     1078
 90
     1079
 90
     1080
 90
     1081
 90
     1082
 90
     1083
 90
     1084
 90
     1085
 90
     1086
 90
     1087
 90
     1088
 90
     1089
 90
     1090
 90
     1091
 90
     1092
 90
     1093
 90
     1094
 90
     1095
 90
     1096
 90
     1097
 90
     1098
 90
     1099
 90
     1100
 90
     1101
 90
     1102
 90
     1103
 90
     1104
 90
     1105
 90
     1106
 90
     1107
 90
     1108
 90
     1109
 90
     1110
 90
     1111
 90
     1112
 90
     1113
 90
     1114
 90
     1115
 90
     1116
 90
     1117
 90
     1118
 90
     1119
 90
     1120
 90
     1121
 90
     1122
 90
     1123
 90
     1124
 90
     1125
 90
     1126
 90
     1127
 90
     1128
 90
     1129
 90
     1130
 90
     1131
 90
     1132
 90
     1133
 90
     1134
 90
     1135
 90
     1136
 90
     1137
 90
     1138
 90
     1139
 90
     1140
 90
     1141
 90
     1142
 90
     1143
 90
     1144
 90
     1145
 90
     1146
 90
     1147
 90
     1148
 90
     1149
 90
     1150
 90
     1151
 90
     1152
 90
     1153
 90
     1154
 90
     1155
 90
     1156
 90
     1157
 90
     1158
 90
     1159
 90
     1160
 90
     1161
 90
     1162
 90
     1163
 90
     1164
 90
     1165
 90
     1166
 90
     1167
 90
     1168
 90
     1169
 90
     1170
 90
     1171
 90
     1172
 90
     1173
 90
     1174
 90
     1175
 90
     1176
 90
     1177
 90
     1178
 90
     1179
 90
     1180
 90
     1181
 90
     1182
 90
     1183
 90
     1184
 90
     1185
 90
     1186
 90
     1187
 90
     1188
 90
     1189
 90
     1190
 90
     1191
 90
     1192
 90
     1193
 90
     1194
 90
     1195
 90
     1196
 90
     1197
 90
     1198
 90
     1199
 90
     1200
 90
     1201
 90
     1202
 90
     1203
 90
     1204
 90
     1205
 90
     1206
 90
     1207
 90
     1208
 90
     1209
 90
     1210
 90
     1211
 90
     1212
 90
     1213
 90
     1214
 90
     1215
 90
     1216
 90
     1217
 90
     1218
 90
     1219
 90
     1220
 90
     1221
 90
     1222
 90
     1223
 90
     1224
 90
     1225
 90
     1226
 90
     1227
 90
     1228
 90
     1229
 90
     1230
 90
     1231
 90
     1232
 90
     1233
 90
     1234
 90
     1235
 90
     1236
 90
     1237
 90
     1238
 90
     1239
 90
     1240
 90
     1241
 90
     1242
 90
     1243
 90
     1244
 90
     1245
 90
     1246
 90
     1247
 90
     1248
 90
     1249
 90
     1250
 90
     1251
 90
     1252
 90
     1253
 90
     1254
 90
     1255
 90
     1256
 90
     1257
 90
     1258
 90
     1259
 90
     1260
 90
        0
 90
        0
290
     0
  0
XRECORD
  5
1A5
102
{ACAD_REACTORS
330
C
102
}
330
C
100
AcDbXrecord
280
     1
300
ACD
300
2022
300

  0
DICTIONARY
  5
73
102
{ACAD_REACTORS
330
C
102
}
330
C
100
AcDbDictionary
281
     1
  0
DICTIONARY
  5
1AB
102
{ACAD_REACTORS
330
C
102
}
330
C
100
AcDbDictionary
281
     1
  3
Imperial24
350
1AC
  3
Metric50
350
224
  0
DICTIONARY
  5
D
102
{ACAD_REACTORS
330
C
102
}
330
C
100
AcDbDictionary
281
     1
  0
DICTIONARY
  5
1A
102
{ACAD_REACTORS
330
C
102
}
330
C
100
AcDbDictionary
281
     1
  3
Layout1
350
59
  3
Layout2
350
5E
  3
Model
350
22
  0
DICTIONARY
  5
72
102
{ACAD_REACTORS
330
C
102
}
330
C
100
AcDbDictionary
281
     1
  3
ByBlock
350
97
  3
ByLayer
350
96
  3
Global
350
98
  0
DICTIONARY
  5
D7
102
{ACAD_REACTORS
330
C
102
}
330
C
100
AcDbDictionary
281
     1
  3
Standard
350
D8
  0
DICTIONARY
  5
17
102
{ACAD_REACTORS
330
C
102
}
330
C
100
AcDbDictionary
281
     1
  3
Standard
350
18
  0
DICTIONARY
  5
19
102
{ACAD_REACTORS
330
C
102
}
330
C
100
AcDbDictionary
281
     1
  0
ACDBDICTIONARYWDFLT
  5
E
102
{ACAD_REACTORS
330
C
102
}
330
C
100
AcDbDictionary
281
     1
  3
Normal
350
F
100
AcDbDictionaryWithDefault
340
F
  0
DICTIONARY
  5
B6
102
{ACAD_REACTORS
330
C
102
}
330
C
100
AcDbDictionary
281
     1
  3
*A1
350
2283
  3
A0
350
B7
  3
A1
350
124
  3
A2
350
125
  3
A3
350
126
  3
A4
350
127
  3
A5
350
128
  3
A6
350
129
  3
A7
350
12A
  3
A8
350
12B
  3
A9
350
12C
  3
B0
350
12D
  3
B1
350
12E
  3
B2
350
12F
  3
B3
350
130
  3
B4
350
131
  3
B5
350
132
  3
B6
350
133
  3
B7
350
134
  3
B8
350
135
  3
B9
350
136
  3
C0
350
137
  3
C1
350
138
  3
C2
350
139
  3
C3
350
13A
  3
C4
350
13B
  3
C5
350
13C
  3
C6
350
13D
  3
C7
350
13E
  3
C8
350
13F
  3
C9
350
140
  3
D0
350
141
  3
D1
350
142
  3
D2
350
143
  0
DICTIONARY
  5
1A8
102
{ACAD_REACTORS
330
C
102
}
330
C
100
AcDbDictionary
281
     1
  3
Imperial24
350
1AA
  3
Metric50
350
223
  0
DICTIONARY
  5
86
102
{ACAD_REACTORS
330
C
102
}
330
C
100
AcDbDictionary
281
     1
  3
Standard
350
87
  0
DICTIONARY
  5
99
102
{ACAD_REACTORS
330
C
102
}
330
C
100
AcDbDictionary
281
     1
  3
2dWireframe
350
9F
  3
3dWireframe
350
22946
  3
Basic
350
9E
  3
Brighten
350
A5
  3
ColorChange
350
A9
  3
Conceptual
350
A2
  3
Dim
350
A4
  3
EdgeColorOff
350
175
  3
Facepattern
350
A8
  3
Flat
350
9A
  3
FlatWithEdges
350
9B
  3
Gouraud
350
9C
  3
GouraudWithEdges
350
9D
  3
Hidden
350
A1
  3
JitterOff
350
173
  3
Linepattern
350
A7
  3
OverhangOff
350
174
  3
Realistic
350
A3
  3
Shaded
350
182
  3
Shaded with edges
350
181
  3
Shades of Gray
350
17E
  3
Sketchy
350
17F
  3
Thicken
350
A6
  3
Wireframe
350
A0
  3
X-Ray
350
180
  0
XRECORD
  5
F86C7
102
{ACAD_REACTORS
330
C
102
}
330
C
100
AcDbXrecord
280
     1
 90
        1
330
87
  0
DICTIONARY
  5
502C5
102
{ACAD_REACTORS
330
C
102
}
330
C
100
AcDbDictionary
281
     2
  3
#COMPAREDIFFTOTAL
350
502C6
  3
#REVCLOUDAPPROXARCLEN
350
502C7
  3
ANNOALLVISIBLE
350
502C8
  3
CANNOSCALE
350
502C9
  3
CMLEADERSTYLE
350
502CA
  3
CTABLESTYLE
350
502CB
  3
CVIEWDETAILSTYLE
350
502CC
  3
CVIEWSECTIONSTYLE
350
502CD
  3
DIMADEC
350
502CE
  3
DIMASSOC
350
502CF
  3
DWFFRAME
350
502D0
  3
HIDETEXT
350
502D1
  3
HPCOLOR
350
502D2
  3
HPLAYER
350
502D3
  3
HPTRANSPARENCY
350
502D4
  3
INDEXCTL
350
502D5
  3
LAYEREVAL
350
502D6
  3
LAYERNOTIFY
350
502D7
  3
LIGHTINGUNITS
350
502D8
  3
MLEADERSCALE
350
502D9
  3
MSLTSCALE
350
502DA
  3
MSOLESCALE
350
502DB
  3
PDFFRAME
350
502DC
  3
POINTCLOUDCLIPFRAME
350
502DD
  3
PROJECTNAME
350
502DE
  3
SOLIDHIST
350
502DF
  3
SORTENTS
350
502E0
  0
DICTIONARY
  5
22D1
102
{ACAD_REACTORS
330
C
102
}
330
C
100
AcDbDictionary
281
     1
  0
DICTIONARY
  5
18F
102
{ACAD_REACTORS
330
18E
102
}
330
18E
100
AcDbDictionary
281
     1
  0
SORTENTSTABLE
  5
28E
102
{ACAD_REACTORS
330
15D
102
}
330
15D
100
AcDbSortentsTable
330
1F
  0
ACDBDETAILVIEWSTYLE
  5
1AC
102
{ACAD_REACTORS
330
1AB
102
}
330
1AB
100
AcDbModelDocViewStyle
 70
     0
  3
Imperial24
290
     0
300
Imperial24
 90
        0
100
AcDbDetailViewStyle
 70
     0
 71
     0
 90
        3
 71
     1
340
11
 62
   256
 40
0.24
340
0
 62
   256
 40
0.24
300

 40
0.36
280
     3
 71
     2
340
16
 90
       25
 62
   256
 71
     3
340
11
 62
   256
 40
0.24
 90
        1
 40
0.75
 90
        1
300
%<\AcVar ViewType \f "%tc1">% %<\AcVar ViewDetailId>%\PSCALE %<\AcVar ViewScale \f "%sn">%
 71
     4
340
16
 90
       25
 62
   256
340
16
 90
       25
 62
   256
280
     0
  0
ACDBDETAILVIEWSTYLE
  5
224
102
{ACAD_REACTORS
330
1AB
102
}
330
1AB
100
AcDbModelDocViewStyle
 70
     0
  3
Metric50
290
     0
300
Metric50
 90
        0
100
AcDbDetailViewStyle
 70
     0
 71
     0
 90
        3
 71
     1
340
11
 62
   256
 40
5.0
340
0
 62
   256
 40
5.0
300

 40
0.0
280
     1
 71
     2
340
16
 90
       25
 62
   256
 71
     3
340
11
 62
   256
 40
5.0
 90
        0
 40
15.0
 90
        1
300
%<\AcVar ViewDetailId>% (%<\AcVar ViewScale \f "%sn">%)
 71
     4
340
16
 90
       25
 62
   256
340
16
 90
       25
 62
   256
280
     0
  0
LAYOUT
  5
59
102
{ACAD_REACTORS
330
1A
102
}
330
1A
100
AcDbPlotSettings
  1

  2
None
  4

  6

 40
0.0
 41
0.0
 42
0.0
 43
0.0
 44
0.0
 45
0.0
 46
0.0
 47
0.0
 48
0.0
 49
0.0
140
0.0
141
0.0
142
1.0
143
1.0
 70
   688
 72
     0
 73
     0
 74
     5
  7

 75
    16
147
1.0
 76
     0
 77
     2
 78
   300
148
0.0
149
0.0
100
AcDbLayout
  1
Layout1
 70
     1
 71
     1
 10
0.0
 20
0.0
 11
12.0
 21
9.0
 12
0.0
 22
0.0
 32
0.0
 14
0.0
 24
0.0
 34
0.0
 15
0.0
 25
0.0
 35
0.0
146
0.0
 13
0.0
 23
0.0
 33
0.0
 16
1.0
 26
0.0
 36
0.0
 17
0.0
 27
1.0
 37
0.0
 76
     0
330
58
  0
LAYOUT
  5
5E
102
{ACAD_REACTORS
330
1A
102
}
330
1A
100
AcDbPlotSettings
  1

  2
None
  4

  6

 40
0.0
 41
0.0
 42
0.0
 43
0.0
 44
0.0
 45
0.0
 46
0.0
 47
0.0
 48
0.0
 49
0.0
140
0.0
141
0.0
142
1.0
143
1.0
 70
   688
 72
     0
 73
     0
 74
     5
  7

 75
    16
147
1.0
 76
     0
 77
     2
 78
   300
148
0.0
149
0.0
100
AcDbLayout
  1
Layout2
 70
     1
 71
     2
 10
0.0
 20
0.0
 11
12.0
 21
9.0
 12
0.0
 22
0.0
 32
0.0
 14
0.0
 24
0.0
 34
0.0
 15
0.0
 25
0.0
 35
0.0
146
0.0
 13
0.0
 23
0.0
 33
0.0
 16
1.0
 26
0.0
 36
0.0
 17
0.0
 27
1.0
 37
0.0
 76
     0
330
5D
  0
LAYOUT
  5
22
102
{ACAD_XDICTIONARY
360
194
102
}
102
{ACAD_REACTORS
330
1A
102
}
330
1A
100
AcDbPlotSettings
  1

  2
none_device
  4
ANSI_A_(8.50_x_11.00_Inches)
  6

 40
6.349999904632568
 41
19.04999923706055
 42
6.350006103515625
 43
19.04998779296875
 44
215.8999938964844
 45
279.3999938964844
 46
0.0
 47
0.0
 48
0.0
 49
0.0
140
0.0
141
0.0
142
1.0
143
2.584895464708373
 70
 11952
 72
     0
 73
     1
 74
     0
  7

 75
     0
147
0.3868628397755418
 76
     0
 77
     2
 78
   300
148
0.0
149
0.0
100
AcDbLayout
  1
Model
 70
     1
 71
     0
 10
0.0
 20
0.0
 11
12.0
 21
9.0
 12
0.0
 22
0.0
 32
0.0
 14
0.0
 24
0.0
 34
0.0
 15
0.0
 25
0.0
 35
0.0
146
0.0
 13
0.0
 23
0.0
 33
0.0
 16
1.0
 26
0.0
 36
0.0
 17
0.0
 27
1.0
 37
0.0
 76
     0
330
1F
331
94
  0
MATERIAL
  5
97
102
{ACAD_XDICTIONARY
360
188
102
}
102
{ACAD_REACTORS
330
72
102
}
330
72
100
AcDbMaterial
  1
ByBlock
 94
       63
  0
MATERIAL
  5
96
102
{ACAD_XDICTIONARY
360
186
102
}
102
{ACAD_REACTORS
330
72
102
}
330
72
100
AcDbMaterial
  1
ByLayer
 94
       63
  0
MATERIAL
  5
98
102
{ACAD_XDICTIONARY
360
110
102
}
102
{ACAD_REACTORS
330
72
102
}
330
72
100
AcDbMaterial
  1
Global
 43
0.0208000000566244
 43
0.0
 43
0.0
 43
0.0
 43
0.0
 43
0.0208000000566244
 43
0.0
 43
0.0
 43
0.0
 43
0.0
 43
1.0
 43
0.0
 43
0.0
 43
0.0
 43
0.0
 43
1.0
 49
0.0208000000566244
 49
0.0
 49
0.0
 49
0.0
 49
0.0
 49
0.0208000000566244
 49
0.0
 49
0.0
 49
0.0
 49
0.0
 49
1.0
 49
0.0
 49
0.0
 49
0.0
 49
0.0
 49
1.0
142
0.0208000000566244
142
0.0
142
0.0
142
0.0
142
0.0
142
0.0208000000566244
142
0.0
142
0.0
142
0.0
142
0.0
142
1.0
142
0.0
142
0.0
142
0.0
142
0.0
142
1.0
144
0.0208000000566244
144
0.0
144
0.0
144
0.0
144
0.0
144
0.0208000000566244
144
0.0
144
0.0
144
0.0
144
0.0
144
1.0
144
0.0
144
0.0
144
0.0
144
0.0
144
1.0
 94
       63
1001
ACAD
1070
    -1
1070
     3
1070
     0
1000

1071
        0
1070
     0
  0
MLEADERSTYLE
  5
D8
102
{ACAD_REACTORS
330
D7
102
}
330
D7
100
AcDbMLeaderStyle
179
     2
170
     2
171
     1
172
     0
 90
        2
 40
0.0
 41
0.0
173
     1
 91
-1056964608
340
14
 92
       -2
290
     1
 42
0.09
291
     1
 43
0.36
  3
Standard
 44
0.18
300

342
11
174
     1
178
     1
175
     1
176
     0
 93
-1056964608
 45
0.18
292
     0
297
     0
 46
0.18
 94
-1056964608
 47
1.0
 49
1.0
140
1.0
293
     1
141
0.0
294
     1
177
     0
142
1.0
295
     0
296
     0
143
0.125
271
     0
272
     9
273
     9
298
     0
  0
MLINESTYLE
  5
18
102
{ACAD_REACTORS
330
17
102
}
330
17
100
AcDbMlineStyle
  2
STANDARD
 70
     0
  3

 62
   256
 51
90.0
 52
90.0
 71
     2
 49
0.5
 62
   256
  6
BYLAYER
 49
-0.5
 62
   256
  6
BYLAYER
  0
ACDBPLACEHOLDER
  5
F
102
{ACAD_REACTORS
330
E
102
}
330
E
  0
SCALE
  5
2283
102
{ACAD_REACTORS
330
B6
102
}
330
B6
100
AcDbScale
 70
     0
300
1:75
140
1.0
141
75.0
290
     0
  0
SCALE
  5
B7
102
{ACAD_REACTORS
330
B6
102
}
330
B6
100
AcDbScale
 70
     0
300
1:1
140
1.0
141
1.0
290
     1
  0
SCALE
  5
124
102
{ACAD_REACTORS
330
B6
102
}
330
B6
100
AcDbScale
 70
     0
300
1:2
140
1.0
141
2.0
290
     0
  0
SCALE
  5
125
102
{ACAD_REACTORS
330
B6
102
}
330
B6
100
AcDbScale
 70
     0
300
1:4
140
1.0
141
4.0
290
     0
  0
SCALE
  5
126
102
{ACAD_REACTORS
330
B6
102
}
330
B6
100
AcDbScale
 70
     0
300
1:5
140
1.0
141
5.0
290
     0
  0
SCALE
  5
127
102
{ACAD_REACTORS
330
B6
102
}
330
B6
100
AcDbScale
 70
     0
300
1:8
140
1.0
141
8.0
290
     0
  0
SCALE
  5
128
102
{ACAD_REACTORS
330
B6
102
}
330
B6
100
AcDbScale
 70
     0
300
1:10
140
1.0
141
10.0
290
     0
  0
SCALE
  5
129
102
{ACAD_REACTORS
330
B6
102
}
330
B6
100
AcDbScale
 70
     0
300
1:16
140
1.0
141
16.0
290
     0
  0
SCALE
  5
12A
102
{ACAD_REACTORS
330
B6
102
}
330
B6
100
AcDbScale
 70
     0
300
1:20
140
1.0
141
20.0
290
     0
  0
SCALE
  5
12B
102
{ACAD_REACTORS
330
B6
102
}
330
B6
100
AcDbScale
 70
     0
300
1:30
140
1.0
141
30.0
290
     0
  0
SCALE
  5
12C
102
{ACAD_REACTORS
330
B6
102
}
330
B6
100
AcDbScale
 70
     0
300
1:40
140
1.0
141
40.0
290
     0
  0
SCALE
  5
12D
102
{ACAD_REACTORS
330
B6
102
}
330
B6
100
AcDbScale
 70
     0
300
1:50
140
1.0
141
50.0
290
     0
  0
SCALE
  5
12E
102
{ACAD_REACTORS
330
B6
102
}
330
B6
100
AcDbScale
 70
     0
300
1:100
140
1.0
141
100.0
290
     0
  0
SCALE
  5
12F
102
{ACAD_REACTORS
330
B6
102
}
330
B6
100
AcDbScale
 70
     0
300
2:1
140
2.0
141
1.0
290
     0
  0
SCALE
  5
130
102
{ACAD_REACTORS
330
B6
102
}
330
B6
100
AcDbScale
 70
     0
300
4:1
140
4.0
141
1.0
290
     0
  0
SCALE
  5
131
102
{ACAD_REACTORS
330
B6
102
}
330
B6
100
AcDbScale
 70
     0
300
8:1
140
8.0
141
1.0
290
     0
  0
SCALE
  5
132
102
{ACAD_REACTORS
330
B6
102
}
330
B6
100
AcDbScale
 70
     0
300
10:1
140
10.0
141
1.0
290
     0
  0
SCALE
  5
133
102
{ACAD_REACTORS
330
B6
102
}
330
B6
100
AcDbScale
 70
     0
300
100:1
140
100.0
141
1.0
290
     0
  0
SCALE
  5
134
102
{ACAD_REACTORS
330
B6
102
}
330
B6
100
AcDbScale
 70
     0
300
1/128" = 1'-0"
140
0.0078125
141
12.0
290
     0
  0
SCALE
  5
135
102
{ACAD_REACTORS
330
B6
102
}
330
B6
100
AcDbScale
 70
     0
300
1/64" = 1'-0"
140
0.015625
141
12.0
290
     0
  0
SCALE
  5
136
102
{ACAD_REACTORS
330
B6
102
}
330
B6
100
AcDbScale
 70
     0
300
1/32" = 1'-0"
140
0.03125
141
12.0
290
     0
  0
SCALE
  5
137
102
{ACAD_REACTORS
330
B6
102
}
330
B6
100
AcDbScale
 70
     0
300
1/16" = 1'-0"
140
0.0625
141
12.0
290
     0
  0
SCALE
  5
138
102
{ACAD_REACTORS
330
B6
102
}
330
B6
100
AcDbScale
 70
     0
300
3/32" = 1'-0"
140
0.09375
141
12.0
290
     0
  0
SCALE
  5
139
102
{ACAD_REACTORS
330
B6
102
}
330
B6
100
AcDbScale
 70
     0
300
1/8" = 1'-0"
140
0.125
141
12.0
290
     0
  0
SCALE
  5
13A
102
{ACAD_REACTORS
330
B6
102
}
330
B6
100
AcDbScale
 70
     0
300
3/16" = 1'-0"
140
0.1875
141
12.0
290
     0
  0
SCALE
  5
13B
102
{ACAD_REACTORS
330
B6
102
}
330
B6
100
AcDbScale
 70
     0
300
1/4" = 1'-0"
140
0.25
141
12.0
290
     0
  0
SCALE
  5
13C
102
{ACAD_REACTORS
330
B6
102
}
330
B6
100
AcDbScale
 70
     0
300
3/8" = 1'-0"
140
0.375
141
12.0
290
     0
  0
SCALE
  5
13D
102
{ACAD_REACTORS
330
B6
102
}
330
B6
100
AcDbScale
 70
     0
300
1/2" = 1'-0"
140
0.5
141
12.0
290
     0
  0
SCALE
  5
13E
102
{ACAD_REACTORS
330
B6
102
}
330
B6
100
AcDbScale
 70
     0
300
3/4" = 1'-0"
140
0.75
141
12.0
290
     0
  0
SCALE
  5
13F
102
{ACAD_REACTORS
330
B6
102
}
330
B6
100
AcDbScale
 70
     0
300
1" = 1'-0"
140
1.0
141
12.0
290
     0
  0
SCALE
  5
140
102
{ACAD_REACTORS
330
B6
102
}
330
B6
100
AcDbScale
 70
     0
300
1-1/2" = 1'-0"
140
1.5
141
12.0
290
     0
  0
SCALE
  5
141
102
{ACAD_REACTORS
330
B6
102
}
330
B6
100
AcDbScale
 70
     0
300
3" = 1'-0"
140
3.0
141
12.0
290
     0
  0
SCALE
  5
142
102
{ACAD_REACTORS
330
B6
102
}
330
B6
100
AcDbScale
 70
     0
300
6" = 1'-0"
140
6.0
141
12.0
290
     0
  0
SCALE
  5
143
102
{ACAD_REACTORS
330
B6
102
}
330
B6
100
AcDbScale
 70
     0
300
1'-0" = 1'-0"
140
12.0
141
12.0
290
     0
  0
ACDBSECTIONVIEWSTYLE
  5
1AA
102
{ACAD_REACTORS
330
1A8
102
}
330
1A8
100
AcDbModelDocViewStyle
 70
     0
  3
Imperial24
290
     0
300
Imperial24
 90
        0
100
AcDbSectionViewStyle
 70
     0
 71
     0
 90
       78
 71
     1
340
11
 62
   256
 40
0.24
340
0
340
0
 62
   256
 40
0.24
300
I, O, Q, S, X, Z
 40
0.48
 90
        3
 40
0.18
 90
        1
 71
     2
340
16
 90
       25
 62
   256
340
16
 90
       50
 62
   256
 40
0.24
 40
0.0
 40
0.24
 71
     3
340
11
 62
   256
 40
0.24
 90
        1
 40
0.75
 90
        1
300
%<\AcVar ViewType \f "%tc1">% %<\AcVar ViewSectionStartId>%-%<\AcVar ViewSectionEndId>%\PSCALE %<\AcVar ViewScale \f "%sn">%
 71
     4
 62
   256
 62
   257
300
ANSI31
 40
1.0
 90
        0
290
     0
290
     0
 90
        6
 40
0.0
 40
1.570796326794896
 40
0.2617993877991494
 40
1.308996938995747
 40
-0.2617993877991494
 40
1.832595714594046
  0
ACDBSECTIONVIEWSTYLE
  5
223
102
{ACAD_REACTORS
330
1A8
102
}
330
1A8
100
AcDbModelDocViewStyle
 70
     0
  3
Metric50
290
     0
300
Metric50
 90
        0
100
AcDbSectionViewStyle
 70
     0
 71
     0
 90
      102
 71
     1
340
11
 62
   256
 40
5.0
340
0
340
0
 62
   256
 40
5.0
300
I, O, Q, S, X, Z
 40
10.0
 90
        0
 40
2.5
 90
        0
 71
     2
340
16
 90
       25
 62
   256
340
16
 90
       50
 62
   256
 40
5.0
 40
2.5
 40
5.0
 71
     3
340
11
 62
   256
 40
5.0
 90
        0
 40
15.0
 90
        1
300
%<\AcVar ViewSectionStartId>%-%<\AcVar ViewSectionEndId>% (%<\AcVar ViewScale \f "%sn">%)
 71
     4
 62
   256
 62
   257
300
ANSI31
 40
1.0
 90
        0
290
     0
290
     0
 90
        6
 40
0.0
 40
1.570796326794896
 40
0.2617993877991494
 40
1.308996938995747
 40
-0.2617993877991494
 40
1.832595714594046
  0
TABLESTYLE
  5
87
102
{ACAD_XDICTIONARY
360
104
102
}
102
{ACAD_REACTORS
330
86
102
}
330
86
100
AcDbTableStyle
280
     0
  3
Standard
 70
     0
 71
     0
 40
0.06
 41
0.06
280
     0
281
     0
  7
Standard
140
0.18
170
     2
 62
     0
 63
     7
283
     0
 90
      512
 91
        0
  1

274
    -2
284
     1
 64
     0
275
    -2
285
     1
 65
     0
276
    -2
286
     1
 66
     0
277
    -2
287
     1
 67
     0
278
    -2
288
     1
 68
     0
279
    -2
289
     1
 69
     0
  7
Standard
140
0.25
170
     5
 62
     0
 63
     7
283
     0
 90
      512
 91
        0
  1

274
    -2
284
     1
 64
     0
275
    -2
285
     1
 65
     0
276
    -2
286
     1
 66
     0
277
    -2
287
     1
 67
     0
278
    -2
288
     1
 68
     0
279
    -2
289
     1
 69
     0
  7
Standard
140
0.18
170
     5
 62
     0
 63
     7
283
     0
 90
      512
 91
        0
  1

274
    -2
284
     1
 64
     0
275
    -2
285
     1
 65
     0
276
    -2
286
     1
 66
     0
277
    -2
287
     1
 67
     0
278
    -2
288
     1
 68
     0
279
    -2
289
     1
 69
     0
  0
VISUALSTYLE
  5
9F
102
{ACAD_REACTORS
330
99
102
}
330
99
100
AcDbVisualStyle
  2
2dWireframe
 70
     4
177
     3
291
     0
 70
    58
 90
        0
176
     1
 90
        2
176
     1
 90
        1
176
     1
 90
        0
176
     1
 40
0.6
176
     1
 40
30.0
176
     1
 62
     7
420
 16777215
176
     1
 90
        1
176
     1
 90
        4
176
     1
 62
     7
176
     1
 62
   257
176
     1
 90
        1
176
     1
 90
        1
176
     1
 40
1.0
176
     1
 90
        0
176
     1
 62
   257
176
     1
 40
1.0
176
     1
 90
        1
176
     1
 90
        6
176
     1
 90
        2
176
     1
 62
     7
176
     1
 90
        5
176
     1
 90
        0
176
     1
 90
        0
176
     1
290
     0
176
     1
 90
        1
176
     1
 40
0.0
176
     1
 90
        0
176
     1
290
     1
176
     1
290
     1
176
     1
290
     0
176
     1
290
     0
176
     1
290
     0
176
     1
290
     0
176
     1
290
     0
176
     1
290
     0
176
     1
290
     0
176
     1
 90
       50
176
     1
 40
0.0
176
     1
 40
1.0
176
     1
 90
        0
176
     1
 62
    18
420
        0
176
     1
 90
       50
176
     1
 90
        3
176
     1
 62
     5
420
      255
176
     1
290
     0
176
     1
 90
       50
176
     1
 90
       50
176
     1
 90
       50
176
     1
290
     0
176
     1
 90
       50
176
     1
 62
   256
176
     0
 40
1.0
176
     0
 90
        2
176
     1
  1
strokes_ogs.tif
176
     1
290
     0
176
     1
 40
1.0
176
     1
 40
1.0
176
     1
  0
VISUALSTYLE
  5
22946
102
{ACAD_REACTORS
330
99
102
}
330
99
100
AcDbVisualStyle
  2
3dWireframe
 70
     5
177
     3
291
     0
 70
    58
 90
        0
176
     1
 90
        2
176
     1
 90
        0
176
     1
 90
        0
176
     1
 40
0.6
176
     1
 40
30.0
176
     1
 62
     7
176
     1
 90
        1
176
     1
 90
        4
176
     1
 62
     7
176
     1
 62
   257
176
     1
 90
        1
176
     1
 90
        1
176
     1
 40
1.0
176
     1
 90
        0
176
     1
 62
   257
176
     1
 40
1.0
176
     1
 90
        1
176
     1
 90
        6
176
     1
 90
        2
176
     1
 62
     7
176
     1
 90
        5
176
     1
 90
        0
176
     1
 90
        0
176
     1
290
     0
176
     1
 90
        1
176
     1
 40
0.0
176
     1
 90
        0
176
     1
290
     0
176
     1
290
     1
176
     1
290
     1
176
     1
290
     0
176
     1
290
     0
176
     1
290
     0
176
     1
290
     0
176
     1
290
     0
176
     1
290
     0
176
     1
 90
       50
176
     1
 40
0.0
176
     1
 40
1.0
176
     1
 90
        0
176
     1
 62
    18
420
        0
176
     1
 90
       50
176
     1
 90
        3
176
     1
 62
     5
420
      255
176
     1
290
     0
176
     1
 90
       50
176
     1
 90
       50
176
     1
 90
       50
176
     1
290
     0
176
     1
 90
       50
176
     1
 62
   256
176
     0
 40
1.0
176
     0
 90
        2
176
     1
  1
strokes_ogs.tif
176
     1
290
     0
176
     1
 40
1.0
176
     1
 40
1.0
176
     1
  0
VISUALSTYLE
  5
9E
102
{ACAD_REACTORS
330
99
102
}
330
99
100
AcDbVisualStyle
  2
Basic
 70
     7
177
     3
291
     1
 70
    58
 90
        1
176
     1
 90
        0
176
     1
 90
        1
176
     1
 90
        0
176
     1
 40
0.6
176
     1
 40
30.0
176
     1
 62
     7
420
 16777215
176
     1
 90
        0
176
     1
 90
        4
176
     1
 62
     7
176
     1
 62
   257
176
     1
 90
        1
176
     1
 90
        1
176
     1
 40
1.0
176
     1
 90
        8
176
     1
 62
     7
176
     1
 40
1.0
176
     1
 90
        1
176
     1
 90
        6
176
     1
 90
        2
176
     1
 62
     7
176
     1
 90
        5
176
     1
 90
        0
176
     1
 90
        0
176
     1
290
     0
176
     1
 90
        1
176
     1
 40
0.0
176
     1
 90
        0
176
     1
290
     0
176
     1
290
     1
176
     1
290
     1
176
     1
290
     0
176
     1
290
     0
176
     1
290
     0
176
     1
290
     0
176
     1
290
     0
176
     1
290
     0
176
     1
 90
       50
176
     1
 40
0.0
176
     1
 40
1.0
176
     1
 90
        0
176
     1
 62
    18
420
        0
176
     1
 90
       50
176
     1
 90
        3
176
     1
 62
     5
420
      255
176
     1
290
     0
176
     1
 90
       50
176
     1
 90
       50
176
     1
 90
       50
176
     1
290
     0
176
     1
 90
       50
176
     1
 62
   256
176
     0
 40
1.0
176
     0
 90
        2
176
     1
  1
strokes_ogs.tif
176
     1
290
     0
176
     1
 40
1.0
176
     1
 40
1.0
176
     1
  0
VISUALSTYLE
  5
A5
102
{ACAD_REACTORS
330
99
102
}
330
99
100
AcDbVisualStyle
  2
Brighten
 70
    12
177
     3
291
     1
 70
    58
 90
        2
176
     1
 90
        2
176
     1
 90
        1
176
     1
 90
        0
176
     1
 40
0.6
176
     1
 40
30.0
176
     1
 62
     7
420
 16777215
176
     1
 90
        1
176
     1
 90
        4
176
     1
 62
     7
176
     1
 62
   257
176
     1
 90
        1
176
     1
 90
        1
176
     1
 40
1.0
176
     1
 90
        8
176
     1
 62
     7
176
     1
 40
1.0
176
     1
 90
        1
176
     1
 90
        6
176
     1
 90
        2
176
     1
 62
     7
176
     1
 90
        5
176
     1
 90
        0
176
     1
 90
        0
176
     1
290
     0
176
     1
 90
        1
176
     1
 40
50.0
176
     1
 90
        0
176
     1
290
     0
176
     1
290
     1
176
     1
290
     1
176
     1
290
     0
176
     1
290
     0
176
     1
290
     0
176
     1
290
     0
176
     1
290
     0
176
     1
290
     0
176
     1
 90
       50
176
     1
 40
0.0
176
     1
 40
1.0
176
     1
 90
        0
176
     1
 62
    18
420
        0
176
     1
 90
       50
176
     1
 90
        3
176
     1
 62
     5
420
      255
176
     1
290
     0
176
     1
 90
       50
176
     1
 90
       50
176
     1
 90
       50
176
     1
290
     0
176
     1
 90
       50
176
     1
 62
   256
176
     0
 40
1.0
176
     0
 90
        2
176
     1
  1
strokes_ogs.tif
176
     1
290
     0
176
     1
 40
1.0
176
     1
 40
1.0
176
     1
  0
VISUALSTYLE
  5
A9
102
{ACAD_REACTORS
330
99
102
}
330
99
100
AcDbVisualStyle
  2
ColorChange
 70
    16
177
     3
291
     1
 70
    58
 90
        2
176
     1
 90
        2
176
     1
 90
        3
176
     1
 90
        0
176
     1
 40
0.6
176
     1
 40
30.0
176
     1
 62
     8
420
  8421504
176
     1
 90
        1
176
     1
 90
        4
176
     1
 62
     7
176
     1
 62
   257
176
     1
 90
        1
176
     1
 90
        1
176
     1
 40
1.0
176
     1
 90
        8
176
     1
 62
     8
420
  8421504
176
     1
 40
1.0
176
     1
 90
        1
176
     1
 90
        6
176
     1
 90
        2
176
     1
 62
     7
176
     1
 90
        5
176
     1
 90
        0
176
     1
 90
        0
176
     1
290
     0
176
     1
 90
        1
176
     1
 40
0.0
176
     1
 90
        0
176
     1
290
     0
176
     1
290
     1
176
     1
290
     1
176
     1
290
     0
176
     1
290
     0
176
     1
290
     0
176
     1
290
     0
176
     1
290
     0
176
     1
290
     0
176
     1
 90
       50
176
     1
 40
0.0
176
     1
 40
1.0
176
     1
 90
        0
176
     1
 62
    18
420
        0
176
     1
 90
       50
176
     1
 90
        3
176
     1
 62
     5
420
      255
176
     1
290
     0
176
     1
 90
       50
176
     1
 90
       50
176
     1
 90
       50
176
     1
290
     0
176
     1
 90
       50
176
     1
 62
   256
176
     0
 40
1.0
176
     0
 90
        2
176
     1
  1
strokes_ogs.tif
176
     1
290
     0
176
     1
 40
1.0
176
     1
 40
1.0
176
     1
  0
VISUALSTYLE
  5
A2
102
{ACAD_REACTORS
330
99
102
}
330
99
100
AcDbVisualStyle
  2
Conceptual
 70
     9
177
     3
291
     0
 70
    58
 90
        3
176
     1
 90
        2
176
     1
 90
        1
176
     1
 90
        0
176
     1
 40
0.6
176
     1
 40
30.0
176
     1
 62
     7
420
 16777215
176
     1
 90
        2
176
     1
 90
        2
176
     1
 62
     7
176
     1
 62
   257
176
     1
 90
        1
176
     1
 90
        1
176
     1
 40
40.0
176
     1
 90
        8
176
     1
 62
     7
176
     1
 40
1.0
176
     1
 90
        1
176
     1
 90
        6
176
     1
 90
        2
176
     1
 62
     7
176
     1
 90
        3
176
     1
 90
        0
176
     1
 90
        0
176
     1
290
     0
176
     1
 90
        1
176
     1
 40
0.0
176
     1
 90
        0
176
     1
290
     0
176
     1
290
     1
176
     1
290
     1
176
     1
290
     0
176
     1
290
     0
176
     1
290
     0
176
     1
290
     0
176
     1
290
     0
176
     1
290
     0
176
     1
 90
       50
176
     1
 40
0.0
176
     1
 40
1.0
176
     1
 90
        0
176
     1
 62
    18
420
        0
176
     1
 90
       50
176
     1
 90
        3
176
     1
 62
     5
420
      255
176
     1
290
     0
176
     1
 90
       50
176
     1
 90
       50
176
     1
 90
       50
176
     1
290
     0
176
     1
 90
       50
176
     1
 62
   256
176
     0
 40
1.0
176
     0
 90
        2
176
     1
  1
strokes_ogs.tif
176
     1
290
     0
176
     1
 40
1.0
176
     1
 40
1.0
176
     1
  0
VISUALSTYLE
  5
A4
102
{ACAD_REACTORS
330
99
102
}
330
99
100
AcDbVisualStyle
  2
Dim
 70
    11
177
     3
291
     1
 70
    58
 90
        2
176
     1
 90
        2
176
     1
 90
        1
176
     1
 90
        0
176
     1
 40
0.6
176
     1
 40
30.0
176
     1
 62
     7
420
 16777215
176
     1
 90
        1
176
     1
 90
        4
176
     1
 62
     7
176
     1
 62
   257
176
     1
 90
        1
176
     1
 90
        1
176
     1
 40
1.0
176
     1
 90
        8
176
     1
 62
     7
176
     1
 40
1.0
176
     1
 90
        1
176
     1
 90
        6
176
     1
 90
        2
176
     1
 62
     7
176
     1
 90
        5
176
     1
 90
        0
176
     1
 90
        0
176
     1
290
     0
176
     1
 90
        1
176
     1
 40
-50.0
176
     1
 90
        0
176
     1
290
     0
176
     1
290
     1
176
     1
290
     1
176
     1
290
     0
176
     1
290
     0
176
     1
290
     0
176
     1
290
     0
176
     1
290
     0
176
     1
290
     0
176
     1
 90
       50
176
     1
 40
0.0
176
     1
 40
1.0
176
     1
 90
        0
176
     1
 62
    18
420
        0
176
     1
 90
       50
176
     1
 90
        3
176
     1
 62
     5
420
      255
176
     1
290
     0
176
     1
 90
       50
176
     1
 90
       50
176
     1
 90
       50
176
     1
290
     0
176
     1
 90
       50
176
     1
 62
   256
176
     0
 40
1.0
176
     0
 90
        2
176
     1
  1
strokes_ogs.tif
176
     1
290
     0
176
     1
 40
1.0
176
     1
 40
1.0
176
     1
  0
VISUALSTYLE
  5
175
102
{ACAD_REACTORS
330
99
102
}
330
99
100
AcDbVisualStyle
  2
EdgeColorOff
 70
    22
177
     3
291
     1
 70
    58
 90
        2
176
     0
 90
        2
176
     0
 90
        0
176
     0
 90
        0
176
     0
 40
0.6
176
     0
 40
30.0
176
     0
 62
     7
420
 16777215
176
     0
 90
        1
176
     0
 90
        4
176
     0
 62
     7
176
     0
 62
   257
176
     0
 90
        1
176
     0
 90
        1
176
     0
 40
1.0
176
     0
 90
        8
176
     2
 62
     7
176
     0
 40
1.0
176
     0
 90
        1
176
     0
 90
        6
176
     0
 90
        2
176
     0
 62
     7
176
     0
 90
        5
176
     0
 90
        0
176
     0
 90
        0
176
     0
290
     0
176
     0
 90
        1
176
     0
 40
0.0
176
     0
 90
        0
176
     0
290
     0
176
     1
290
     1
176
     1
290
     1
176
     1
290
     0
176
     1
290
     0
176
     1
290
     0
176
     1
290
     0
176
     1
290
     0
176
     1
290
     0
176
     1
 90
       50
176
     1
 40
0.0
176
     1
 40
1.0
176
     1
 90
        0
176
     1
 62
    18
420
        0
176
     1
 90
       50
176
     1
 90
        3
176
     1
 62
     5
420
      255
176
     1
290
     0
176
     1
 90
       50
176
     1
 90
       50
176
     1
 90
       50
176
     1
290
     0
176
     1
 90
       50
176
     1
 62
   256
176
     0
 40
1.0
176
     0
 90
        2
176
     1
  1
strokes_ogs.tif
176
     1
290
     0
176
     1
 40
1.0
176
     1
 40
1.0
176
     1
  0
VISUALSTYLE
  5
A8
102
{ACAD_REACTORS
330
99
102
}
330
99
100
AcDbVisualStyle
  2
Facepattern
 70
    15
177
     3
291
     1
 70
    58
 90
        2
176
     1
 90
        2
176
     1
 90
        1
176
     1
 90
        0
176
     1
 40
0.6
176
     1
 40
30.0
176
     1
 62
     7
420
 16777215
176
     1
 90
        1
176
     1
 90
        4
176
     1
 62
     7
176
     1
 62
   257
176
     1
 90
        1
176
     1
 90
        1
176
     1
 40
1.0
176
     1
 90
        8
176
     1
 62
     7
176
     1
 40
1.0
176
     1
 90
        1
176
     1
 90
        6
176
     1
 90
        2
176
     1
 62
     7
176
     1
 90
        5
176
     1
 90
        0
176
     1
 90
        0
176
     1
290
     0
176
     1
 90
        1
176
     1
 40
0.0
176
     1
 90
        0
176
     1
290
     0
176
     1
290
     1
176
     1
290
     1
176
     1
290
     0
176
     1
290
     0
176
     1
290
     0
176
     1
290
     0
176
     1
290
     0
176
     1
290
     0
176
     1
 90
       50
176
     1
 40
0.0
176
     1
 40
1.0
176
     1
 90
        0
176
     1
 62
    18
420
        0
176
     1
 90
       50
176
     1
 90
        3
176
     1
 62
     5
420
      255
176
     1
290
     0
176
     1
 90
       50
176
     1
 90
       50
176
     1
 90
       50
176
     1
290
     0
176
     1
 90
       50
176
     1
 62
   256
176
     0
 40
1.0
176
     0
 90
        2
176
     1
  1
strokes_ogs.tif
176
     1
290
     0
176
     1
 40
1.0
176
     1
 40
1.0
176
     1
  0
VISUALSTYLE
  5
9A
102
{ACAD_REACTORS
330
99
102
}
330
99
100
AcDbVisualStyle
  2
Flat
 70
     0
177
     3
291
     1
 70
    58
 90
        2
176
     1
 90
        1
176
     1
 90
        1
176
     1
 90
        2
176
     1
 40
0.6
176
     1
 40
30.0
176
     1
 62
     7
420
 16777215
176
     1
 90
        0
176
     1
 90
        0
176
     1
 62
     7
176
     1
 62
   257
176
     1
 90
        1
176
     1
 90
        1
176
     1
 40
1.0
176
     1
 90
        8
176
     1
 62
     7
176
     1
 40
1.0
176
     1
 90
        1
176
     1
 90
        6
176
     1
 90
        2
176
     1
 62
     7
176
     1
 90
        5
176
     1
 90
        0
176
     1
 90
        0
176
     1
290
     0
176
     1
 90
       13
176
     1
 40
0.0
176
     1
 90
        0
176
     1
290
     0
176
     1
290
     1
176
     1
290
     1
176
     1
290
     0
176
     1
290
     0
176
     1
290
     0
176
     1
290
     0
176
     1
290
     0
176
     1
290
     0
176
     1
 90
       50
176
     1
 40
0.0
176
     1
 40
1.0
176
     1
 90
        0
176
     1
 62
    18
420
        0
176
     1
 90
       50
176
     1
 90
        3
176
     1
 62
     5
420
      255
176
     1
290
     0
176
     1
 90
       50
176
     1
 90
       50
176
     1
 90
       50
176
     1
290
     0
176
     1
 90
       50
176
     1
 62
   256
176
     0
 40
1.0
176
     0
 90
        2
176
     1
  1
strokes_ogs.tif
176
     1
290
     0
176
     1
 40
1.0
176
     1
 40
1.0
176
     1
  0
VISUALSTYLE
  5
9B
102
{ACAD_REACTORS
330
99
102
}
330
99
100
AcDbVisualStyle
  2
FlatWithEdges
 70
     1
177
     3
291
     1
 70
    58
 90
        2
176
     1
 90
        1
176
     1
 90
        1
176
     1
 90
        2
176
     1
 40
0.6
176
     1
 40
30.0
176
     1
 62
     7
420
 16777215
176
     1
 90
        1
176
     1
 90
        0
176
     1
 62
     7
176
     1
 62
   257
176
     1
 90
        1
176
     1
 90
        1
176
     1
 40
1.0
176
     1
 90
        0
176
     1
 62
   257
176
     1
 40
1.0
176
     1
 90
        1
176
     1
 90
        6
176
     1
 90
        2
176
     1
 62
     7
176
     1
 90
        5
176
     1
 90
        0
176
     1
 90
        0
176
     1
290
     0
176
     1
 90
       13
176
     1
 40
0.0
176
     1
 90
        0
176
     1
290
     0
176
     1
290
     1
176
     1
290
     1
176
     1
290
     0
176
     1
290
     0
176
     1
290
     0
176
     1
290
     0
176
     1
290
     0
176
     1
290
     0
176
     1
 90
       50
176
     1
 40
0.0
176
     1
 40
1.0
176
     1
 90
        0
176
     1
 62
    18
420
        0
176
     1
 90
       50
176
     1
 90
        3
176
     1
 62
     5
420
      255
176
     1
290
     0
176
     1
 90
       50
176
     1
 90
       50
176
     1
 90
       50
176
     1
290
     0
176
     1
 90
       50
176
     1
 62
   256
176
     0
 40
1.0
176
     0
 90
        2
176
     1
  1
strokes_ogs.tif
176
     1
290
     0
176
     1
 40
1.0
176
     1
 40
1.0
176
     1
  0
VISUALSTYLE
  5
9C
102
{ACAD_REACTORS
330
99
102
}
330
99
100
AcDbVisualStyle
  2
Gouraud
 70
     2
177
     3
291
     1
 70
    58
 90
        2
176
     1
 90
        2
176
     1
 90
        1
176
     1
 90
        2
176
     1
 40
0.6
176
     1
 40
30.0
176
     1
 62
     7
420
 16777215
176
     1
 90
        0
176
     1
 90
        0
176
     1
 62
     7
176
     1
 62
   257
176
     1
 90
        1
176
     1
 90
        1
176
     1
 40
1.0
176
     1
 90
        0
176
     1
 62
     7
176
     1
 40
1.0
176
     1
 90
        1
176
     1
 90
        6
176
     1
 90
        2
176
     1
 62
     7
176
     1
 90
        5
176
     1
 90
        0
176
     1
 90
        0
176
     1
290
     0
176
     1
 90
       13
176
     1
 40
0.0
176
     1
 90
        0
176
     1
290
     0
176
     1
290
     1
176
     1
290
     1
176
     1
290
     0
176
     1
290
     0
176
     1
290
     0
176
     1
290
     0
176
     1
290
     0
176
     1
290
     0
176
     1
 90
       50
176
     1
 40
0.0
176
     1
 40
1.0
176
     1
 90
        0
176
     1
 62
    18
420
        0
176
     1
 90
       50
176
     1
 90
        3
176
     1
 62
     5
420
      255
176
     1
290
     0
176
     1
 90
       50
176
     1
 90
       50
176
     1
 90
       50
176
     1
290
     0
176
     1
 90
       50
176
     1
 62
   256
176
     0
 40
1.0
176
     0
 90
        2
176
     1
  1
strokes_ogs.tif
176
     1
290
     0
176
     1
 40
1.0
176
     1
 40
1.0
176
     1
  0
VISUALSTYLE
  5
9D
102
{ACAD_REACTORS
330
99
102
}
330
99
100
AcDbVisualStyle
  2
GouraudWithEdges
 70
     3
177
     3
291
     1
 70
    58
 90
        2
176
     1
 90
        2
176
     1
 90
        1
176
     1
 90
        2
176
     1
 40
0.6
176
     1
 40
30.0
176
     1
 62
     7
420
 16777215
176
     1
 90
        1
176
     1
 90
        0
176
     1
 62
     7
176
     1
 62
   257
176
     1
 90
        1
176
     1
 90
        1
176
     1
 40
1.0
176
     1
 90
        0
176
     1
 62
   257
176
     1
 40
1.0
176
     1
 90
        1
176
     1
 90
        6
176
     1
 90
        2
176
     1
 62
     7
176
     1
 90
        5
176
     1
 90
        0
176
     1
 90
        0
176
     1
290
     0
176
     1
 90
       13
176
     1
 40
0.0
176
     1
 90
        0
176
     1
290
     0
176
     1
290
     1
176
     1
290
     1
176
     1
290
     0
176
     1
290
     0
176
     1
290
     0
176
     1
290
     0
176
     1
290
     0
176
     1
290
     0
176
     1
 90
       50
176
     1
 40
0.0
176
     1
 40
1.0
176
     1
 90
        0
176
     1
 62
    18
420
        0
176
     1
 90
       50
176
     1
 90
        3
176
     1
 62
     5
420
      255
176
     1
290
     0
176
     1
 90
       50
176
     1
 90
       50
176
     1
 90
       50
176
     1
290
     0
176
     1
 90
       50
176
     1
 62
   256
176
     0
 40
1.0
176
     0
 90
        2
176
     1
  1
strokes_ogs.tif
176
     1
290
     0
176
     1
 40
1.0
176
     1
 40
1.0
176
     1
  0
VISUALSTYLE
  5
A1
102
{ACAD_REACTORS
330
99
102
}
330
99
100
AcDbVisualStyle
  2
Hidden
 70
     6
177
     3
291
     0
 70
    58
 90
        1
176
     1
 90
        2
176
     1
 90
        2
176
     1
 90
        0
176
     1
 40
0.6
176
     1
 40
30.0
176
     1
 62
     7
420
 16777215
176
     1
 90
        2
176
     1
 90
        2
176
     1
 62
     7
176
     1
 62
   257
176
     1
 90
        2
176
     1
 90
        1
176
     1
 40
40.0
176
     1
 90
        0
176
     1
 62
   257
176
     1
 40
1.0
176
     1
 90
        1
176
     1
 90
        6
176
     1
 90
        2
176
     1
 62
     7
176
     1
 90
        3
176
     1
 90
        0
176
     1
 90
        0
176
     1
290
     0
176
     1
 90
        1
176
     1
 40
0.0
176
     1
 90
        0
176
     1
290
     0
176
     1
290
     1
176
     1
290
     1
176
     1
290
     0
176
     1
290
     0
176
     1
290
     0
176
     1
290
     0
176
     1
290
     0
176
     1
290
     0
176
     1
 90
       50
176
     1
 40
0.0
176
     1
 40
1.0
176
     1
 90
        0
176
     1
 62
    18
420
        0
176
     1
 90
       50
176
     1
 90
        3
176
     1
 62
     5
420
      255
176
     1
290
     0
176
     1
 90
       50
176
     1
 90
       50
176
     1
 90
       50
176
     1
290
     0
176
     1
 90
       50
176
     1
 62
   256
176
     0
 40
1.0
176
     0
 90
        2
176
     1
  1
strokes_ogs.tif
176
     1
290
     0
176
     1
 40
1.0
176
     1
 40
1.0
176
     1
  0
VISUALSTYLE
  5
173
102
{ACAD_REACTORS
330
99
102
}
330
99
100
AcDbVisualStyle
  2
JitterOff
 70
    20
177
     3
291
     1
 70
    58
 90
        2
176
     0
 90
        2
176
     0
 90
        0
176
     0
 90
        0
176
     0
 40
0.6
176
     0
 40
30.0
176
     0
 62
     7
420
 16777215
176
     0
 90
        1
176
     0
 90
        4
176
     0
 62
     7
176
     0
 62
   257
176
     0
 90
        1
176
     0
 90
        1
176
     0
 40
1.0
176
     0
 90
       10
176
     2
 62
     7
176
     0
 40
1.0
176
     0
 90
        1
176
     0
 90
        6
176
     0
 90
        2
176
     0
 62
     7
176
     0
 90
        5
176
     0
 90
        0
176
     0
 90
        0
176
     0
290
     0
176
     0
 90
        1
176
     0
 40
0.0
176
     0
 90
        0
176
     0
290
     0
176
     1
290
     1
176
     1
290
     1
176
     1
290
     0
176
     1
290
     0
176
     1
290
     0
176
     1
290
     0
176
     1
290
     0
176
     1
290
     0
176
     1
 90
       50
176
     1
 40
0.0
176
     1
 40
1.0
176
     1
 90
        0
176
     1
 62
    18
420
        0
176
     1
 90
       50
176
     1
 90
        3
176
     1
 62
     5
420
      255
176
     1
290
     0
176
     1
 90
       50
176
     1
 90
       50
176
     1
 90
       50
176
     1
290
     0
176
     1
 90
       50
176
     1
 62
   256
176
     0
 40
1.0
176
     0
 90
        2
176
     1
  1
strokes_ogs.tif
176
     1
290
     0
176
     1
 40
1.0
176
     1
 40
1.0
176
     1
  0
VISUALSTYLE
  5
A7
102
{ACAD_REACTORS
330
99
102
}
330
99
100
AcDbVisualStyle
  2
Linepattern
 70
    14
177
     3
291
     1
 70
    58
 90
        2
176
     1
 90
        2
176
     1
 90
        1
176
     1
 90
        0
176
     1
 40
0.6
176
     1
 40
30.0
176
     1
 62
     7
420
 16777215
176
     1
 90
        1
176
     1
 90
        4
176
     1
 62
     7
176
     1
 62
   257
176
     1
 90
        7
176
     1
 90
        7
176
     1
 40
1.0
176
     1
 90
        8
176
     1
 62
     7
176
     1
 40
1.0
176
     1
 90
        1
176
     1
 90
        6
176
     1
 90
        2
176
     1
 62
     7
176
     1
 90
        5
176
     1
 90
        0
176
     1
 90
        0
176
     1
290
     0
176
     1
 90
        1
176
     1
 40
0.0
176
     1
 90
        0
176
     1
290
     0
176
     1
290
     1
176
     1
290
     1
176
     1
290
     0
176
     1
290
     0
176
     1
290
     0
176
     1
290
     0
176
     1
290
     0
176
     1
290
     0
176
     1
 90
       50
176
     1
 40
0.0
176
     1
 40
1.0
176
     1
 90
        0
176
     1
 62
    18
420
        0
176
     1
 90
       50
176
     1
 90
        3
176
     1
 62
     5
420
      255
176
     1
290
     0
176
     1
 90
       50
176
     1
 90
       50
176
     1
 90
       50
176
     1
290
     0
176
     1
 90
       50
176
     1
 62
   256
176
     0
 40
1.0
176
     0
 90
        2
176
     1
  1
strokes_ogs.tif
176
     1
290
     0
176
     1
 40
1.0
176
     1
 40
1.0
176
     1
  0
VISUALSTYLE
  5
174
102
{ACAD_REACTORS
330
99
102
}
330
99
100
AcDbVisualStyle
  2
OverhangOff
 70
    21
177
     3
291
     1
 70
    58
 90
        2
176
     0
 90
        2
176
     0
 90
        0
176
     0
 90
        0
176
     0
 40
0.6
176
     0
 40
30.0
176
     0
 62
     7
420
 16777215
176
     0
 90
        1
176
     0
 90
        4
176
     0
 62
     7
176
     0
 62
   257
176
     0
 90
        1
176
     0
 90
        1
176
     0
 40
1.0
176
     0
 90
        9
176
     2
 62
     7
176
     0
 40
1.0
176
     0
 90
        1
176
     0
 90
        6
176
     0
 90
        2
176
     0
 62
     7
176
     0
 90
        5
176
     0
 90
        0
176
     0
 90
        0
176
     0
290
     0
176
     0
 90
        1
176
     0
 40
0.0
176
     0
 90
        0
176
     0
290
     0
176
     1
290
     1
176
     1
290
     1
176
     1
290
     0
176
     1
290
     0
176
     1
290
     0
176
     1
290
     0
176
     1
290
     0
176
     1
290
     0
176
     1
 90
       50
176
     1
 40
0.0
176
     1
 40
1.0
176
     1
 90
        0
176
     1
 62
    18
420
        0
176
     1
 90
       50
176
     1
 90
        3
176
     1
 62
     5
420
      255
176
     1
290
     0
176
     1
 90
       50
176
     1
 90
       50
176
     1
 90
       50
176
     1
290
     0
176
     1
 90
       50
176
     1
 62
   256
176
     0
 40
1.0
176
     0
 90
        2
176
     1
  1
strokes_ogs.tif
176
     1
290
     0
176
     1
 40
1.0
176
     1
 40
1.0
176
     1
  0
VISUALSTYLE
  5
A3
102
{ACAD_REACTORS
330
99
102
}
330
99
100
AcDbVisualStyle
  2
Realistic
 70
     8
177
     3
291
     0
 70
    58
 90
        2
176
     1
 90
        2
176
     1
 90
        0
176
     1
 90
        2
176
     1
 40
0.6
176
     1
 40
30.0
176
     1
 62
     7
420
 16777215
176
     1
 90
        0
176
     1
 90
        0
176
     1
 62
     7
176
     1
 62
   257
176
     1
 90
        1
176
     1
 90
        1
176
     1
 40
1.0
176
     1
 90
        8
176
     1
 62
   257
176
     1
 40
1.0
176
     1
 90
        1
176
     1
 90
        6
176
     1
 90
        2
176
     1
 62
     7
176
     1
 90
        3
176
     1
 90
        0
176
     1
 90
        0
176
     1
290
     0
176
     1
 90
       13
176
     1
 40
0.0
176
     1
 90
        0
176
     1
290
     0
176
     1
290
     1
176
     1
290
     1
176
     1
290
     0
176
     1
290
     0
176
     1
290
     0
176
     1
290
     0
176
     1
290
     0
176
     1
290
     0
176
     1
 90
       50
176
     1
 40
0.0
176
     1
 40
1.0
176
     1
 90
        0
176
     1
 62
    18
420
        0
176
     1
 90
       50
176
     1
 90
        3
176
     1
 62
     5
420
      255
176
     1
290
     0
176
     1
 90
       50
176
     1
 90
       50
176
     1
 90
       50
176
     1
290
     0
176
     1
 90
       50
176
     1
 62
   256
176
     0
 40
1.0
176
     0
 90
        2
176
     1
  1
strokes_ogs.tif
176
     1
290
     0
176
     1
 40
1.0
176
     1
 40
1.0
176
     1
  0
VISUALSTYLE
  5
182
102
{ACAD_REACTORS
330
99
102
}
330
99
100
AcDbVisualStyle
  2
Shaded
 70
    27
177
     3
291
     0
 70
    58
 90
        2
176
     1
 90
        2
176
     1
 90
        1
176
     1
 90
        2
176
     1
 40
0.6
176
     1
 40
30.0
176
     1
 62
     7
420
 16777215
176
     1
 90
        0
176
     1
 90
        4
176
     1
 62
     7
176
     1
 62
   257
176
     1
 90
        1
176
     1
 90
        1
176
     1
 40
1.0
176
     1
 90
        8
176
     1
 62
   257
176
     1
 40
1.0
176
     1
 90
        1
176
     1
 90
        6
176
     1
 90
        2
176
     1
 62
     8
420
  7895160
176
     1
 90
        3
176
     1
 90
        0
176
     1
 90
        0
176
     1
290
     0
176
     1
 90
        5
176
     1
 40
0.0
176
     1
 90
        0
176
     1
290
     0
176
     1
290
     1
176
     1
290
     1
176
     1
290
     0
176
     1
290
     0
176
     1
290
     0
176
     1
290
     0
176
     1
290
     0
176
     1
290
     0
176
     1
 90
       50
176
     1
 40
0.0
176
     1
 40
1.0
176
     1
 90
        0
176
     1
 62
    18
420
        0
176
     1
 90
       50
176
     1
 90
        3
176
     1
 62
     5
420
      255
176
     1
290
     0
176
     1
 90
       50
176
     1
 90
       50
176
     1
 90
       50
176
     1
290
     0
176
     1
 90
       50
176
     1
 62
   256
176
     0
 40
1.0
176
     0
 90
        2
176
     1
  1
strokes_ogs.tif
176
     1
290
     0
176
     1
 40
1.0
176
     1
 40
1.0
176
     1
  0
VISUALSTYLE
  5
181
102
{ACAD_REACTORS
330
99
102
}
330
99
100
AcDbVisualStyle
  2
Shaded with edges
 70
    26
177
     3
291
     0
 70
    58
 90
        2
176
     1
 90
        2
176
     1
 90
        1
176
     1
 90
        2
176
     1
 40
0.6
176
     1
 40
30.0
176
     1
 62
     7
420
 16777215
176
     1
 90
        1
176
     1
 90
        2
176
     1
 62
     7
176
     1
 62
   257
176
     1
 90
        2
176
     1
 90
        1
176
     1
 40
1.0
176
     1
 90
        8
176
     1
 62
   257
176
     1
 40
1.0
176
     1
 90
        1
176
     1
 90
        6
176
     1
 90
        2
176
     1
 62
     7
176
     1
 90
        3
176
     1
 90
        0
176
     1
 90
        0
176
     1
290
     0
176
     1
 90
        5
176
     1
 40
0.0
176
     1
 90
        0
176
     1
290
     0
176
     1
290
     1
176
     1
290
     1
176
     1
290
     0
176
     1
290
     0
176
     1
290
     0
176
     1
290
     0
176
     1
290
     0
176
     1
290
     0
176
     1
 90
       50
176
     1
 40
0.0
176
     1
 40
1.0
176
     1
 90
        0
176
     1
 62
    18
420
        0
176
     1
 90
       50
176
     1
 90
        3
176
     1
 62
     5
420
      255
176
     1
290
     0
176
     1
 90
       50
176
     1
 90
       50
176
     1
 90
       50
176
     1
290
     0
176
     1
 90
       50
176
     1
 62
   256
176
     0
 40
1.0
176
     0
 90
        2
176
     1
  1
strokes_ogs.tif
176
     1
290
     0
176
     1
 40
1.0
176
     1
 40
1.0
176
     1
  0
VISUALSTYLE
  5
17E
102
{ACAD_REACTORS
330
99
102
}
330
99
100
AcDbVisualStyle
  2
Shades of Gray
 70
    23
177
     3
291
     0
 70
    58
 90
        2
176
     1
 90
        2
176
     1
 90
        3
176
     1
 90
        0
176
     1
 40
0.6
176
     1
 40
30.0
176
     1
 62
     7
420
 16777215
176
     1
 90
        2
176
     1
 90
        2
176
     1
 62
     7
176
     1
 62
     7
176
     1
 90
        1
176
     1
 90
        1
176
     1
 40
40.0
176
     1
 90
        8
176
     1
 62
     7
176
     1
 40
1.0
176
     1
 90
        1
176
     1
 90
        6
176
     1
 90
        2
176
     1
 62
     7
176
     1
 90
        3
176
     1
 90
        0
176
     1
 90
        0
176
     1
290
     0
176
     1
 90
        1
176
     1
 40
0.0
176
     1
 90
        0
176
     1
290
     0
176
     1
290
     1
176
     1
290
     1
176
     1
290
     0
176
     1
290
     0
176
     1
290
     0
176
     1
290
     0
176
     1
290
     0
176
     1
290
     0
176
     1
 90
       50
176
     1
 40
0.0
176
     1
 40
1.0
176
     1
 90
        0
176
     1
 62
    18
420
        0
176
     1
 90
       50
176
     1
 90
        3
176
     1
 62
     5
420
      255
176
     1
290
     0
176
     1
 90
       50
176
     1
 90
       50
176
     1
 90
       50
176
     1
290
     0
176
     1
 90
       50
176
     1
 62
   256
176
     0
 40
1.0
176
     0
 90
        2
176
     1
  1
strokes_ogs.tif
176
     1
290
     0
176
     1
 40
1.0
176
     1
 40
1.0
176
     1
  0
VISUALSTYLE
  5
17F
102
{ACAD_REACTORS
330
99
102
}
330
99
100
AcDbVisualStyle
  2
Sketchy
 70
    24
177
     3
291
     0
 70
    58
 90
        1
176
     1
 90
        2
176
     1
 90
        2
176
     1
 90
        0
176
     1
 40
0.6
176
     1
 40
30.0
176
     1
 62
     7
420
 16777215
176
     1
 90
        2
176
     1
 90
        2
176
     1
 62
     7
176
     1
 62
     7
176
     1
 90
        1
176
     1
 90
        1
176
     1
 40
40.0
176
     1
 90
       11
176
     1
 62
     7
176
     1
 40
1.0
176
     1
 90
        1
176
     1
 90
        6
176
     1
 90
        2
176
     1
 62
     7
176
     1
 90
        6
176
     1
 90
        0
176
     1
 90
        0
176
     1
290
     0
176
     1
 90
        1
176
     1
 40
0.0
176
     1
 90
        0
176
     1
290
     0
176
     1
290
     1
176
     1
290
     1
176
     1
290
     0
176
     1
290
     0
176
     1
290
     0
176
     1
290
     0
176
     1
290
     0
176
     1
290
     0
176
     1
 90
       50
176
     1
 40
0.0
176
     1
 40
1.0
176
     1
 90
        0
176
     1
 62
    18
420
        0
176
     1
 90
       50
176
     1
 90
        3
176
     1
 62
     5
420
      255
176
     1
290
     0
176
     1
 90
       50
176
     1
 90
       50
176
     1
 90
       50
176
     1
290
     0
176
     1
 90
       50
176
     1
 62
   256
176
     0
 40
1.0
176
     0
 90
        2
176
     1
  1
strokes_ogs.tif
176
     1
290
     0
176
     1
 40
1.0
176
     1
 40
1.0
176
     1
  0
VISUALSTYLE
  5
A6
102
{ACAD_REACTORS
330
99
102
}
330
99
100
AcDbVisualStyle
  2
Thicken
 70
    13
177
     3
291
     1
 70
    58
 90
        2
176
     1
 90
        2
176
     1
 90
        1
176
     1
 90
        0
176
     1
 40
0.6
176
     1
 40
30.0
176
     1
 62
     7
420
 16777215
176
     1
 90
        1
176
     1
 90
        4
176
     1
 62
     7
176
     1
 62
   257
176
     1
 90
        1
176
     1
 90
        1
176
     1
 40
1.0
176
     1
 90
       12
176
     1
 62
     7
176
     1
 40
1.0
176
     1
 90
        1
176
     1
 90
        6
176
     1
 90
        2
176
     1
 62
     7
176
     1
 90
        5
176
     1
 90
        0
176
     1
 90
        0
176
     1
290
     0
176
     1
 90
        1
176
     1
 40
0.0
176
     1
 90
        0
176
     1
290
     0
176
     1
290
     1
176
     1
290
     1
176
     1
290
     0
176
     1
290
     0
176
     1
290
     0
176
     1
290
     0
176
     1
290
     0
176
     1
290
     0
176
     1
 90
       50
176
     1
 40
0.0
176
     1
 40
1.0
176
     1
 90
        0
176
     1
 62
    18
420
        0
176
     1
 90
       50
176
     1
 90
        3
176
     1
 62
     5
420
      255
176
     1
290
     0
176
     1
 90
       50
176
     1
 90
       50
176
     1
 90
       50
176
     1
290
     0
176
     1
 90
       50
176
     1
 62
   256
176
     0
 40
1.0
176
     0
 90
        2
176
     1
  1
strokes_ogs.tif
176
     1
290
     0
176
     1
 40
1.0
176
     1
 40
1.0
176
     1
  0
VISUALSTYLE
  5
A0
102
{ACAD_REACTORS
330
99
102
}
330
99
100
AcDbVisualStyle
  2
Wireframe
 70
     5
177
     3
291
     0
 70
    58
 90
        0
176
     1
 90
        2
176
     1
 90
        0
176
     1
 90
        0
176
     1
 40
0.6
176
     1
 40
30.0
176
     1
 62
     7
420
 16777215
176
     1
 90
        1
176
     1
 90
        4
176
     1
 62
     7
176
     1
 62
   257
176
     1
 90
        1
176
     1
 90
        1
176
     1
 40
1.0
176
     1
 90
        0
176
     1
 62
   257
176
     1
 40
1.0
176
     1
 90
        1
176
     1
 90
        6
176
     1
 90
        2
176
     1
 62
     7
176
     1
 90
        3
176
     1
 90
        0
176
     1
 90
        0
176
     1
290
     0
176
     1
 90
        1
176
     1
 40
0.0
176
     1
 90
        0
176
     1
290
     0
176
     1
290
     1
176
     1
290
     1
176
     1
290
     0
176
     1
290
     0
176
     1
290
     0
176
     1
290
     0
176
     1
290
     0
176
     1
290
     0
176
     1
 90
       50
176
     1
 40
0.0
176
     1
 40
1.0
176
     1
 90
        0
176
     1
 62
    18
420
        0
176
     1
 90
       50
176
     1
 90
        3
176
     1
 62
     5
420
      255
176
     1
290
     0
176
     1
 90
       50
176
     1
 90
       50
176
     1
 90
       50
176
     1
290
     0
176
     1
 90
       50
176
     1
 62
   256
176
     0
 40
1.0
176
     0
 90
        2
176
     1
  1
strokes_ogs.tif
176
     1
290
     0
176
     1
 40
1.0
176
     1
 40
1.0
176
     1
  0
VISUALSTYLE
  5
180
102
{ACAD_REACTORS
330
99
102
}
330
99
100
AcDbVisualStyle
  2
X-Ray
 70
    25
177
     3
291
     0
 70
    58
 90
        2
176
     1
 90
        2
176
     1
 90
        1
176
     1
 90
        1
176
     1
 40
0.5
176
     1
 40
30.0
176
     1
 62
     7
420
 16777215
176
     1
 90
        1
176
     1
 90
        0
176
     1
 62
     7
176
     1
 62
   257
176
     1
 90
        1
176
     1
 90
        1
176
     1
 40
1.0
176
     1
 90
        8
176
     1
 62
     7
176
     1
 40
1.0
176
     1
 90
        1
176
     1
 90
        6
176
     1
 90
        2
176
     1
 62
     7
176
     1
 90
        3
176
     1
 90
        0
176
     1
 90
        0
176
     1
290
     0
176
     1
 90
       13
176
     1
 40
0.0
176
     1
 90
        0
176
     1
290
     0
176
     1
290
     1
176
     1
290
     1
176
     1
290
     0
176
     1
290
     0
176
     1
290
     0
176
     1
290
     0
176
     1
290
     0
176
     1
290
     0
176
     1
 90
       50
176
     1
 40
0.0
176
     1
 40
1.0
176
     1
 90
        0
176
     1
 62
    18
420
        0
176
     1
 90
       50
176
     1
 90
        3
176
     1
 62
     5
420
      255
176
     1
290
     0
176
     1
 90
       50
176
     1
 90
       50
176
     1
 90
       50
176
     1
290
     0
176
     1
 90
       50
176
     1
 62
   256
176
     0
 40
1.0
176
     0
 90
        2
176
     1
  1
strokes_ogs.tif
176
     1
290
     0
176
     1
 40
1.0
176
     1
 40
1.0
176
     1
  0
DICTIONARYVAR
  5
502C6
102
{ACAD_REACTORS
330
502C5
102
}
330
502C5
100
DictionaryVariables
280
     0
  1
2
  0
DICTIONARYVAR
  5
502C7
102
{ACAD_REACTORS
330
502C5
102
}
330
502C5
100
DictionaryVariables
280
     0
  1
400.000000
  0
DICTIONARYVAR
  5
502C8
102
{ACAD_REACTORS
330
502C5
102
}
330
502C5
100
DictionaryVariables
280
     0
  1
1
  0
DICTIONARYVAR
  5
502C9
102
{ACAD_REACTORS
330
502C5
102
}
330
502C5
100
DictionaryVariables
280
     0
  1
1:1
  0
DICTIONARYVAR
  5
502CA
102
{ACAD_REACTORS
330
502C5
102
}
330
502C5
100
DictionaryVariables
280
     0
  1
STANDARD
  0
DICTIONARYVAR
  5
502CB
102
{ACAD_REACTORS
330
502C5
102
}
330
502C5
100
DictionaryVariables
280
     0
  1
STANDARD
  0
DICTIONARYVAR
  5
502CC
102
{ACAD_REACTORS
330
502C5
102
}
330
502C5
100
DictionaryVariables
280
     0
  1
Imperial24
  0
DICTIONARYVAR
  5
502CD
102
{ACAD_REACTORS
330
502C5
102
}
330
502C5
100
DictionaryVariables
280
     0
  1
Imperial24
  0
DICTIONARYVAR
  5
502CE
102
{ACAD_REACTORS
330
502C5
102
}
330
502C5
100
DictionaryVariables
280
     0
  1
-1
  0
DICTIONARYVAR
  5
502CF
102
{ACAD_REACTORS
330
502C5
102
}
330
502C5
100
DictionaryVariables
280
     0
  1
1
  0
DICTIONARYVAR
  5
502D0
102
{ACAD_REACTORS
330
502C5
102
}
330
502C5
100
DictionaryVariables
280
     0
  1
2
  0
DICTIONARYVAR
  5
502D1
102
{ACAD_REACTORS
330
502C5
102
}
330
502C5
100
DictionaryVariables
280
     0
  1
0
  0
DICTIONARYVAR
  5
502D2
102
{ACAD_REACTORS
330
502C5
102
}
330
502C5
100
DictionaryVariables
280
     0
  1
4
  0
DICTIONARYVAR
  5
502D3
102
{ACAD_REACTORS
330
502C5
102
}
330
502C5
100
DictionaryVariables
280
     0
  1
V-Construction
  0
DICTIONARYVAR
  5
502D4
102
{ACAD_REACTORS
330
502C5
102
}
330
502C5
100
DictionaryVariables
280
     0
  1
ByLayer
  0
DICTIONARYVAR
  5
502D5
102
{ACAD_REACTORS
330
502C5
102
}
330
502C5
100
DictionaryVariables
280
     0
  1
0
  0
DICTIONARYVAR
  5
502D6
102
{ACAD_REACTORS
330
502C5
102
}
330
502C5
100
DictionaryVariables
280
     0
  1
0
  0
DICTIONARYVAR
  5
502D7
102
{ACAD_REACTORS
330
502C5
102
}
330
502C5
100
DictionaryVariables
280
     0
  1
0
  0
DICTIONARYVAR
  5
502D8
102
{ACAD_REACTORS
330
502C5
102
}
330
502C5
100
DictionaryVariables
280
     0
  1
2
  0
DICTIONARYVAR
  5
502D9
102
{ACAD_REACTORS
330
502C5
102
}
330
502C5
100
DictionaryVariables
280
     0
  1
1.000000
  0
DICTIONARYVAR
  5
502DA
102
{ACAD_REACTORS
330
502C5
102
}
330
502C5
100
DictionaryVariables
280
     0
  1
1
  0
DICTIONARYVAR
  5
502DB
102
{ACAD_REACTORS
330
502C5
102
}
330
502C5
100
DictionaryVariables
280
     0
  1
1.000000
  0
DICTIONARYVAR
  5
502DC
102
{ACAD_REACTORS
330
502C5
102
}
330
502C5
100
DictionaryVariables
280
     0
  1
1
  0
DICTIONARYVAR
  5
502DD
102
{ACAD_REACTORS
330
502C5
102
}
330
502C5
100
DictionaryVariables
280
     0
  1
0
  0
DICTIONARYVAR
  5
502DE
102
{ACAD_REACTORS
330
502C5
102
}
330
502C5
100
DictionaryVariables
280
     0
  1

  0
DICTIONARYVAR
  5
502DF
102
{ACAD_REACTORS
330
502C5
102
}
330
502C5
100
DictionaryVariables
280
     0
  1
0
  0
DICTIONARYVAR
  5
502E0
102
{ACAD_REACTORS
330
502C5
102
}
330
502C5
100
DictionaryVariables
280
     0
  1
127
  0
DICTIONARY
  5
194
330
22
100
AcDbDictionary
280
     1
281
     1
  0
DICTIONARY
  5
188
330
97
100
AcDbDictionary
280
     1
281
     1
  3
FBXASSET
360
189
  0
DICTIONARY
  5
186
330
96
100
AcDbDictionary
280
     1
281
     1
  3
FBXASSET
360
187
  0
DICTIONARY
  5
110
330
98
100
AcDbDictionary
280
     1
281
     1
  3
BUMPTILE
360
112
  3
DIFFUSETILE
360
111
  3
FBXASSET
360
18A
  3
OPACITYTILE
360
113
  3
REFLECTIONTILE
360
114
  0
DICTIONARY
  5
104
330
87
100
AcDbDictionary
280
     1
281
     1
  3
ACAD_ROUNDTRIP_2008_TABLESTYLE_CELLSTYLEMAP
360
F86C6
  0
XRECORD
  5
189
102
{ACAD_REACTORS
330
188
102
}
330
188
100
AcDbXrecord
280
     1
 70
     1
 90
429727718
  1
508B35C9-AEE7-456F-BE74-D52651303AC6
310
504B03040A0000080000B670623B3DEE336E79000000790000001B0000006175746F6465736B2D64657369676E2D7061636B6167652E786D6C3C3F786D6C2076657273696F6E3D22312E302220656E636F64696E673D227574662D3822203F3E3C666F726D6174733E3C666F726D61743E687474703A2F2F736368656D612E
310
6175746F6465736B2E636F6D2F64657369676E2D7061636B6167652F323030393C2F666F726D61743E3C2F666F726D6174733E504B0304140006080800B670623BD486FD9CA0000000F4000000130000005B436F6E74656E745F54797065735D2E786D6C7D8EC10E82300C865F65E91D8A1E8C310C0EEA1BF002731658846E
310
D98AC1B77784ABF1D8FE5FBFBF75BBCE937A534CCEB38643598122B6FEE978D0B0485F9C41B54DDD7D022595594E1A469170414C76A4D9A4D207E29CF43ECE46F218070CC6BECC4078ACAA135ACF422C856C0E68EA1BF5669944DDD7BCDE7B1F8E415D77AECB980613C2E4AC91FC167A2B244592486606FC29C8FD7F045B9A
310
EF7053A7E60B504B0304140006080800B670623B28ED286BEB0000007C01000008000000636F72652E786D6C8D90416EC3201045AF82665B6183218D6D61A254764FD00B204C5C94182C03558F5F9C3852BBEB6A467FFE9B197D71FA9E6FE8CBACC17AD7012D0820E3B41FAD9B3A48F1826B40272956EFE32F1B20A766D3C1
310
268314D3EAD3B24BDABB685CCCAAF3A3D94515828980F42D371D04FD696655A814B3235C8B45E9AB9A4C419F5D8653B2237A1CB163DE672FD6AC209BF3C08E0D1B30EB19C3FC9D72FCC6EB231EFA33EDE96BDD341517E5064B11EDFCBCAF57A3A2194156843498524CAA0FCA5B7268F9E185D42D21A2DCEC7FA0B48CFF8492
310
759155FBBB0F2C80A4F991FB408A72CB22977B50B96EB9C91F504B0304140006080800B670623B55019EA25F0000007C00000007000000636E782E786D6C4DCB3B0E80201045D1AD90E915ED2CF8AC45050C11660C8261F98AB1B07AC9C97D42D718D865D3E909258CFD00CCE24AC6E326A164D74DC0B4128928FF32603847
310
2BA13128B1252AC747C6BAB984FC68F0B87FE8960A5C09FE86CFB69FBA01504B0304140006080800B670623B7BC41AC871010000D40300000C0000006662782F636F72652E786D6CC553ED6E8320147D15C2DF4501B56B6D90A64BBB27D80B50A5CE54C120983EFEAE1F4DD7A56BBA5FF3879273EEE59E7310BE393735EA95
310
ED2AA333CC428A91D2B9292A5D66D8BB63B0C26823B835C67D2BC348CB46657880B1E0A535BE9DA1DC68A7B403549B42CDA0EC3AE530CA6B5864B8CB3F552343E91D5474A7B095F949962A6421D0502778E72C0840D390E18DC5F170E664C205F7BE2A66B62A605A75AC94C522DDEEE3651AEF837817C741F2CE92E02D592D
310
83FD6ECB76EC7595A651C2C9D02CB8AB9A8BBADC2AE954814544691A3016D0E883256BBA58278B17BA5A53CAC9507ED3E4DBE2C9265F691747B3DCA9ADC382819091F8E1162272A8933DE82182932144F88C09DF060D8140C84E1EEA8B8F1340BDCA9DB1093085F157AA97B557309586747CD0EF0B4EA64E983A6E0EAEEFCE
310
889E9EF17847386AA94B30211D2C0FDE0D3AF9A4610EAD5536E8DD1969631B593F67E381C33F5157F17725E5A636F6BF1491F980C8FC7B90E13E8A2F504B0304140006080800B670623B70102A487D0000009D0000000B0000006662782F636E782E786D6C4DCCD10A83201886E15B91FFDC95A5C30335ACCDFB886521330D
310
A76397BF1A1DECE883878F57749FD5A3B74D2F17830472A901D9F088930B8B849267CC01754AA418F3DF0D5018572BE160506249B16C274D761E8BCFBB7A179E27F65CB39A0F14D396184C9921B81F34C3ACA1B4B99ABB6E6F062A25AA5F69DF23ACBE504B0304140006080800B670623B3610CA3329010000120200003100
310
00006662782F42384135303843342D343331462D343546312D424341352D3532343432364645413344462F636F72652E786D6C8D515B6EC32010BC0AE22B55850D0E446E848992B43E412FE000495162B07854397EA176A4F62F3F2C9A9D991D58BEBB8F37F0AD7D30CE76905418026DA553C65E3A98E219B510EC04F7CEC5
310
3F3408EC30EA0E16180A7EF12E4D0B249D8DDAC68C5AA7F4020E21E80881BCE54B0783FCD2E3500D296646B856D320AFC34557A4CAEDCC133C449F0380794839A138B47B86DB2345744D7A44594FD0E1B867883594369BFE63BF7EEF793D0B054FC9A8456E548E63CE46FB674D8A58F068C6477CE9F510B582A2C1F80D1182
310
70F349E816B32D65AFB8DD62CCEB42FF274A937A52948C8DEB66893BCB021484D7734370E5D2E9F608A3EF93F3119479ABA0E50B14B8C298119A43CCC4FCFCECB8A18B6388CEE7EF5D5D4F994BD86CBBA182D76543B9FCAE2FD7B24DF103504B0304140006080800B670623B1B8617914E0100003303000030000000666278
310
2F42384135303843342D343331462D343546312D424341352D3532343432364645413344462F636E782E786D6CD593C16EC32010447F0571AD6CE3D489D20813A9877E410FBD62D82434182CC055F3F75D1292E692438FBD206B7698593D61BEFD1E2DF982108D773D6D6B460938E5B571FB9ECE6957AD29D90A1EBC4F7736
310
4A9C1CA1A759A682EF839FA72269D8C9D92654AD71C72206887E0E0A22CAF926B15E498B01E0AA19451807D01A34B919F16B070157417138917400F2F6FA41FCF0092A45DEE414C19BDC21783E4BD39D891265658C3D8DEA00A3ACE59CBC8678ACB54CB26EEB6BD7839D7E9348BE70AD9C8321B9BCA7F9A4A26C542347DEE0
310
50F09802D22BA6749A800A394DD62899107273365E3C82CFC6A55557BC06C10774B7ABE7AEC3B0F34CF06446280E154026D0542C187BA9DAB6628BF7B6DBB0E5A65B3EB1F58631DE64BBE083F7B65CC218087E22CABB042E51D1F2268F1FE12B3EA24D40D63E9CFE00120194D60B9D5BC67FE6D39CDF37E20AF817881F504B
310
0304140006080800B670623BBFEF2E3B690500003C100000340000006662782F42384135303843342D343331462D343546312D424341352D3532343432364645413344462F6F626A656374732E786D6CAD575D739B3814FD2B0CFB0C98D84E931D4227B6938EA793B6534F3BFB90198F0099B001899144EAECAFDF231018B0
310
D37A3FFC609090EEE7B94757C1FB7D915B2F54C88CB31BDB7727B64559CC938CA53776A576CE956DBD0F03C1B9EA2DB32D460A7A63EB693B0C52C1ABD24C257447AA5C8D66EF177F5832A68CDA569C13296F6C193FD182B8A4523CA1F2D94D88226EBADBBBBEDB2C1C8A4D05299F46424B222853B014F30C52ACC6287F389C
310
D85E1878FA7B18E87FB36AFAF62AAFF667A83F635211161F291B8999FAB3D5DDC5FCDA99CF6653677679E13B8BFBC5CAF1DF4D27CBCBE5F2FAF6EE1A8AA51290642C117467871F101B91C581D77CEA2C36869F3229E68CD1B8F61F1ED6361B89092D294B90C78C4A68EB793D190E7D1D9BDEE7A91E1B95FDE9F3BCEAEFE809
310
6A6D6F9F7D4B79F4275C90E7A04248AA51D5C4C738DAE06F72885AC4796EBE65D22A88A22223B995679120E2D50EB1542F098381188D4EA111AE3DB043FF20AF6F2B4AE3D7D83D65E5AECA730D4D3BAC91BD05FEA992B565D95F549CD6069B90AB2A63EACA38A45E4B6A87D781574F86817E4C2FCCC72690D62E2729520E37
310
9BAF234797BAF6D62B3BFC781FED37BA1E4F2B2F052FA9501A3E80569BB8F6A9A364D4FA67654E6F803383981F82F21591FF84F23D9882BC896C3FDBCF8C162508933B2E0AE4C69DD43F6BD2BE38DDDBF10BF86CB4FA784D37F3AF16075E67EC9030DECA1FC0A55373F5DFF3378C591FA9BDF485C10B0A8C8BA909E5262639
310
A8E72163488806A595734C81CB77D1DE0ED7604A303B76913CEC0272F412782FF88EFF4636D8AA56DF7B322474C4B767303F625997056C7B032C473C592B36CEBD15F3F9FF5233B7ABCDC74D257624A60F8658567497B14CE1EC3C80B76FD02011038F9EE9EB0F2E12387A9C844D3F09855125116D1D731DF8B43D2CF4E0A0
310
79A020C6BE946BCE0B7EA1E1219331CD73C228AF5A2DDD31A4B1DA918CE91350854D40A71723140BFA92E94E62B0626016CEFA5864A50E5977E8753CEDBEE1CBB7F52780D20E17AF0BA0F5F9B02A3AD07DCC732EB6D1EBB661421BE0C39E21BABF0FE16D22EA6929407C8DE596724C88B749B6DB5512BC7B228ADFD7CB7EA6
310
3A22397E690BA8D5D8D4E40CEC8CDA23C2C0B7D5898640101CEC9C6D331CE328CB93CAFBBAC70A642DF70DF95155945B52F08AA973C23469FD69ADEF84F7BB18F983A8F8C90E37F5D35980B2139A1C523540813E824EF83448CF7C72B598CE97D7CEEDDDDD3B6736BFBC771677EF66CE6A7E7139F7A793E9EDF2B2B3A8B624
310
0CDA13AA5F8388264EC4A0129909F3B7F5A16CEDF08128E97D680ACA4B9BE7B7B58BB638F0B00700EF36AE8B32A705658A68F83EE897FC2B41573190D1CCAF0B92D233A47CFEB019D9809933F67DD1A5467F8CF69AD9A5AE859342D45355448C64F968A371DC2D596ADC6E43D93D1B466F877A64E2893E54F23C4B40388995
310
525E5005DA3983ED45412510D3EFCA13737B3863F74BD30F2A12E5B4B5E489A025CE25500DB855B11ACE5BBFA185D35DD48D8DC3CE7DC69F2944DB42AA6F6CF09BCA622ADD08C7A36E7C6AE18000BAB08E040135C2D21C9D75B3A91B77BB746C403F38018DFE6EC939DD92F16B40BC05294B9CDA035AAD6D330AE27FE4786B
310
8E45145EA34A75BE1C263A676A35A8ACC6297337400BF16C54EF515F3F77CB77EB3583889C754FFA29081AA98E2222ADEF05DA3E63D2EDEA8B8756C05A7FB6CABC4A91CBF325398202CC952E70A008A830324BA200D5E5EF8F5F04C75DB4B0EE3340E071C98B823333B83577596BF3849B69F2085AA0FAFA212F26BEFF5877
310
FDE622B28D88A42E49E43326DA82D31E8CB006401E1DA726059ECEC168F97A6599036306A135688F9AD2E61A6EA178F4CD51974A9F2CCB9F36FE5EBD14601068D9C3BF01504B0304140006080000B670623B000000000000000000000000350000006662782F42384135303843342D343331462D343546312D424341352D35
310
32343432364645413344462F76657274696365732E62696E504B0304140006080800B670623BF270F1330600000004000000360000006662782F42384135303843342D343331462D343546312D424341352D3532343432364645413344462F747269616E676C65732E62696E636660600000504B0304140006080000B67062
310
3B000000000000000000000000370000006662782F42384135303843342D343331462D343546312D424341352D3532343432364645413344462F617474726962757465732E62696E504B0304140006080800B670623B08DA0BD19000000041010000360000006662782F42384135303843342D343331462D343546312D4243
310
41352D3532343432364645413344462F6469726563746F72792E786D6C858F410AC3201045AF22B36F53E9A60B35CBEEBAE80D244E44489C6234F4F835464A48035D0DF398FF9F8AF63D0E6CC63039F212F8F9020C7D47C6792B21C5FE7403D62A1188E2E60C98D7234A5830286103A55745067B9D86B8A3CF9C7F90C11DE6
310
07FB144396D7B6A82D282E9A152AD114D5EF2CB866EEE831B8EEA07A7BB5A8D7D61A2BAAEB7FD5F70921FF497D00504B0304140006080800B670623B3B4606F3FE000000A00100003B0000006662782F42384135303843342D343331462D343546312D424341352D3532343432364645413344462F7265736F75726365732F
310
636F72652E786D6C8D504B6E833010BD0A9A6D65B08134808CA354A427E8052C332156828DFCA97AFC9A40A576D7CDCCE87D344F8F9FBEE647F689CE6B6B7A6039850C8DB2A336530F315C4903D94970676DF82583CCC8197B5861107C72362E3BA4AC096842428D1D7107A5F71820538F74F4E0D50D6799CB1892C2DFF345
310
AABB9C306779A2934E701F5C0A906D4FD609C2A1B7D129F4BCD858C163D4E3AED163FAA9AF1A1D88F67CA98E6D35906AA82A52BFB39ABCD5CD915C86331BD86BD3B665CD8BD52C78D0F34F46E550061C419494B6843142CB0F5677F4D0D58717DA7494F26295FF31C565FCA7296A13AA728FBBD93C0896823C09C18BB5AFB4
310
9E65A6BD762BBE01504B010214000A0000080000B670623B3DEE336E79000000790000001B00000000000000000000000000000000006175746F6465736B2D64657369676E2D7061636B6167652E786D6C504B01021400140006080800B670623BD486FD9CA0000000F40000001300000000000000000000000000B2000000
310
5B436F6E74656E745F54797065735D2E786D6C504B01021400140006080800B670623B28ED286BEB0000007C010000080000000000000000000000000083010000636F72652E786D6C504B01021400140006080800B670623B55019EA25F0000007C000000070000000000000000000000000094020000636E782E786D6C50
310
4B01021400140006080800B670623B7BC41AC871010000D40300000C00000000000000000000000000180300006662782F636F72652E786D6C504B01021400140006080800B670623B70102A487D0000009D0000000B00000000000000000000000000B30400006662782F636E782E786D6C504B01021400140006080800B6
310
70623B3610CA3329010000120200003100000000000000000000000000590500006662782F42384135303843342D343331462D343546312D424341352D3532343432364645413344462F636F72652E786D6C504B01021400140006080800B670623B1B8617914E010000330300003000000000000000000000000000D10600
310
006662782F42384135303843342D343331462D343546312D424341352D3532343432364645413344462F636E782E786D6C504B01021400140006080800B670623BBFEF2E3B690500003C10000034000000000000000000000000006D0800006662782F42384135303843342D343331462D343546312D424341352D35323434
310
32364645413344462F6F626A656374732E786D6C504B01021400140006080000B670623B0000000000000000000000003500000000000000000000000000280E00006662782F42384135303843342D343331462D343546312D424341352D3532343432364645413344462F76657274696365732E62696E504B010214001400
310
06080800B670623BF270F133060000000400000036000000000000000000000000007B0E00006662782F42384135303843342D343331462D343546312D424341352D3532343432364645413344462F747269616E676C65732E62696E504B01021400140006080000B670623B00000000000000000000000037000000000000
310
00000000000000D50E00006662782F42384135303843342D343331462D343546312D424341352D3532343432364645413344462F617474726962757465732E62696E504B01021400140006080800B670623B08DA0BD1900000004101000036000000000000000000000000002A0F00006662782F42384135303843342D3433
310
31462D343546312D424341352D3532343432364645413344462F6469726563746F72792E786D6C504B01021400140006080800B670623B3B4606F3FE000000A00100003B000000000000000000000000000E1000006662782F42384135303843342D343331462D343546312D424341352D3532343432364645413344462F72
310
65736F75726365732F636F72652E786D6C504B0506000000000E000E0080040000651100000000
  0
XRECORD
  5
187
102
{ACAD_REACTORS
330
186
102
}
330
186
100
AcDbXrecord
280
     1
 70
     1
 90
429727718
  1
887D55A9-D0DD-414E-B741-A7DCD4DA2B4C
310
504B03040A0000080000B670623B3DEE336E79000000790000001B0000006175746F6465736B2D64657369676E2D7061636B6167652E786D6C3C3F786D6C2076657273696F6E3D22312E302220656E636F64696E673D227574662D3822203F3E3C666F726D6174733E3C666F726D61743E687474703A2F2F736368656D612E
310
6175746F6465736B2E636F6D2F64657369676E2D7061636B6167652F323030393C2F666F726D61743E3C2F666F726D6174733E504B0304140006080800B670623BD486FD9CA0000000F4000000130000005B436F6E74656E745F54797065735D2E786D6C7D8EC10E82300C865F65E91D8A1E8C310C0EEA1BF002731658846E
310
D98AC1B77784ABF1D8FE5FBFBF75BBCE937A534CCEB38643598122B6FEE978D0B0485F9C41B54DDD7D022595594E1A469170414C76A4D9A4D207E29CF43ECE46F218070CC6BECC4078ACAA135ACF422C856C0E68EA1BF5669944DDD7BCDE7B1F8E415D77AECB980613C2E4AC91FC167A2B244592486606FC29C8FD7F045B9A
310
EF7053A7E60B504B0304140006080800B670623BBC1638F5EC0000007C01000008000000636F72652E786D6C8D90416EC3201045AF82665B61836BE2D8C24471DB9CA01740401C94182C03558F5F9C3852BBEB6A467FFE9B197D7EF89E6EE8CB2CC17AD7032D0820E394D7D68D3DA478C67B4007C117EFE32F1B202727D3C3
310
2A83E0E3E2D3BC49CABB685CCCAAF3DA6CA20CC14440EA969B1E82BA98491632C5EC08D76296EA2A4753D06797E194AC468F2356E77DF66CCD02825543D50CACC62D39ED70FDC68EB8FD68F6F8787A6784342D1DDA1D2F5758F068A7E77DB518198D065111D2624A31A93E69DD11D6D5EC85EC3B4278B9DAFF4069D6FF8492
310
75F1B5DADE7D600104CD8FDC0782976B16B9DC83CA75CD4DFC00504B0304140006080800B670623B55019EA25F0000007C00000007000000636E782E786D6C4DCB3B0E80201045D1AD90E915ED2CF8AC45050C11660C8261F98AB1B07AC9C97D42D718D865D3E909258CFD00CCE24AC6E326A164D74DC0B4128928FF326038
310
472BA13128B1252AC747C6BAB984FC68F0B87FE8960A5C09FE86CFB69FBA01504B0304140006080800B670623B3586FFB671010000D40300000C0000006662782F636F72652E786D6CC553ED6E8320147D15C2DF4541A76D6D90A6DDD627D80B50A4CE54C120983EFEAE1F4DD7A55BBA5FF3879273EEE59E7310B6393735EA
310
95ED2AA3731C851423A5A5292A5DE6D8BB63B0C268C39935C67D29C3488B46E578803167A535BE9D2169B453DA01AA4DA16650749D7218C91A1639EEE4876A4428BC838AEE14B6429E44A9C228041AEA38EB9C0501681A32BC313F1ECE8C4C3867DE57C5CC56054CAB8E95B298A7F12E5EEED224C8E87E11242FE936C8DE96
310
AB60BB7F4D295D66D12E5B30323473E6AAE6A24E5A259C2A308F29CD82280A68FC1E256B9AAE93F489AED694323294DF34F9B678B0C957DA3DC7B3DCA9ADC33C022123F1CD2D44E450277AD04338234388F01913BE0D1A0281909D38D4171F27807A259DB1093085F157AA17B557309586747CD0CF0B46A64E983A6E0EAEEF
310
CE881F9EF1FB8E70D44297604238581EBC1B74B249C31C5AAB6CD0BB33D2C636A27ECCC62F0EFF445DC5DF95244D6DEC7F2922F30191F9F720C37DE49F504B0304140006080800B670623B4220A0FF7D0000009D0000000B0000006662782F636E782E786D6C4DCCD10A83201886E15B91FFDCE542CB0335D0EC3E6259C84A
310
C3E9D8E5AF46073BFAE0E1E315DD675BD1DBA5978F41C2FD4600B9F088930F8B849267CC01754AA418F3DF0D50183727E164506249B1EC174D6E1ECB9A0F5D7D785E68DB8151CD286E5A5363CA6B8A39E90D36D40E96B086F55A43A544F52B1D7B86D517504B0304140006080800B670623B2FA3FEDE290100001202000031
310
0000006662782F45374635344235342D363743322D343832342D383044432D4334454645303536354442422F636F72652E786D6C8D515B6EC32010BC0AE22B55850D2E386E848994D7097A0117488A1283C5A3CAF10BB523B57FF961D1ECCCECC0F2ED7DBC816FED8371B687A4C210682B9D32F6D2C314CFA883602BB8772E
310
FEA141608751F7B0C050F08B77695A20E96CD43666D43AA5177008414708E42D5F7A18E4971E876A483133C2B59A06791D2EBA22556E679EE021FA1C00CC43CA09C5717D6274C7286AD7FB06D1AEA1A8C3873DDAD3E3E98859CB0EBB1DAF67A1E02919B5C88DCA71CCD968FFAC49110B1ECDF8882FBD1EA256503418BF2342
310
106E3E08DD60B6A1EC15771B8C795DE8FF4469524F8A92B1F1AD59E2CEB20005E1F5DC105CB9F4797B84D1F7C9F908CABC55D0F2050A5C61CC1AD2F27A26E6E767C7962E8E213A9FBF7775FDCC5CC266DB960A5E970DE5F2BBBE5CCB36C50F504B0304140006080800B670623B1B8617914E01000033030000300000006662
310
782F45374635344235342D363743322D343832342D383044432D4334454645303536354442422F636E782E786D6CD593C16EC32010447F0571AD6CE3D489D20813A9877E410FBD62D82434182CC055F3F75D1292E692438FBD206B7698593D61BEFD1E2DF982108D773D6D6B460938E5B571FB9ECE6957AD29D90A1EBC4F77
310
364A9C1CA1A759A682EF839FA72269D8C9D92654AD71C72206887E0E0A22CAF926B15E498B01E0AA19451807D01A34B919F16B070157417138917400F2F6FA41FCF0092A45DEE414C19BDC21783E4BD39D891265658C3D8DEA00A3ACE59CBC8678ACB54CB26EEB6BD7839D7E9348BE70AD9C8321B9BCA7F9A4A26C542347DE
310
E050F09802D22BA6749A800A394DD62899107273365E3C82CFC6A55557BC06C10774B7ABE7AEC3B0F34CF06446280E154026D0542C187BA9DAB6628BF7B6DBB0E5A65B3EB1F58631DE64BBE083F7B65CC218087E22CABB042E51D1F2268F1FE12B3EA24D40D63E9CFE00120194D60B9D5BC67FE6D39CDF37E20AF817881F50
310
4B0304140006080800B670623B29652116630500003C100000340000006662782F45374635344235342D363743322D343832342D383044432D4334454645303536354442422F6F626A656374732E786D6CAD575D739B3814FD2B0CFB0C989834C90EA1639B24E3E9A6EDD4D3CE3E64C623834CD8006224913AFDF57B040203
310
B65BEF871F0C12D2FD3CF7E8CA7FBFCB33E3957291B2E2D674ED8969D02262715A24B76625B7D6B569BC0F7CCE98EC2D338D82E4F4D654D366E0279C55A59E8AE99654991CCDDECFFF3444440B6A1A514684B83545F44C7362934AB2988A173B2692D8C97667BB76B3702836E1A47C1E092D09A78584A5982F20C5688C7287
310
C389E904BEA3BE07BEFAD7ABA6A75739B53F43FD69212429A20365233153D70BEF2E2E6FAC4BCF9B5ADEBB0BD79ADFCF43CBBD9A4E16EF168B9BD9DD0D140BC921495BC2E9D60C1E101B9E46BED37CEA2CD6861F3329624541A3DA7F7858DBAC25C6B4A4458C3CA654405BCFEBC970E8AAD8F43E4FD558ABEC4F9FE7557F47
310
4F506B7BFBEC5BCA367FC105710E2AB8A00A554D7CB4A30DFE26FBA86D18CBF4B75418399194A72433B274C3097F33032C554B027F2046A1932B842B0FCCC0DDCBEBDB8AD2F835768F59B9ADB24C41D30C6A64AF817F2A456D59FA83F2E3DA60137255A585BCD60EC9B7929AC18DEFD49381AF1ED30BFDB109A4B1CD488294
310
C3CDE6EBC8D185AABD6568061FEE37BB95AAC7E3CA4BCE4ACAA5820FA0D526AE7DAA2869B5EE5999531BE0CC20E6FBA07C41E43FA27CF7A6206F3CDD793B4F6B919C1462CB788EDCD893FA674CDA17AB7B3B7C019F8D561FAEE966FED562DFE98C1D12C6A9FC015C2A35D7FF3D7FC398F591DA4B5FE0BFA2C0189FEA50AE22
310
92817A1ED3020951A03432862970F976B33383259812CC8E5D240BBA801CBCF8CE2BBEE3BF910DB6AAD5F79E05123AE2DB33981FB1ACCB02B69D00CB014FD68AB573A7627EF9BFD4CC2C5C7D58557C4B22FAA88925A4DBB44825CECE3D78FB060D1231F0E885BE7D673C86A3874958F593906B5502D1563157814FDAC3420D
310
F69A070A22EC4B98E23CFF171A1E5311D12C23056555ABA53B8614563B92D17D02AAB009E8F46284624E5F53D5490C560CCCC2591FF1B45421EB0EBD8EA7ED13BE7C5D7E0428CD60FEF60779EB13E6664FF711CB185F6FDED60D139A001FF60CD1FD6D086F1D51474901E26B2CB794A343BC8ED3EDB612E0DD2351FCB65CF4
310
33D511C9E14B5B40ADC6A6263DB0336A8F700DDF56271A024E70B0B3629DE21847591E55DED73D56206AB927E46FAABC5C939C55853C274C93D69FD6FA4E78BF8B11DF898C9ECD60553FAD39283BA6F18984AA23E8884F83F45C5F5F859797B31B2B9C84A1E5B9DE9D35BFF25C6B76152E422F9C5DCC3D847F5801ED09D5AF
310
41441327A25FF15487F9EB725FB666F048A4701E9A827292E6F97569A32DF61DEC01C0BB8DCBBCCC684E0B49147C1FD54BF685A0AB18C868E6973949E819523E3DAC463660E68C7D9F55A9D1EFA3BD7A76A16AE1A810F95CE59B82A4D968A376DC2E8B44BBDD86B27B368CDE0ED548C7137DA860591A83706223A12CA712B4
310
7306DBF39C0A20A6DF95C7FAF670C6EED7A61F946493D1D6926782963813403548A78AE470DEF80D2D9CEAA26E4D1C76F60BFE74219A06527D6B82DF641A51616F703CAAC6A7160E08A00BEB4810A0274592A1B36E3675E36E978A0DE80727A0D6DF2D39A75BD27E0D8837276589537B40ABB56D5A41F48F1C6FCD3188C4EB
310
A6929D2FFB89CE995A4D00AE813BDD032DC48B56BD437DFDDC2DD7AED70C2272D63DE9A72068A45A92F0A4BE17A8A06B9366E16707AD80B1FC649459952097E74BB23805982B55E0401150A165964402AA8BDF9F3E7386BB686EDCA780C0D382E5392BF460A6EFB2C6EA1937D3F809B440D5F5435C4C5CF7A9EEFAF54564BD
310
2182DA24162F98680B4E7930C21A0079709CEAEB99A372305ABE0C0D7D6078105A83F6A0296DAEE1068A47DD1C55A9F4C9B2FC69E3EFD44B81028E963DF81B504B0304140006080000B670623B000000000000000000000000350000006662782F45374635344235342D363743322D343832342D383044432D433445464530
310
3536354442422F76657274696365732E62696E504B0304140006080800B670623BF270F1330600000004000000360000006662782F45374635344235342D363743322D343832342D383044432D4334454645303536354442422F747269616E676C65732E62696E636660600000504B0304140006080000B670623B00000000
310
0000000000000000370000006662782F45374635344235342D363743322D343832342D383044432D4334454645303536354442422F617474726962757465732E62696E504B0304140006080800B670623B08DA0BD19000000041010000360000006662782F45374635344235342D363743322D343832342D383044432D4334
310
454645303536354442422F6469726563746F72792E786D6C858F410AC3201045AF22B36F53E9A60B35CBEEBAE80D244E44489C6234F4F835464A48035D0DF398FF9F8AF63D0E6CC63039F212F8F9020C7D47C6792B21C5FE7403D62A1188E2E60C98D7234A5830286103A55745067B9D86B8A3CF9C7F90C11DE607FB144396
310
D7B6A82D282E9A152AD114D5EF2CB866EEE831B8EEA07A7BB5A8D7D61A2BAAEB7FD5F70921FF497D00504B0304140006080800B670623B6378F24DFF000000A00100003B0000006662782F45374635344235342D363743322D343832342D383044432D4334454645303536354442422F7265736F75726365732F636F72652E
310
786D6C8D504B6E833010BD0A9A6D65B0094E42641C85B639412F6099496225D8C89FAAC7AF09546A77DDCC8CDE47F3F4C4F16B7C149FE88371B603565228D06A37187BED20C50BD9437194C23B177FC9A0B06AC40E6618A4B87A97A615D2CE46B431A3D60DB8822A048C50E8473E3A08FA86A32A558A5911EEE5A4F45D5DB1
310
6465A6B34E8A107D0E502C4FE609D26370C96B0CA25A58295232C3AA3143FE692E063D485EF7F5AEE71BD2D2F39634AFFC44DAF7DD9E9CCE6F9CD25DCBFA762BAAD92C4534E34F46ED51451C40D694B6843142EB0FD61C283F34FC85EE0F948A6A96FF31A569F8A729191B37F51A77B105902C0779125254735F793DCBCC7B
310
EE567E03504B010214000A0000080000B670623B3DEE336E79000000790000001B00000000000000000000000000000000006175746F6465736B2D64657369676E2D7061636B6167652E786D6C504B01021400140006080800B670623BD486FD9CA0000000F40000001300000000000000000000000000B20000005B436F6E
310
74656E745F54797065735D2E786D6C504B01021400140006080800B670623BBC1638F5EC0000007C010000080000000000000000000000000083010000636F72652E786D6C504B01021400140006080800B670623B55019EA25F0000007C000000070000000000000000000000000095020000636E782E786D6C504B010214
310
00140006080800B670623B3586FFB671010000D40300000C00000000000000000000000000190300006662782F636F72652E786D6C504B01021400140006080800B670623B4220A0FF7D0000009D0000000B00000000000000000000000000B40400006662782F636E782E786D6C504B01021400140006080800B670623B2F
310
A3FEDE290100001202000031000000000000000000000000005A0500006662782F45374635344235342D363743322D343832342D383044432D4334454645303536354442422F636F72652E786D6C504B01021400140006080800B670623B1B8617914E010000330300003000000000000000000000000000D2060000666278
310
2F45374635344235342D363743322D343832342D383044432D4334454645303536354442422F636E782E786D6C504B01021400140006080800B670623B29652116630500003C10000034000000000000000000000000006E0800006662782F45374635344235342D363743322D343832342D383044432D4334454645303536
310
354442422F6F626A656374732E786D6C504B01021400140006080000B670623B0000000000000000000000003500000000000000000000000000230E00006662782F45374635344235342D363743322D343832342D383044432D4334454645303536354442422F76657274696365732E62696E504B01021400140006080800
310
B670623BF270F13306000000040000003600000000000000000000000000760E00006662782F45374635344235342D363743322D343832342D383044432D4334454645303536354442422F747269616E676C65732E62696E504B01021400140006080000B670623B0000000000000000000000003700000000000000000000
310
000000D00E00006662782F45374635344235342D363743322D343832342D383044432D4334454645303536354442422F617474726962757465732E62696E504B01021400140006080800B670623B08DA0BD190000000410100003600000000000000000000000000250F00006662782F45374635344235342D363743322D34
310
3832342D383044432D4334454645303536354442422F6469726563746F72792E786D6C504B01021400140006080800B670623B6378F24DFF000000A00100003B00000000000000000000000000091000006662782F45374635344235342D363743322D343832342D383044432D4334454645303536354442422F7265736F75
310
726365732F636F72652E786D6C504B0506000000000E000E0080040000611100000000
  0
XRECORD
  5
112
102
{ACAD_REACTORS
330
110
102
}
330
110
100
AcDbXrecord
280
     1
270
     1
271
     1
  0
XRECORD
  5
111
102
{ACAD_REACTORS
330
110
102
}
330
110
100
AcDbXrecord
280
     1
270
     1
271
     1
  0
XRECORD
  5
18A
102
{ACAD_REACTORS
330
110
102
}
330
110
100
AcDbXrecord
280
     1
 70
     0
 90
1778669749
  1
9BF507EE-FAF7-4A99-A33D-4EE51894BC40
310
504B03040A0000080000B670623B3DEE336E79000000790000001B0000006175746F6465736B2D64657369676E2D7061636B6167652E786D6C3C3F786D6C2076657273696F6E3D22312E302220656E636F64696E673D227574662D3822203F3E3C666F726D6174733E3C666F726D61743E687474703A2F2F736368656D612E
310
6175746F6465736B2E636F6D2F64657369676E2D7061636B6167652F323030393C2F666F726D61743E3C2F666F726D6174733E504B0304140006080800B670623BD486FD9CA0000000F4000000130000005B436F6E74656E745F54797065735D2E786D6C7D8EC10E82300C865F65E91D8A1E8C310C0EEA1BF002731658846E
310
D98AC1B77784ABF1D8FE5FBFBF75BBCE937A534CCEB38643598122B6FEE978D0B0485F9C41B54DDD7D022595594E1A469170414C76A4D9A4D207E29CF43ECE46F218070CC6BECC4078ACAA135ACF422C856C0E68EA1BF5669944DDD7BCDE7B1F8E415D77AECB980613C2E4AC91FC167A2B244592486606FC29C8FD7F045B9A
310
EF7053A7E60B504B0304140006080800B670623BCA089DFFEC0000007C01000008000000636F72652E786D6C8D90416E83301045AF62CDB632D8402020E32882F604BD80653BC44AB011B6AB1EBF262152BBEB6A467FFE9B197D76FA9EEFE84BAFDE38DB03CD08206DA553C64E3DC470C1474027CE56E7C22F1B202B66DDC3
310
260367D3EAE2B24BD2D9A06D48AA754AEFA2F05E0740F29E9A1EBCBCEA59642286E4F0B76C11F226269DD15797E0188D42CF2346A57DE662F40ABCAEC77628C6120F654571D50C04B7F5B9C1E3997CD4F550BE3745C3F20DE62C98F9755FAE5A04AD801784B498524C8A4F5A75E4D055873772EC0861F966FF03C545FD138A
310
C686B2D8DF7D621E384D8F3C069CE55B16A93C824A75CB8DFF00504B0304140006080800B670623B55019EA25F0000007C00000007000000636E782E786D6C4DCB3B0E80201045D1AD90E915ED2CF8AC45050C11660C8261F98AB1B07AC9C97D42D718D865D3E909258CFD00CCE24AC6E326A164D74DC0B4128928FF326038
310
472BA13128B1252AC747C6BAB984FC68F0B87FE8960A5C09FE86CFB69FBA01504B0304140006080800B670623B68FC0B7272010000D40300000C0000006662782F636F72652E786D6CC5535B6E833010BC8AE5DF0A6C1E8124328E22D29EA01770C0A128602363A31CBFCB234A53A555FA553EC09AD9F5CE8C31DB5DDA060D
310
D2F4B556190E7C8A9154852E6B5565D8D993B7C668C799D1DA7E29C3488956667884316795D1AE5BA0422B2B950554E9522EA0E87B69312A1A5864B82F3E642B7CE12C54F467BF13C55954D20F7CA0A18EB3DE1A1080E621E31BF3D3F1C2C88C73E65C5D2E6C5DC2B4FA544B8379921C36797888BC3C8A032F4E73EA6D927D
310
EA1DF6F42D49F2E8350D5346C666CE6CDD5ED515460A2B4BCC434A375E1078347C0FE22D5D6DE3D50B5D6F2965642CBF6B725DF96493AB958DC245EEDCD6631E809089F8E61622B2A81703E8219C913144F84C09DF070D8140C8561C9BAB8F3340832CAC363130A576376A108D933095FA747AD0CF0B46E64E983A6D0EAE1F
310
CE089F9EF1FB8E70D44255604258581E9D1D75B259C3125A278D37D80B52DAB4A279CEC62F0EFF44DDC43F9454E8469BFF5244960322CBEF41C6FBC83F01504B0304140006080800B670623B0F71DDB67E0000009D0000000B0000006662782F636E782E786D6C4DCCD10A83201886E15B91FFDCA54DB73F502386BB8F5816
310
32D3703976F9ABD1C18E3E78F87855FB990379BBFCF2296AE02706C4C5471A7C9C349475A408A4352AA7B4FEDD80C47E761A7606A3A69CCA72D0E0C6BE8475D3E0E3F3409428EA6B27A84079A782899AA2EC1A7AE3ECCC2FD858CB2D544655BFD2B67BD87C01504B0304140006080800B670623BE134B4FB28010000120200
310
00310000006662782F38353834323741342D343835462D343034322D383541392D4331303331363839454531452F636F72652E786D6C8D515B6EC32010BC0AE22B55850D0EA424C24451959EA0172086A42831583CAA1CBF503B52FB971F16CDCECC0EACD8DFC71BF836215AEF7A481A0C817183D7D65D7A98D3197108F652
310
04EFD31F1A044E8DA6871586525C82CFD3020DDE25E352419DD76601558C264130DCCAA58771F832A36A544E8511AFCDA486ABBA988634A55D7852C4144A00300FA927949C71DABD1D28A29C7D208A6987383B6CD13BC16BB2E1DBE3911C453B0BA5C8D9EA456E758963CFD684674DAA588A64C747FC2118958C86B2C3788B
310
0841B8FB247487D98EB257CC77188BB6D2FF89F2A49F1465EBD2BA5BE2CEB2082511EDDC9042FB7CBA3DC298FBE4430275DE2A9AE1054ADC60CC08E3A29D89E5F9C5714317C7987C28DFBBBA9E0A97B0D97643A568EB864AF95D5FA9759BF207504B0304140006080800B670623B1B8617914E010000330300003000000066
310
62782F38353834323741342D343835462D343034322D383541392D4331303331363839454531452F636E782E786D6CD593C16EC32010447F0571AD6CE3D489D20813A9877E410FBD62D82434182CC055F3F75D1292E692438FBD206B7698593D61BEFD1E2DF982108D773D6D6B460938E5B571FB9ECE6957AD29D90A1EBC4F
310
77364A9C1CA1A759A682EF839FA72269D8C9D92654AD71C72206887E0E0A22CAF926B15E498B01E0AA19451807D01A34B919F16B070157417138917400F2F6FA41FCF0092A45DEE414C19BDC21783E4BD39D891265658C3D8DEA00A3ACE59CBC8678ACB54CB26EEB6BD7839D7E9348BE70AD9C8321B9BCA7F9A4A26C542347
310
DEE050F09802D22BA6749A800A394DD62899107273365E3C82CFC6A55557BC06C10774B7ABE7AEC3B0F34CF06446280E154026D0542C187BA9DAB6628BF7B6DBB0E5A65B3EB1F58631DE64BBE083F7B65CC218087E22CABB042E51D1F2268F1FE12B3EA24D40D63E9CFE00120194D60B9D5BC67FE6D39CDF37E20AF817881F
310
504B0304140006080800B670623B5933D422630500003B100000340000006662782F38353834323741342D343835462D343034322D383541392D4331303331363839454531452F6F626A656374732E786D6CAD575B6FA33814FE2B887D0642934E9B156594264D158D3A534DD4D13E548A0C38942D60649B4EBABF7E3F8321
310
40924EF6928780CDF1B97EE762EFF32E4B8D37CA45C2F21BD3B547A641F39045491EDF98A5DC5AD7A6F1D9F73863B243661A39C9E88DA9B64DDF8B392B0BBD15D12D295339D85DDEFE618890E6D434C2940871638AF08566C426A5641115AF764424B1E3EDCE76ED9AB0CF36E6A47819302D08A7B984A6D8CFC1C5A89572FB
310
CB91E9F89EA3BEFB9EFAD754E3D3544E654F5F7E920B49F2F040D880CDD89D2CEE2E2EA7D6E56432B6269F2E5CEB7679BBB0DCABF168FE693E9FCEEEA6102C240727AD09A75BD3BF876F78127A4EFDA9D5582B7E4CA590E5390D2BFB6161A5B3E618D182E611E2985001691DAB47FDA5AB7CD3F93C566B2DB2BB7D9E55DD13
310
1D468DEECDB3AB290BFE8409E21C54704115AA6AFF68436BFC8DF65E0B184BF5B74418199194272435D224E084BF9B3E481589EFF5D828747285706581E9BB7B7E5D5D911ABFC6EE312DB7659A2A689A7E85EC0DF04FA5A8344BFEA2FCB834E8845895492EAFB541F2BDA0A63FF59C6AD3F7D4637CA13FD68E34B629891172
310
98597F1D183A57B9B75A98FE9765B05BAB7C3C2EBCE0ACA05C2AF8005A4DE09AA7F29216EB9E15397500C6F47CBE77CA7778FE2BD277AF0AE2C693DD6437D1522427B9D8329E2136F6A8FA19A3E6C56ADF0E5F50CF06D48734EDCEBF22F69C56D97EC138153F804B85E6FABFC7AFEFB32E523BE1F3BD372418E363EDCA7548
310
52949E8724474014288D94610BB57C1BEC4C7F854A89CA8E5324F55B871CBC78CE1BBEE3BFE68D6A5589EF3C730474506FCFA8FCF0659516D0ED04580EEA6425581B77CAE797FF4BCECC16EB2FEB926F49481F746159D06D922712BD730FDEAE42BD40F42C7AA5EF3F198F60E86110D6DD20645A9480B795CF95E3E3A659A8
310
C55E724F408873315335CFFB8584874484344D494E59D94869DB90C26A5B64F49C802CAC1D3ABE18A098D3B7444D123D8A9E5AE8F5214F0AE5B2B6E9B575DA3E61CBD3EA2B4009FA940524DD1305FB6A1FB294F14DF0BEA90BA109ECE1481FDC3FFAE8D60E75141700BE82725371B4873751B2DD960265F788137FACE6DD40
310
B575E4F0A5C99F46629D92131467A41EE11ABD8D4CCC039CA0AFB37C93A08B232B8F0AEFCA1E0A1015DF13FC83322B362463652ECF71D3A8B1A7D1BE65DE1D62C44F22C317D35F574FEB16153BA2D13E543D10A80E74C4A65E78A6B7CBCBD1D5DD9DB59C2DAFACC96C3AB566E3F1C29ADCDD5DBAD7D3C9ED7C822ED74F80A6
310
41755310DE4443F44A9E68373FADF6596BFA0F440AE7BECE2727AE9F4F2B1B53B1E7E00CF0DD1E5C65454A339A4BA2D0FBA05ED2EF0443458F47BDBFCA484CCFE0F2ED7E3DD0013B679C7B5499467F0ECEEADDB9CA85A34CE44B99053949D2C1416DB85DE4B136BB7165FBAC0B7AB3542BED4F8CA182A549847A1319316519
310
95A83A67147B9E5101C47487F2485F1ECE38FD568F839204296D3479219888530154036E6528FBFBC66F98E0D4107563A2D7D9AFF8D389681A08F58D89F22693900A3B407754734FC51C10C010D6D640809EE4718AC1BA3ED4AEDB53CA37283F68805A7E4B72CEB0A4EDEAD5DD8C14059A76AFAA56BA6901E13F32BC51C720
310
12AF41295B5BF61BAD3195181FB506E6B40F4C10AF5AF40EF9F5B159AE5DD1F43C72D635E94310D45C2D49785C5D0B94D3B54AB3C5A38349C0587D338AB48C11CBF339599C02CCA54A70A008A8D03C0B2201D5F9EFCF8F9CE12A9A19CB0410789EB32C63B95ECCF455D658BFE0621A3DA32C5075FB101723D77DAE867E7D0F
310
D90444509B44E2151B4DC2290B065803200FBAA9BE9D392A0603F2D5C2D00D6302A615680F66D2FA166E2079D4C551A54AB758161FCEFD4E450A14704CECFEDF504B0304140006080000B670623B000000000000000000000000350000006662782F38353834323741342D343835462D343034322D383541392D4331303331
310
363839454531452F76657274696365732E62696E504B0304140006080800B670623BF270F1330600000004000000360000006662782F38353834323741342D343835462D343034322D383541392D4331303331363839454531452F747269616E676C65732E62696E636660600000504B0304140006080000B670623B000000
310
000000000000000000370000006662782F38353834323741342D343835462D343034322D383541392D4331303331363839454531452F617474726962757465732E62696E504B0304140006080800B670623B08DA0BD19000000041010000360000006662782F38353834323741342D343835462D343034322D383541392D43
310
31303331363839454531452F6469726563746F72792E786D6C858F410AC3201045AF22B36F53E9A60B35CBEEBAE80D244E44489C6234F4F835464A48035D0DF398FF9F8AF63D0E6CC63039F212F8F9020C7D47C6792B21C5FE7403D62A1188E2E60C98D7234A5830286103A55745067B9D86B8A3CF9C7F90C11DE607FB1443
310
96D7B6A82D282E9A152AD114D5EF2CB866EEE831B8EEA07A7BB5A8D7D61A2BAAEB7FD5F70921FF497D00504B0304140006080800B670623BD9A3B367FE000000A00100003B0000006662782F38353834323741342D343835462D343034322D383541392D4331303331363839454531452F7265736F75726365732F636F7265
310
2E786D6C8D504B6E833010BD0A9A6D65B01D0201194711694FD00B586642AD043BF2A7EAF16B122AB5BB6E6646EFA3797AE2F8B5DC8A4FF4C1383B002B291468B59B8C9D0748F1420E501CA5F0CEC55F3228AC5A708015062966EFD27D83B4B3116DCCA875136EA00A012314FA968F0182FEC045952AC5AC08D7F2AEF455CD
310
58B232D3592745883E07289E4FD609D26370C96B0CA27AB252A464A64D63A6FCD35C0C7A904D73EE467EE664DCD58CD4ED4849D79C5A723ED1B7A61977AF2D6F45B59AA58866F9C9A83DAA8813484E6947182394BFB3BAA7FBBEDEBFD0434FA9A856F91F53BA4FFF342563E38E6F719FB60092E5200F428A6AED2BAF479979
310
AFDDCA6F504B010214000A0000080000B670623B3DEE336E79000000790000001B00000000000000000000000000000000006175746F6465736B2D64657369676E2D7061636B6167652E786D6C504B01021400140006080800B670623BD486FD9CA0000000F40000001300000000000000000000000000B20000005B436F6E
310
74656E745F54797065735D2E786D6C504B01021400140006080800B670623BCA089DFFEC0000007C010000080000000000000000000000000083010000636F72652E786D6C504B01021400140006080800B670623B55019EA25F0000007C000000070000000000000000000000000095020000636E782E786D6C504B010214
310
00140006080800B670623B68FC0B7272010000D40300000C00000000000000000000000000190300006662782F636F72652E786D6C504B01021400140006080800B670623B0F71DDB67E0000009D0000000B00000000000000000000000000B50400006662782F636E782E786D6C504B01021400140006080800B670623BE1
310
34B4FB280100001202000031000000000000000000000000005C0500006662782F38353834323741342D343835462D343034322D383541392D4331303331363839454531452F636F72652E786D6C504B01021400140006080800B670623B1B8617914E010000330300003000000000000000000000000000D3060000666278
310
2F38353834323741342D343835462D343034322D383541392D4331303331363839454531452F636E782E786D6C504B01021400140006080800B670623B5933D422630500003B10000034000000000000000000000000006F0800006662782F38353834323741342D343835462D343034322D383541392D4331303331363839
310
454531452F6F626A656374732E786D6C504B01021400140006080000B670623B0000000000000000000000003500000000000000000000000000240E00006662782F38353834323741342D343835462D343034322D383541392D4331303331363839454531452F76657274696365732E62696E504B01021400140006080800
310
B670623BF270F13306000000040000003600000000000000000000000000770E00006662782F38353834323741342D343835462D343034322D383541392D4331303331363839454531452F747269616E676C65732E62696E504B01021400140006080000B670623B0000000000000000000000003700000000000000000000
310
000000D10E00006662782F38353834323741342D343835462D343034322D383541392D4331303331363839454531452F617474726962757465732E62696E504B01021400140006080800B670623B08DA0BD190000000410100003600000000000000000000000000260F00006662782F38353834323741342D343835462D34
310
3034322D383541392D4331303331363839454531452F6469726563746F72792E786D6C504B01021400140006080800B670623BD9A3B367FE000000A00100003B000000000000000000000000000A1000006662782F38353834323741342D343835462D343034322D383541392D4331303331363839454531452F7265736F75
310
726365732F636F72652E786D6C504B0506000000000E000E0080040000611100000000
  0
XRECORD
  5
113
102
{ACAD_REACTORS
330
110
102
}
330
110
100
AcDbXrecord
280
     1
270
     1
271
     1
  0
XRECORD
  5
114
102
{ACAD_REACTORS
330
110
102
}
330
110
100
AcDbXrecord
280
     1
270
     1
271
     1
  0
CELLSTYLEMAP
  5
F86C6
102
{ACAD_REACTORS
330
104
102
}
330
104
100
AcDbCellStyleMap
 90
        3
300
CELLSTYLE
  1
TABLEFORMAT_BEGIN
 90
        5
170
     1
 91
        0
 92
    32768
 62
   257
 93
        1
300
CONTENTFORMAT
  1
CONTENTFORMAT_BEGIN
 90
        0
 91
        0
 92
      512
 93
        0
300

 40
0.0
140
1.0
 94
        5
 62
     0
340
11
144
0.25
309
CONTENTFORMAT_END
171
     1
301
MARGIN
  1
CELLMARGIN_BEGIN
 40
0.06
 40
0.06
 40
0.06
 40
0.06
 40
0.18
 40
0.18
309
CELLMARGIN_END
 94
        6
 95
        1
302
GRIDFORMAT
  1
GRIDFORMAT_BEGIN
 90
        0
 91
        1
 62
     0
 92
       -2
340
0
 93
        0
 40
0.045
309
GRIDFORMAT_END
 95
        2
302
GRIDFORMAT
  1
GRIDFORMAT_BEGIN
 90
        0
 91
        1
 62
     0
 92
       -2
340
0
 93
        0
 40
0.045
309
GRIDFORMAT_END
 95
        4
302
GRIDFORMAT
  1
GRIDFORMAT_BEGIN
 90
        0
 91
        1
 62
     0
 92
       -2
340
0
 93
        0
 40
0.045
309
GRIDFORMAT_END
 95
        8
302
GRIDFORMAT
  1
GRIDFORMAT_BEGIN
 90
        0
 91
        1
 62
     0
 92
       -2
340
0
 93
        0
 40
0.045
309
GRIDFORMAT_END
 95
       16
302
GRIDFORMAT
  1
GRIDFORMAT_BEGIN
 90
        0
 91
        1
 62
     0
 92
       -2
340
0
 93
        0
 40
0.045
309
GRIDFORMAT_END
 95
       32
302
GRIDFORMAT
  1
GRIDFORMAT_BEGIN
 90
        0
 91
        1
 62
     0
 92
       -2
340
0
 93
        0
 40
0.045
309
GRIDFORMAT_END
309
TABLEFORMAT_END
  1
CELLSTYLE_BEGIN
 90
        1
 91
        1
300
_TITLE
309
CELLSTYLE_END
300
CELLSTYLE
  1
TABLEFORMAT_BEGIN
 90
        5
170
     1
 91
        0
 92
        0
 62
   257
 93
        1
300
CONTENTFORMAT
  1
CONTENTFORMAT_BEGIN
 90
        0
 91
        0
 92
      512
 93
        0
300

 40
0.0
140
1.0
 94
        5
 62
     0
340
11
144
0.18
309
CONTENTFORMAT_END
171
     1
301
MARGIN
  1
CELLMARGIN_BEGIN
 40
0.06
 40
0.06
 40
0.06
 40
0.06
 40
0.18
 40
0.18
309
CELLMARGIN_END
 94
        6
 95
        1
302
GRIDFORMAT
  1
GRIDFORMAT_BEGIN
 90
        0
 91
        1
 62
     0
 92
       -2
340
0
 93
        0
 40
0.045
309
GRIDFORMAT_END
 95
        2
302
GRIDFORMAT
  1
GRIDFORMAT_BEGIN
 90
        0
 91
        1
 62
     0
 92
       -2
340
0
 93
        0
 40
0.045
309
GRIDFORMAT_END
 95
        4
302
GRIDFORMAT
  1
GRIDFORMAT_BEGIN
 90
        0
 91
        1
 62
     0
 92
       -2
340
0
 93
        0
 40
0.045
309
GRIDFORMAT_END
 95
        8
302
GRIDFORMAT
  1
GRIDFORMAT_BEGIN
 90
        0
 91
        1
 62
     0
 92
       -2
340
0
 93
        0
 40
0.045
309
GRIDFORMAT_END
 95
       16
302
GRIDFORMAT
  1
GRIDFORMAT_BEGIN
 90
        0
 91
        1
 62
     0
 92
       -2
340
0
 93
        0
 40
0.045
309
GRIDFORMAT_END
 95
       32
302
GRIDFORMAT
  1
GRIDFORMAT_BEGIN
 90
        0
 91
        1
 62
     0
 92
       -2
340
0
 93
        0
 40
0.045
309
GRIDFORMAT_END
309
TABLEFORMAT_END
  1
CELLSTYLE_BEGIN
 90
        2
 91
        1
300
_HEADER
309
CELLSTYLE_END
300
CELLSTYLE
  1
TABLEFORMAT_BEGIN
 90
        5
170
     1
 91
        0
 92
        0
 62
   257
 93
        1
300
CONTENTFORMAT
  1
CONTENTFORMAT_BEGIN
 90
        0
 91
        0
 92
      512
 93
        0
300

 40
0.0
140
1.0
 94
        2
 62
     0
340
11
144
0.18
309
CONTENTFORMAT_END
171
     1
301
MARGIN
  1
CELLMARGIN_BEGIN
 40
0.06
 40
0.06
 40
0.06
 40
0.06
 40
0.18
 40
0.18
309
CELLMARGIN_END
 94
        6
 95
        1
302
GRIDFORMAT
  1
GRIDFORMAT_BEGIN
 90
        0
 91
        1
 62
     0
 92
       -2
340
0
 93
        0
 40
0.045
309
GRIDFORMAT_END
 95
        2
302
GRIDFORMAT
  1
GRIDFORMAT_BEGIN
 90
        0
 91
        1
 62
     0
 92
       -2
340
0
 93
        0
 40
0.045
309
GRIDFORMAT_END
 95
        4
302
GRIDFORMAT
  1
GRIDFORMAT_BEGIN
 90
        0
 91
        1
 62
     0
 92
       -2
340
0
 93
        0
 40
0.045
309
GRIDFORMAT_END
 95
        8
302
GRIDFORMAT
  1
GRIDFORMAT_BEGIN
 90
        0
 91
        1
 62
     0
 92
       -2
340
0
 93
        0
 40
0.045
309
GRIDFORMAT_END
 95
       16
302
GRIDFORMAT
  1
GRIDFORMAT_BEGIN
 90
        0
 91
        1
 62
     0
 92
       -2
340
0
 93
        0
 40
0.045
309
GRIDFORMAT_END
 95
       32
302
GRIDFORMAT
  1
GRIDFORMAT_BEGIN
 90
        0
 91
        1
 62
     0
 92
       -2
340
0
 93
        0
 40
0.045
309
GRIDFORMAT_END
309
TABLEFORMAT_END
  1
CELLSTYLE_BEGIN
 90
        3
 91
        2
300
_DATA
309
CELLSTYLE_END
  0
ENDSEC
  0
SECTION
  2
ACDSDATA
 70
     2
 71
     8
  0
ACDSSCHEMA
 90
        0
  1
AcDb_Thumbnail_Schema
  2
AcDbDs::ID
280
    10
 91
        8
  2
Thumbnail_Data
280
    15
 91
        0
101
ACDSRECORD
 95
        0
 90
        1
  2
AcDbDs::TreatedAsObjectData
280
     1
291
     1
101
ACDSRECORD
 95
        0
 90
        2
  2
AcDbDs::Legacy
280
     1
291
     1
101
ACDSRECORD
  1
AcDbDs::ID
 90
        3
  2
AcDs:Indexable
280
     1
291
     1
101
ACDSRECORD
  1
AcDbDs::ID
 90
        4
  2
AcDbDs::HandleAttribute
280
     7
282
     1
  0
ACDSSCHEMA
 90
        1
  1
AcDbDs::TreatedAsObjectDataSchema
  2
AcDbDs::TreatedAsObjectData
280
     1
 91
        0
  0
ACDSSCHEMA
 90
        2
  1
AcDbDs::LegacySchema
  2
AcDbDs::Legacy
280
     1
 91
        0
  0
ACDSSCHEMA
 90
        3
  1
AcDbDs::IndexedPropertySchema
  2
AcDs:Indexable
280
     1
 91
        0
  0
ACDSSCHEMA
 90
        4
  1
AcDbDs::HandleAttributeSchema
  2
AcDbDs::HandleAttribute
280
     7
 91
        1
284
     1
  0
ACDSSCHEMA
 90
        5
  1
AcDb3DSolid_ASM_Data
  2
AcDbDs::ID
280
    10
 91
        8
  2
ASM_Data
280
    15
 91
        0
101
ACDSRECORD
 95
        5
 90
        1
  2
AcDbDs::TreatedAsObjectData
280
     1
291
     1
101
ACDSRECORD
 95
        5
 90
        2
  2
AcDbDs::Legacy
280
     1
291
     1
101
ACDSRECORD
  1
AcDbDs::ID
 90
        3
  2
AcDs:Indexable
280
     1
291
     1
101
ACDSRECORD
  1
AcDbDs::ID
 90
        4
  2
AcDbDs::HandleAttribute
280
     7
282
     1
  0
ACDSRECORD
 90
        0
  2
AcDbDs::ID
280
    10
320
22
  2
Thumbnail_Data
280
    15
 94
     1666
310
89504E470D0A1A0A0000000D49484452000001000000006C0803000000B2ED9CC100000300504C5445212830FFFFFF2128300000000000000000000000000000000000000000000000000000330000660000990000CC0000FF0033000033330033660033990033CC0033FF0066000066330066660066990066CC0066FF0099
310
000099330099660099990099CC0099FF00CC0000CC3300CC6600CC9900CCCC00CCFF00FF0000FF3300FF6600FF9900FFCC00FFFF3300003300333300663300993300CC3300FF3333003333333333663333993333CC3333FF3366003366333366663366993366CC3366FF3399003399333399663399993399CC3399FF33CC00
310
33CC3333CC6633CC9933CCCC33CCFF33FF0033FF3333FF6633FF9933FFCC33FFFF6600006600336600666600996600CC6600FF6633006633336633666633996633CC6633FF6666006666336666666666996666CC6666FF6699006699336699666699996699CC6699FF66CC0066CC3366CC6666CC9966CCCC66CCFF66FF0066
310
FF3366FF6666FF9966FFCC66FFFF9900009900339900669900999900CC9900FF9933009933339933669933999933CC9933FF9966009966339966669966999966CC9966FF9999009999339999669999999999CC9999FF99CC0099CC3399CC6699CC9999CCCC99CCFF99FF0099FF3399FF6699FF9999FFCC99FFFFCC0000CC00
310
33CC0066CC0099CC00CCCC00FFCC3300CC3333CC3366CC3399CC33CCCC33FFCC6600CC6633CC6666CC6699CC66CCCC66FFCC9900CC9933CC9966CC9999CC99CCCC99FFCCCC00CCCC33CCCC66CCCC99CCCCCCCCCCFFCCFF00CCFF33CCFF66CCFF99CCFFCCCCFFFFFF0000FF0033FF0066FF0099FF00CCFF00FFFF3300FF3333
310
FF3366FF3399FF33CCFF33FFFF6600FF6633FF6666FF6699FF66CCFF66FFFF9900FF9933FF9966FF9999FF99CCFF99FFFFCC00FFCC33FFCC66FFCC99FFCCCCFFCCFFFFFF00FFFF33FFFF66FFFF99FFFFCCFFFFFF0000000D0D0D1A1A1A2828283535354343435050505D5D5D6B6B6B787878868686939393A1A1A1AEAEAEBB
310
BBBBC9C9C9D6D6D6E4E4E4F1F1F1FFFFFF0000000000000000000000000000000000000000000000000000000000002E4550F1000001634944415478DAED9BCB72C2301004F7FFFF77EE297044EC5816962E2133DD557040EC615BD25A0FA802000000000000000000804F43F2C842F3110D8FFC67F390D30858E848598D80
310
4712D302DACB640AD4FC14D056396C04AC960D93A7C08280168200042020514021000108400002C205F89C07AC0B28135605140210902D20BD06B4F7D875809C044CF37D969A2DC0A6126E53E094CB28B96788998053215085093876F938B526C0EC31B84B5A3742FC04B48BE2F723DB56C0D6F5BA17622AE0E7D66BB0E537
310
16703481808B9BD30C01BBB28880500117FB80B422D8DB0AA508B80890CAE7507CD4931A9E08D99C896994E8E808A122050C56072102DE8420C04A40A70501084040928073539A80F369F96B2F902AA0967E60FE7F05FC6E8C9B0217AB2104244D01E9CE67CE35205A40F7BF417102E247C07125142540DD6F070B50190AD0
310
FDDDE0EEBAC428FD4136FD7B212B0100000000000000000000F0F77C015593AD5B220BCA400000000049454E44AE4260829E009C02AB882400670008AA1A09C01F803DB482842B007804B0C60D91CF2F9E2F7FB1C23DC1579225015C3F890CE05202B8F9242E001C5FF3827301006B5440D9FC87A325E680CBB4BF3A80E341
310
024800126BCED8DCCAFE0BC89323148B0004169DB1773E315BC236EF7D16429C74C0FC8810FAB822E4686C54F4D26BA9A9E2DD7790D975BD451A1FD53D220800A0797E05CB04E203000DE41FA502A8BD05F61574D1160836078CE58FF12DE253CECF072C2F70EA6F011040B1F60060AF8009C658FE140940F746886607B0F5
310
F2D84660BD1618B88A08D2027100640B8C5D0B2DBC0AC45A06BBF6C2581840B855A0358D18E98F251203406F1A612A80B202BAD38891FF580B500000D49D4988F37FAC813E72214627000A3582A5C338FE00598ED82311F33F3A0000000049454E44AE4260820F467818FD4AC64A010000000049454E44AE42608200187F52
310
539FF6AC0FF2D01229B97F7B56AE64E8787DBF9E93B283504D4929EEDB336DE133B927D0B706F146D8FDD54728002424931276690CDE5FFA471401522320E6FA719CDCC9E90D234F422DA512220CD4066298BF969A4028B717C4D481E25C1BC6C59A99842240E2F24B1F92F8AC20F021F00EFE737AFD0FDF7E00E9E9886BC5
310
1247A50000000049454E44AE426082
  0
ENDSEC
  0
EOF
