  0
SECTION
  2
HEADER
  9
$ACADVER
  1
AC1032
  9
$ACADMAINTVER
 90
      197
  9
$DWGCODEPAGE
  3
ANSI_1252
  9
$LASTSAVEDBY
  1
gregb
  9
$REQUIREDVERSIONS
160
                 0
  9
$INSBASE
 10
0.0
 20
0.0
 30
0.0
  9
$EXTMIN
 10
106723.6368964539
 20
98007.82586972472
 30
0.0000005875452676
  9
$EXTMAX
 10
106724.3953807756
 20
98008.28739965544
 30
0.0000006466627627
  9
$LIMMIN
 10
0.0
 20
0.0
  9
$LIMMAX
 10
12.0
 20
9.0
  9
$ORTHOMODE
 70
     1
  9
$REGENMODE
 70
     1
  9
$FILLMODE
 70
     1
  9
$QTEXTMODE
 70
     0
  9
$MIRRTEXT
 70
     0
  9
$LTSCALE
 40
1.0
  9
$ATTMODE
 70
     1
  9
$TEXTSIZE
 40
0.2
  9
$TRACEWID
 40
0.05
  9
$TEXTSTYLE
  7
Standard
  9
$CLAYER
  8
freecads.com
  9
$CELTYPE
  6
ByLayer
  9
$CECOLOR
 62
   256
  9
$CELTSCALE
 40
1.0
  9
$DISPSILH
 70
     1
  9
$DIMSCALE
 40
1.0
  9
$DIMASZ
 40
0.18
  9
$DIMEXO
 40
0.0625
  9
$DIMDLI
 40
0.38
  9
$DIMRND
 40
0.0
  9
$DIMDLE
 40
0.0
  9
$DIMEXE
 40
0.18
  9
$DIMTP
 40
0.0
  9
$DIMTM
 40
0.0
  9
$DIMTXT
 40
0.18
  9
$DIMCEN
 40
0.09
  9
$DIMTSZ
 40
0.0
  9
$DIMTOL
 70
     0
  9
$DIMLIM
 70
     0
  9
$DIMTIH
 70
     1
  9
$DIMTOH
 70
     1
  9
$DIMSE1
 70
     0
  9
$DIMSE2
 70
     0
  9
$DIMTAD
 70
     0
  9
$DIMZIN
 70
     0
  9
$DIMBLK
  1

  9
$DIMASO
 70
     1
  9
$DIMSHO
 70
     1
  9
$DIMPOST
  1

  9
$DIMAPOST
  1

  9
$DIMALT
 70
     0
  9
$DIMALTD
 70
     2
  9
$DIMALTF
 40
25.4
  9
$DIMLFAC
 40
1.0
  9
$DIMTOFL
 70
     0
  9
$DIMTVP
 40
0.0
  9
$DIMTIX
 70
     0
  9
$DIMSOXD
 70
     0
  9
$DIMSAH
 70
     0
  9
$DIMBLK1
  1

  9
$DIMBLK2
  1

  9
$DIMSTYLE
  2
Standard
  9
$DIMCLRD
 70
     0
  9
$DIMCLRE
 70
     0
  9
$DIMCLRT
 70
     0
  9
$DIMTFAC
 40
1.0
  9
$DIMGAP
 40
0.09
  9
$DIMJUST
 70
     0
  9
$DIMSD1
 70
     0
  9
$DIMSD2
 70
     0
  9
$DIMTOLJ
 70
     1
  9
$DIMTZIN
 70
     0
  9
$DIMALTZ
 70
     0
  9
$DIMALTTZ
 70
     0
  9
$DIMUPT
 70
     0
  9
$DIMDEC
 70
     4
  9
$DIMTDEC
 70
     4
  9
$DIMALTU
 70
     2
  9
$DIMALTTD
 70
     2
  9
$DIMTXSTY
  7
Standard
  9
$DIMAUNIT
 70
     0
  9
$DIMADEC
 70
     0
  9
$DIMALTRND
 40
0.0
  9
$DIMAZIN
 70
     0
  9
$DIMDSEP
 70
    46
  9
$DIMATFIT
 70
     3
  9
$DIMFRAC
 70
     0
  9
$DIMLDRBLK
  1

  9
$DIMLUNIT
 70
     2
  9
$DIMLWD
 70
    -2
  9
$DIMLWE
 70
    -2
  9
$DIMTMOVE
 70
     0
  9
$DIMFXL
 40
1.0
  9
$DIMFXLON
 70
     0
  9
$DIMJOGANG
 40
0.7853981633974483
  9
$DIMTFILL
 70
     0
  9
$DIMTFILLCLR
 70
     0
  9
$DIMARCSYM
 70
     0
  9
$DIMLTYPE
  6

  9
$DIMLTEX1
  6

  9
$DIMLTEX2
  6

  9
$DIMTXTDIRECTION
 70
     0
  9
$LUNITS
 70
     2
  9
$LUPREC
 70
     4
  9
$SKETCHINC
 40
0.1
  9
$FILLETRAD
 40
0.0
  9
$AUNITS
 70
     0
  9
$AUPREC
 70
     0
  9
$MENU
  1
.
  9
$ELEVATION
 40
0.0
  9
$PELEVATION
 40
0.0
  9
$THICKNESS
 40
0.0
  9
$LIMCHECK
 70
     0
  9
$CHAMFERA
 40
0.0
  9
$CHAMFERB
 40
0.0
  9
$CHAMFERC
 40
0.0
  9
$CHAMFERD
 40
0.0
  9
$SKPOLY
 70
     0
  9
$TDCREATE
 40
2458157.454583334
  9
$TDUCREATE
 40
2458157.287916667
  9
$TDUPDATE
 40
2460670.763472222
  9
$TDUUPDATE
 40
2460670.596805556
  9
$TDINDWG
 40
0.2153935185
  9
$TDUSRTIMER
 40
0.2153935185
  9
$USRTIMER
 70
     1
  9
$ANGBASE
 50
0.0
  9
$ANGDIR
 70
     0
  9
$PDMODE
 70
     0
  9
$PDSIZE
 40
0.0
  9
$PLINEWID
 40
0.0
  9
$SPLFRAME
 70
     0
  9
$SPLINETYPE
 70
     6
  9
$SPLINESEGS
 70
     8
  9
$HANDSEED
  5
51270
  9
$SURFTAB1
 70
     6
  9
$SURFTAB2
 70
     6
  9
$SURFTYPE
 70
     6
  9
$SURFU
 70
     6
  9
$SURFV
 70
     6
  9
$UCSBASE
  2

  9
$UCSNAME
  2

  9
$UCSORG
 10
0.0
 20
0.0
 30
0.0
  9
$UCSXDIR
 10
1.0
 20
0.0
 30
0.0
  9
$UCSYDIR
 10
0.0
 20
1.0
 30
0.0
  9
$UCSORTHOREF
  2

  9
$UCSORTHOVIEW
 70
     0
  9
$UCSORGTOP
 10
0.0
 20
0.0
 30
0.0
  9
$UCSORGBOTTOM
 10
0.0
 20
0.0
 30
0.0
  9
$UCSORGLEFT
 10
0.0
 20
0.0
 30
0.0
  9
$UCSORGRIGHT
 10
0.0
 20
0.0
 30
0.0
  9
$UCSORGFRONT
 10
0.0
 20
0.0
 30
0.0
  9
$UCSORGBACK
 10
0.0
 20
0.0
 30
0.0
  9
$PUCSBASE
  2

  9
$PUCSNAME
  2

  9
$PUCSORG
 10
0.0
 20
0.0
 30
0.0
  9
$PUCSXDIR
 10
1.0
 20
0.0
 30
0.0
  9
$PUCSYDIR
 10
0.0
 20
1.0
 30
0.0
  9
$PUCSORTHOREF
  2

  9
$PUCSORTHOVIEW
 70
     0
  9
$PUCSORGTOP
 10
0.0
 20
0.0
 30
0.0
  9
$PUCSORGBOTTOM
 10
0.0
 20
0.0
 30
0.0
  9
$PUCSORGLEFT
 10
0.0
 20
0.0
 30
0.0
  9
$PUCSORGRIGHT
 10
0.0
 20
0.0
 30
0.0
  9
$PUCSORGFRONT
 10
0.0
 20
0.0
 30
0.0
  9
$PUCSORGBACK
 10
0.0
 20
0.0
 30
0.0
  9
$USERI1
 70
     0
  9
$USERI2
 70
     0
  9
$USERI3
 70
     0
  9
$USERI4
 70
     0
  9
$USERI5
 70
     0
  9
$USERR1
 40
0.0
  9
$USERR2
 40
0.0
  9
$USERR3
 40
0.0
  9
$USERR4
 40
0.0
  9
$USERR5
 40
0.0
  9
$WORLDVIEW
 70
     1
  9
$SHADEDGE
 70
     3
  9
$SHADEDIF
 70
    70
  9
$TILEMODE
 70
     1
  9
$MAXACTVP
 70
    64
  9
$PINSBASE
 10
0.0
 20
0.0
 30
0.0
  9
$PLIMCHECK
 70
     0
  9
$PEXTMIN
 10
0.0
 20
0.0
 30
0.0
  9
$PEXTMAX
 10
0.0
 20
0.0
 30
0.0
  9
$PLIMMIN
 10
0.0
 20
0.0
  9
$PLIMMAX
 10
12.0
 20
9.0
  9
$UNITMODE
 70
     0
  9
$VISRETAIN
 70
     1
  9
$PLINEGEN
 70
     0
  9
$PSLTSCALE
 70
     1
  9
$TREEDEPTH
 70
  3020
  9
$CMLSTYLE
  2
Standard
  9
$CMLJUST
 70
     0
  9
$CMLSCALE
 40
1.0
  9
$PROXYGRAPHICS
 70
     1
  9
$MEASUREMENT
 70
     0
  9
$CELWEIGHT
370
    -1
  9
$ENDCAPS
280
     0
  9
$JOINSTYLE
280
     0
  9
$LWDISPLAY
290
     0
  9
$INSUNITS
 70
     1
  9
$HYPERLINKBASE
  1

  9
$STYLESHEET
  1
monochrome.ctb
  9
$XEDIT
290
     1
  9
$CEPSNTYPE
380
     0
  9
$PSTYLEMODE
290
     1
  9
$FINGERPRINTGUID
  2
{358EB121-6EE0-9143-8A3E-6E8E8869FDA6}
  9
$VERSIONGUID
  2
{3E35B49B-A3BC-3344-8AFD-D7ACA54C9E88}
  9
$EXTNAMES
290
     1
  9
$PSVPSCALE
 40
0.0
  9
$OLESTARTUP
290
     0
  9
$SORTENTS
280
   127
  9
$INDEXCTL
280
     0
  9
$HIDETEXT
280
     1
  9
$XCLIPFRAME
280
     2
  9
$HALOGAP
280
     0
  9
$OBSCOLOR
 70
   257
  9
$OBSLTYPE
280
     0
  9
$INTERSECTIONDISPLAY
280
     0
  9
$INTERSECTIONCOLOR
 70
   257
  9
$DIMASSOC
280
     2
  9
$PROJECTNAME
  1

  9
$CAMERADISPLAY
290
     0
  9
$LENSLENGTH
 40
50.0
  9
$CAMERAHEIGHT
 40
0.0
  9
$STEPSPERSEC
 40
2.0
  9
$STEPSIZE
 40
6.0
  9
$3DDWFPREC
 40
2.0
  9
$PSOLWIDTH
 40
0.25
  9
$PSOLHEIGHT
 40
4.0
  9
$LOFTANG1
 40
1.570796326794896
  9
$LOFTANG2
 40
1.570796326794896
  9
$LOFTMAG1
 40
0.0
  9
$LOFTMAG2
 40
0.0
  9
$LOFTPARAM
 70
     7
  9
$LOFTNORMALS
280
     1
  9
$LATITUDE
 40
37.795
  9
$LONGITUDE
 40
-122.394
  9
$NORTHDIRECTION
 40
0.0
  9
$TIMEZONE
 70
 -8000
  9
$LIGHTGLYPHDISPLAY
280
     1
  9
$TILEMODELIGHTSYNCH
280
     1
  9
$CMATERIAL
347
96
  9
$SOLIDHIST
280
     0
  9
$SHOWHIST
280
     1
  9
$DWFFRAME
280
     2
  9
$DGNFRAME
280
     0
  9
$REALWORLDSCALE
290
     1
  9
$INTERFERECOLOR
 62
     1
  9
$INTERFEREOBJVS
345
A3
  9
$INTERFEREVPVS
346
A0
  9
$CSHADOW
280
     0
  9
$SHADOWPLANELOCATION
 40
0.0
  0
ENDSEC
  0
SECTION
  2
CLASSES
  0
CLASS
  1
ACDBDICTIONARYWDFLT
  2
AcDbDictionaryWithDefault
  3
ObjectDBX Classes
 90
        0
 91
        1
280
     0
281
     0
  0
CLASS
  1
DICTIONARYVAR
  2
AcDbDictionaryVar
  3
ObjectDBX Classes
 90
        0
 91
       27
280
     0
281
     0
  0
CLASS
  1
TABLESTYLE
  2
AcDbTableStyle
  3
ObjectDBX Classes
 90
     4095
 91
        1
280
     0
281
     0
  0
CLASS
  1
MATERIAL
  2
AcDbMaterial
  3
ObjectDBX Classes
 90
     1153
 91
        3
280
     0
281
     0
  0
CLASS
  1
VISUALSTYLE
  2
AcDbVisualStyle
  3
ObjectDBX Classes
 90
     4095
 91
       25
280
     0
281
     0
  0
CLASS
  1
SCALE
  2
AcDbScale
  3
ObjectDBX Classes
 90
     1153
 91
       34
280
     0
281
     0
  0
CLASS
  1
MLEADERSTYLE
  2
AcDbMLeaderStyle
  3
ACDB_MLEADERSTYLE_CLASS
 90
     4095
 91
        1
280
     0
281
     0
  0
CLASS
  1
CELLSTYLEMAP
  2
AcDbCellStyleMap
  3
ObjectDBX Classes
 90
     1152
 91
        1
280
     0
281
     0
  0
CLASS
  1
EXACXREFPANELOBJECT
  2
ExAcXREFPanelObject
  3
EXAC_ESW
 90
     1025
 91
        1
280
     0
281
     0
  0
CLASS
  1
NPOCOLLECTION
  2
AcDbImpNonPersistentObjectsCollection
  3
ObjectDBX Classes
 90
     1153
 91
        1
280
     0
281
     0
  0
CLASS
  1
LAYER_INDEX
  2
AcDbLayerIndex
  3
ObjectDBX Classes
 90
        0
 91
        0
280
     0
281
     0
  0
CLASS
  1
SPATIAL_INDEX
  2
AcDbSpatialIndex
  3
ObjectDBX Classes
 90
        0
 91
        0
280
     0
281
     0
  0
CLASS
  1
IDBUFFER
  2
AcDbIdBuffer
  3
ObjectDBX Classes
 90
        0
 91
        0
280
     0
281
     0
  0
CLASS
  1
ACDBSECTIONVIEWSTYLE
  2
AcDbSectionViewStyle
  3
ObjectDBX Classes
 90
     1025
 91
        2
280
     0
281
     0
  0
CLASS
  1
ACDBDETAILVIEWSTYLE
  2
AcDbDetailViewStyle
  3
ObjectDBX Classes
 90
     1025
 91
        2
280
     0
281
     0
  0
CLASS
  1
SORTENTSTABLE
  2
AcDbSortentsTable
  3
ObjectDBX Classes
 90
        0
 91
        1
280
     0
281
     0
  0
CLASS
  1
ACAD_EVALUATION_GRAPH
  2
AcDbEvalGraph
  3
ObjectDBX Classes
 90
     1153
 91
        0
280
     0
281
     0
  0
CLASS
  1
BLOCKLINEARPARAMETER
  2
AcDbBlockLinearParameter
  3
ObjectDBX Classes
 90
     1153
 91
        0
280
     0
281
     0
  0
CLASS
  1
BLOCKLINEARGRIP
  2
AcDbBlockLinearGrip
  3
ObjectDBX Classes
 90
     1153
 91
        0
280
     0
281
     0
  0
CLASS
  1
BLOCKGRIPLOCATIONCOMPONENT
  2
AcDbBlockGripExpr
  3
ObjectDBX Classes
 90
     1153
 91
        0
280
     0
281
     0
  0
CLASS
  1
BLOCKSTRETCHACTION
  2
AcDbBlockStretchAction
  3
ObjectDBX Classes
 90
     1153
 91
        0
280
     0
281
     0
  0
CLASS
  1
ACDB_DYNAMICBLOCKPURGEPREVENTER_VERSION
  2
AcDbDynamicBlockPurgePreventer
  3
ObjectDBX Classes
 90
     1153
 91
        0
280
     0
281
     0
  0
CLASS
  1
BLOCKVISIBILITYPARAMETER
  2
AcDbBlockVisibilityParameter
  3
ObjectDBX Classes
 90
     1153
 91
        0
280
     0
281
     0
  0
CLASS
  1
BLOCKVISIBILITYGRIP
  2
AcDbBlockVisibilityGrip
  3
ObjectDBX Classes
 90
     1153
 91
        0
280
     0
281
     0
  0
CLASS
  1
ACDB_BLOCKREPRESENTATION_DATA
  2
AcDbBlockRepresentationData
  3
ObjectDBX Classes
 90
     1153
 91
        0
280
     0
281
     0
  0
CLASS
  1
SURFACE
  2
AcDbSurface
  3
ObjectDBX Classes
 90
     4095
 91
        0
280
     0
281
     1
  0
CLASS
  1
ACDBASSOCPERSSUBENTMANAGER
  2
AcDbAssocPersSubentManager
  3
ObjectDBX Classes
 90
     1024
 91
        1
280
     0
281
     0
  0
CLASS
  1
BLOCKARRAYACTION
  2
AcDbBlockArrayAction
  3
ObjectDBX Classes
 90
     1153
 91
        0
280
     0
281
     0
  0
CLASS
  1
BLOCKLOOKUPPARAMETER
  2
AcDbBlockLookupParameter
  3
ObjectDBX Classes
 90
     1153
 91
        0
280
     0
281
     0
  0
CLASS
  1
BLOCKLOOKUPGRIP
  2
AcDbBlockLookupGrip
  3
ObjectDBX Classes
 90
     1153
 91
        0
280
     0
281
     0
  0
CLASS
  1
BLOCKLOOKUPACTION
  2
AcDbBlockLookupAction
  3
ObjectDBX Classes
 90
     1153
 91
        0
280
     0
281
     0
  0
ENDSEC
  0
SECTION
  2
TABLES
  0
TABLE
  2
VPORT
  5
8
330
0
100
AcDbSymbolTable
 70
     1
  0
VPORT
  5
94
330
8
100
AcDbSymbolTableRecord
100
AcDbViewportTableRecord
  2
*Active
 70
     0
 10
0.0
 20
0.0
 11
1.0
 21
1.0
 12
106723.9092797084
 22
98007.76640451687
 13
0.0
 23
0.0
 14
0.5
 24
0.5
 15
0.5
 25
0.5
 16
0.0
 26
0.0
 36
1.0
 17
0.0
 27
0.0
 37
0.0
 40
1.732420455688832
 41
2.293369663941871
 42
50.0
 43
0.0
 44
0.0
 50
0.0
 51
0.0
 71
     0
 72
  1000
 73
     1
 74
     3
 75
     0
 76
     0
 77
     0
 78
     0
281
     0
 65
     1
110
0.0
120
0.0
130
0.0
111
1.0
121
0.0
131
0.0
112
0.0
122
1.0
132
0.0
 79
     0
146
0.0
348
9F
 60
     3
 61
     5
292
     1
282
     1
141
0.0
142
0.0
 63
   250
421
  3355443
1001
ACAD_NAV_VCDISPLAY
1070
     3
  0
ENDTAB
  0
TABLE
  2
LTYPE
  5
5
330
0
100
AcDbSymbolTable
 70
     1
  0
LTYPE
  5
14
330
5
100
AcDbSymbolTableRecord
100
AcDbLinetypeTableRecord
  2
ByBlock
 70
     0
  3

 72
    65
 73
     0
 40
0.0
  0
LTYPE
  5
15
330
5
100
AcDbSymbolTableRecord
100
AcDbLinetypeTableRecord
  2
ByLayer
 70
     0
  3

 72
    65
 73
     0
 40
0.0
  0
LTYPE
  5
16
330
5
100
AcDbSymbolTableRecord
100
AcDbLinetypeTableRecord
  2
Continuous
 70
     0
  3
Solid line
 72
    65
 73
     0
 40
0.0
  0
ENDTAB
  0
TABLE
  2
LAYER
  5
2
102
{ACAD_XDICTIONARY
360
18E
102
}
330
0
100
AcDbSymbolTable
 70
     2
  0
LAYER
  5
10
102
{ACAD_XDICTIONARY
360
E6
102
}
330
2
100
AcDbSymbolTableRecord
100
AcDbLayerTableRecord
  2
0
 70
     0
 62
     7
  6
Continuous
370
    -3
390
F
347
98
348
0
  0
LAYER
  5
204
330
2
100
AcDbSymbolTableRecord
100
AcDbLayerTableRecord
  2
freecads.com
 70
     0
 62
     7
  6
Continuous
370
    -3
390
F
347
98
348
0
1001
AcAecLayerStandard
1000

1000

1001
AcCmTransparency
1071
        0
  0
ENDTAB
  0
TABLE
  2
STYLE
  5
3
330
0
100
AcDbSymbolTable
 70
     2
  0
STYLE
  5
11
330
3
100
AcDbSymbolTableRecord
100
AcDbTextStyleTableRecord
  2
Standard
 70
     0
 40
0.0
 41
1.0
 50
0.0
 71
     0
 42
0.2
  3
arial.ttf
  4

1001
ACAD
1000
Arial
1071
       34
  0
ENDTAB
  0
TABLE
  2
VIEW
  5
6
330
0
100
AcDbSymbolTable
 70
     0
  0
ENDTAB
  0
TABLE
  2
UCS
  5
7
330
0
100
AcDbSymbolTable
 70
     0
  0
ENDTAB
  0
TABLE
  2
APPID
  5
9
330
0
100
AcDbSymbolTable
 70
    31
  0
APPID
  5
12
330
9
100
AcDbSymbolTableRecord
100
AcDbRegAppTableRecord
  2
ACAD
 70
     0
  0
APPID
  5
DD
330
9
100
AcDbSymbolTableRecord
100
AcDbRegAppTableRecord
  2
AcadAnnoPO
 70
     0
  0
APPID
  5
DE
330
9
100
AcDbSymbolTableRecord
100
AcDbRegAppTableRecord
  2
AcadAnnotative
 70
     0
  0
APPID
  5
DF
330
9
100
AcDbSymbolTableRecord
100
AcDbRegAppTableRecord
  2
ACAD_DSTYLE_DIMJAG
 70
     0
  0
APPID
  5
E0
330
9
100
AcDbSymbolTableRecord
100
AcDbRegAppTableRecord
  2
ACAD_DSTYLE_DIMTALN
 70
     0
  0
APPID
  5
107
330
9
100
AcDbSymbolTableRecord
100
AcDbRegAppTableRecord
  2
ACAD_MLEADERVER
 70
     0
  0
APPID
  5
1A6
330
9
100
AcDbSymbolTableRecord
100
AcDbRegAppTableRecord
  2
ACAD_NAV_VCDISPLAY
 70
     0
  0
APPID
  5
205
330
9
100
AcDbSymbolTableRecord
100
AcDbRegAppTableRecord
  2
AcAecLayerStandard
 70
     0
  0
APPID
  5
206
330
9
100
AcDbSymbolTableRecord
100
AcDbRegAppTableRecord
  2
AcCmTransparency
 70
     0
  0
APPID
  5
222
330
9
100
AcDbSymbolTableRecord
100
AcDbRegAppTableRecord
  2
ACAD_PSEXT
 70
     0
  0
APPID
  5
2DA
330
9
100
AcDbSymbolTableRecord
100
AcDbRegAppTableRecord
  2
GradientColor1ACI
 70
     0
  0
APPID
  5
2DB
330
9
100
AcDbSymbolTableRecord
100
AcDbRegAppTableRecord
  2
GradientColor2ACI
 70
     0
  0
APPID
  5
2F3
330
9
100
AcDbSymbolTableRecord
100
AcDbRegAppTableRecord
  2
ACAD_EXEMPT_FROM_CAD_STANDARDS
 70
     0
  0
APPID
  5
A1A
330
9
100
AcDbSymbolTableRecord
100
AcDbRegAppTableRecord
  2
AcDbBlockRepETag
 70
     0
  0
APPID
  5
2282
330
9
100
AcDbSymbolTableRecord
100
AcDbRegAppTableRecord
  2
RAK
 70
     0
  0
APPID
  5
39F4
330
9
100
AcDbSymbolTableRecord
100
AcDbRegAppTableRecord
  2
ACAD_DSTYLE_DIMJOGGED_JOGANGLE_SYMBOL
 70
     0
  0
APPID
  5
39F5
330
9
100
AcDbSymbolTableRecord
100
AcDbRegAppTableRecord
  2
AcDbDynamicBlockGUID
 70
     0
  0
APPID
  5
39F6
330
9
100
AcDbSymbolTableRecord
100
AcDbRegAppTableRecord
  2
ACAD_DSTYLE_DIMBREAK
 70
     0
  0
APPID
  5
3B59
330
9
100
AcDbSymbolTableRecord
100
AcDbRegAppTableRecord
  2
AEC_XDATA_BOUND_SPACE
 70
     0
  0
APPID
  5
75C5
330
9
100
AcDbSymbolTableRecord
100
AcDbRegAppTableRecord
  2
AcDbDynamicBlockTrueName
 70
     0
  0
APPID
  5
75C6
330
9
100
AcDbSymbolTableRecord
100
AcDbRegAppTableRecord
  2
AcDbBlockRepBTag
 70
     0
  0
APPID
  5
75C7
330
9
100
AcDbSymbolTableRecord
100
AcDbRegAppTableRecord
  2
ACAUTHENVIRON
 70
     0
  0
APPID
  5
AA90
330
9
100
AcDbSymbolTableRecord
100
AcDbRegAppTableRecord
  2
Acad_TC
 70
     0
  0
APPID
  5
AA9C
330
9
100
AcDbSymbolTableRecord
100
AcDbRegAppTableRecord
  2
AcDbBlockArrayActionTag
 70
     0
  0
APPID
  5
BEE4
330
9
100
AcDbSymbolTableRecord
100
AcDbRegAppTableRecord
  2
ACAD_DSTYLE_DIMTEXT_FILL
 70
     0
  0
APPID
  5
219E5
330
9
100
AcDbSymbolTableRecord
100
AcDbRegAppTableRecord
  2
AECLAY
 70
     0
  0
APPID
  5
26B46
330
9
100
AcDbSymbolTableRecord
100
AcDbRegAppTableRecord
  2
REVIT
 70
     0
  0
APPID
  5
280A5
330
9
100
AcDbSymbolTableRecord
100
AcDbRegAppTableRecord
  2
HATCHBACKGROUNDCOLOR
 70
     0
  0
APPID
  5
29EE0
330
9
100
AcDbSymbolTableRecord
100
AcDbRegAppTableRecord
  2
ACAD_STEPID
 70
     0
  0
APPID
  5
29EE1
330
9
100
AcDbSymbolTableRecord
100
AcDbRegAppTableRecord
  2
AcLayerTools
 70
     0
  0
APPID
  5
4D86C
330
9
100
AcDbSymbolTableRecord
100
AcDbRegAppTableRecord
  2
PE_URL
 70
     0
  0
ENDTAB
  0
TABLE
  2
DIMSTYLE
  5
A
330
0
100
AcDbSymbolTable
 70
     2
100
AcDbDimStyleTable
 71
     1
340
27
  0
DIMSTYLE
105
27
330
A
100
AcDbSymbolTableRecord
100
AcDbDimStyleTableRecord
  2
Standard
 70
     0
340
11
  0
ENDTAB
  0
TABLE
  2
BLOCK_RECORD
  5
1
330
0
100
AcDbSymbolTable
 70
     2
  0
BLOCK_RECORD
  5
1F
102
{ACAD_XDICTIONARY
360
15D
102
}
330
1
100
AcDbSymbolTableRecord
100
AcDbBlockTableRecord
  2
*Model_Space
340
22
 70
     0
280
     1
281
     0
  0
BLOCK_RECORD
  5
58
330
1
100
AcDbSymbolTableRecord
100
AcDbBlockTableRecord
  2
*Paper_Space
340
59
 70
     0
280
     1
281
     0
  0
BLOCK_RECORD
  5
5D
330
1
100
AcDbSymbolTableRecord
100
AcDbBlockTableRecord
  2
*Paper_Space0
340
5E
 70
     0
280
     1
281
     0
  0
ENDTAB
  0
ENDSEC
  0
SECTION
  2
BLOCKS
  0
BLOCK
  5
20
330
1F
100
AcDbEntity
  8
0
100
AcDbBlockBegin
  2
*Model_Space
 70
     0
 10
0.0
 20
0.0
 30
0.0
  3
*Model_Space
  1

  0
ENDBLK
  5
21
330
1F
100
AcDbEntity
  8
0
100
AcDbBlockEnd
  0
BLOCK
  5
5A
330
58
100
AcDbEntity
 67
     1
  8
0
100
AcDbBlockBegin
  2
*Paper_Space
 70
     0
 10
0.0
 20
0.0
 30
0.0
  3
*Paper_Space
  1

  0
ENDBLK
  5
5B
330
58
100
AcDbEntity
 67
     1
  8
0
100
AcDbBlockEnd
  0
BLOCK
  5
5F
330
5D
100
AcDbEntity
 67
     1
  8
0
100
AcDbBlockBegin
  2
*Paper_Space0
 70
     0
 10
0.0
 20
0.0
 30
0.0
  3
*Paper_Space0
  1

  0
ENDBLK
  5
60
330
5D
100
AcDbEntity
 67
     1
  8
0
100
AcDbBlockEnd
  0
ENDSEC
  0
SECTION
  2
ENTITIES
  0
LINE
  5
50EAA
330
1F
100
AcDbEntity
  8
freecads.com
100
AcDbLine
 10
106724.1672947044
 20
98008.09917062409
 30
0.0000005875452676
 11
106724.1772886171
 21
98008.10012316233
 31
0.0000005875452676
  0
LINE
  5
50EAB
330
1F
100
AcDbEntity
  8
freecads.com
100
AcDbLine
 10
106724.1696742074
 20
98008.10202823887
 30
0.0000005875452676
 11
106724.1672947044
 21
98008.09917062409
 31
0.0000005875452676
  0
LINE
  5
50EAC
330
1F
100
AcDbEntity
  8
freecads.com
100
AcDbLine
 10
106724.1753850147
 20
98008.10583839192
 30
0.0000005875452676
 11
106724.1696742074
 21
98008.10202823887
 31
0.0000005875452676
  0
LINE
  5
50EAD
330
1F
100
AcDbEntity
  8
freecads.com
100
AcDbLine
 10
106724.1810958219
 20
98008.10917227583
 30
0.0000005875452676
 11
106724.1753850147
 21
98008.10583839192
 31
0.0000005875452676
  0
LINE
  5
50EAE
330
1F
100
AcDbEntity
  8
freecads.com
100
AcDbLine
 10
106723.9695808742
 20
98008.10219633385
 30
0.0000005875452676
 11
106723.9695808742
 21
98008.10611855022
 31
0.0000005875452676
  0
LINE
  5
50EAF
330
1F
100
AcDbEntity
  8
freecads.com
100
AcDbLine
 10
106723.9702341709
 20
98008.09435190112
 30
0.0000005875452676
 11
106723.9695808742
 21
98008.10219633385
 31
0.0000005875452676
  0
LINE
  5
50EB0
330
1F
100
AcDbEntity
  8
freecads.com
100
AcDbLine
 10
106723.9688299324
 20
98008.09211063462
 30
0.0000005875452676
 11
106723.9702341709
 21
98008.09435190112
 31
0.0000005875452676
  0
LINE
  5
50EB1
330
1F
100
AcDbEntity
  8
freecads.com
100
AcDbLine
 10
106723.9711354907
 20
98008.18457221625
 30
0.0000005875452676
 11
106723.9711354907
 21
98008.18269515556
 31
0.0000005875452676
  0
LINE
  5
50EB2
330
1F
100
AcDbEntity
  8
freecads.com
100
AcDbLine
 10
106723.9698850666
 20
98008.18770065074
 30
0.0000005875452676
 11
106723.9711354907
 21
98008.18457221625
 31
0.0000005875452676
  0
LINE
  5
50EB3
330
1F
100
AcDbEntity
  8
freecads.com
100
AcDbLine
 10
106723.962382522
 20
98008.16517592243
 30
0.0000005875452676
 11
106723.9648833702
 21
98008.16267317484
 31
0.0000005875452676
  0
LINE
  5
50EB4
330
1F
100
AcDbEntity
  8
freecads.com
100
AcDbLine
 10
106723.9605068859
 20
98008.16893004382
 30
0.0000005875452676
 11
106723.962382522
 21
98008.16517592243
 31
0.0000005875452676
  0
LINE
  5
50EB5
330
1F
100
AcDbEntity
  8
freecads.com
100
AcDbLine
 10
106723.9567556136
 20
98008.17518691278
 30
0.0000005875452676
 11
106723.9605068859
 21
98008.16893004382
 31
0.0000005875452676
  0
LINE
  5
50EB6
330
1F
100
AcDbEntity
  8
freecads.com
100
AcDbLine
 10
106723.9561304015
 20
98008.17956672107
 30
0.0000005875452676
 11
106723.9567556136
 21
98008.17518691278
 31
0.0000005875452676
  0
LINE
  5
50EB7
330
1F
100
AcDbEntity
  8
freecads.com
100
AcDbLine
 10
106723.9567556136
 20
98008.18519790315
 30
0.0000005875452676
 11
106723.9561304015
 21
98008.17956672107
 31
0.0000005875452676
  0
LINE
  5
50EB8
330
1F
100
AcDbEntity
  8
freecads.com
100
AcDbLine
 10
106723.9848901557
 20
98008.17205847831
 30
0.0000005875452676
 11
106723.9780128232
 21
98008.17080710451
 31
0.0000005875452676
  0
LINE
  5
50EB9
330
1F
100
AcDbEntity
  8
freecads.com
100
AcDbLine
 10
106723.9855153678
 20
98008.1745612259
 30
0.0000005875452676
 11
106723.9848901557
 21
98008.17205847831
 31
0.0000005875452676
  0
LINE
  5
50EBA
330
1F
100
AcDbEntity
  8
freecads.com
100
AcDbLine
 10
106723.9798884594
 20
98008.17706397349
 30
0.0000005875452676
 11
106723.9855153678
 21
98008.1745612259
 31
0.0000005875452676
  0
LINE
  5
50EBB
330
1F
100
AcDbEntity
  8
freecads.com
100
AcDbLine
 10
106723.974886763
 20
98008.17956672107
 30
0.0000005875452676
 11
106723.9798884594
 21
98008.17706397349
 31
0.0000005875452676
  0
LINE
  5
50EBC
330
1F
100
AcDbEntity
  8
freecads.com
100
AcDbLine
 10
106723.9711354907
 20
98008.18206946866
 30
0.0000005875452676
 11
106723.974886763
 21
98008.17956672107
 31
0.0000005875452676
  0
LINE
  5
50EBD
330
1F
100
AcDbEntity
  8
freecads.com
100
AcDbLine
 10
106723.9673842184
 20
98008.18394652935
 30
0.0000005875452676
 11
106723.9711354907
 21
98008.18206946866
 31
0.0000005875452676
  0
LINE
  5
50EBE
330
1F
100
AcDbEntity
  8
freecads.com
100
AcDbLine
 10
106723.9642581581
 20
98008.18582359005
 30
0.0000005875452676
 11
106723.9673842184
 21
98008.18394652935
 31
0.0000005875452676
  0
LINE
  5
50EBF
330
1F
100
AcDbEntity
  8
freecads.com
100
AcDbLine
 10
106723.9605068859
 20
98008.18582359005
 30
0.0000005875452676
 11
106723.9642581581
 21
98008.18582359005
 31
0.0000005875452676
  0
LINE
  5
50EC0
330
1F
100
AcDbEntity
  8
freecads.com
100
AcDbLine
 10
106723.9580060377
 20
98008.18582359005
 30
0.0000005875452676
 11
106723.9605068859
 21
98008.18582359005
 31
0.0000005875452676
  0
LINE
  5
50EC1
330
1F
100
AcDbEntity
  8
freecads.com
100
AcDbLine
 10
106723.9505034931
 20
98008.13764569895
 30
0.0000005875452676
 11
106723.9555051895
 21
98008.13827138586
 31
0.0000005875452676
  0
LINE
  5
50EC2
330
1F
100
AcDbEntity
  8
freecads.com
100
AcDbLine
 10
106723.949878281
 20
98008.14265119415
 30
0.0000005875452676
 11
106723.9505034931
 21
98008.13764569895
 31
0.0000005875452676
  0
LINE
  5
50EC3
330
1F
100
AcDbEntity
  8
freecads.com
100
AcDbLine
 10
106723.9480026449
 20
98008.15203649758
 30
0.0000005875452676
 11
106723.949878281
 21
98008.14265119415
 31
0.0000005875452676
  0
LINE
  5
50EC4
330
1F
100
AcDbEntity
  8
freecads.com
100
AcDbLine
 10
106723.9505034931
 20
98008.15954474035
 30
0.0000005875452676
 11
106723.9480026449
 21
98008.15203649758
 31
0.0000005875452676
  0
LINE
  5
50EC5
330
1F
100
AcDbEntity
  8
freecads.com
100
AcDbLine
 10
106723.9505034931
 20
98008.16580160933
 30
0.0000005875452676
 11
106723.9505034931
 21
98008.15954474035
 31
0.0000005875452676
  0
LINE
  5
50EC6
330
1F
100
AcDbEntity
  8
freecads.com
100
AcDbLine
 10
106723.9511287051
 20
98008.17143279141
 30
0.0000005875452676
 11
106723.9505034931
 21
98008.16580160933
 31
0.0000005875452676
  0
LINE
  5
50EC7
330
1F
100
AcDbEntity
  8
freecads.com
100
AcDbLine
 10
106723.9517539172
 20
98008.17581259968
 30
0.0000005875452676
 11
106723.9511287051
 21
98008.17143279141
 31
0.0000005875452676
  0
LINE
  5
50EC8
330
1F
100
AcDbEntity
  8
freecads.com
100
AcDbLine
 10
106724.0455357245
 20
98008.09384761615
 30
0.0000005875452676
 11
106724.0467861485
 21
98008.09572467684
 31
0.0000005875452676
  0
LINE
  5
50EC9
330
1F
100
AcDbEntity
  8
freecads.com
100
AcDbLine
 10
106724.0467861485
 20
98008.08946780787
 30
0.0000005875452676
 11
106724.0455357245
 21
98008.09384761615
 31
0.0000005875452676
  0
LINE
  5
50ECA
330
1F
100
AcDbEntity
  8
freecads.com
100
AcDbLine
 10
106724.0474113606
 20
98008.08696506029
 30
0.0000005875452676
 11
106724.0467861485
 21
98008.08946780787
 31
0.0000005875452676
  0
LINE
  5
50ECB
330
1F
100
AcDbEntity
  8
freecads.com
100
AcDbLine
 10
106724.0505374208
 20
98008.08195956509
 30
0.0000005875452676
 11
106724.0474113606
 21
98008.08696506029
 31
0.0000005875452676
  0
LINE
  5
50ECC
330
1F
100
AcDbEntity
  8
freecads.com
100
AcDbLine
 10
106724.0474113606
 20
98008.08070819131
 30
0.0000005875452676
 11
106724.0505374208
 21
98008.08195956509
 31
0.0000005875452676
  0
LINE
  5
50ECD
330
1F
100
AcDbEntity
  8
freecads.com
100
AcDbLine
 10
106724.0430348763
 20
98008.08446231268
 30
0.0000005875452676
 11
106724.0474113606
 21
98008.08070819131
 31
0.0000005875452676
  0
LINE
  5
50ECE
330
1F
100
AcDbEntity
  8
freecads.com
100
AcDbLine
 10
106724.0386583919
 20
98008.08884212097
 30
0.0000005875452676
 11
106724.0430348763
 21
98008.08446231268
 31
0.0000005875452676
  0
LINE
  5
50ECF
330
1F
100
AcDbEntity
  8
freecads.com
100
AcDbLine
 10
106724.0330314835
 20
98008.09447330305
 30
0.0000005875452676
 11
106724.0386583919
 21
98008.08884212097
 31
0.0000005875452676
  0
LINE
  5
50ED0
330
1F
100
AcDbEntity
  8
freecads.com
100
AcDbLine
 10
106724.0317810594
 20
98008.09197055546
 30
0.0000005875452676
 11
106724.0305306353
 21
98008.09509898995
 31
0.0000005875452676
  0
LINE
  5
50ED1
330
1F
100
AcDbEntity
  8
freecads.com
100
AcDbLine
 10
106724.0342819076
 20
98008.08946780787
 30
0.0000005875452676
 11
106724.0317810594
 21
98008.09197055546
 31
0.0000005875452676
  0
LINE
  5
50ED2
330
1F
100
AcDbEntity
  8
freecads.com
100
AcDbLine
 10
106724.0361575437
 20
98008.08633937338
 30
0.0000005875452676
 11
106724.0342819076
 21
98008.08946780787
 31
0.0000005875452676
  0
LINE
  5
50ED3
330
1F
100
AcDbEntity
  8
freecads.com
100
AcDbLine
 10
106724.0374079678
 20
98008.08133387819
 30
0.0000005875452676
 11
106724.0361575437
 21
98008.08633937338
 31
0.0000005875452676
  0
LINE
  5
50ED4
330
1F
100
AcDbEntity
  8
freecads.com
100
AcDbLine
 10
106724.0386583919
 20
98008.07945681752
 30
0.0000005875452676
 11
106724.0374079678
 21
98008.08133387819
 31
0.0000005875452676
  0
LINE
  5
50ED5
330
1F
100
AcDbEntity
  8
freecads.com
100
AcDbLine
 10
106724.039283604
 20
98008.07382563544
 30
0.0000005875452676
 11
106724.0386583919
 21
98008.07945681752
 31
0.0000005875452676
  0
LINE
  5
50ED6
330
1F
100
AcDbEntity
  8
freecads.com
100
AcDbLine
 10
106724.0374079678
 20
98008.07257426164
 30
0.0000005875452676
 11
106724.039283604
 21
98008.07382563544
 31
0.0000005875452676
  0
LINE
  5
50ED7
330
1F
100
AcDbEntity
  8
freecads.com
100
AcDbLine
 10
106724.0330314835
 20
98008.07507700923
 30
0.0000005875452676
 11
106724.0374079678
 21
98008.07257426164
 31
0.0000005875452676
  0
LINE
  5
50ED8
330
1F
100
AcDbEntity
  8
freecads.com
100
AcDbLine
 10
106724.0299054232
 20
98008.07695406993
 30
0.0000005875452676
 11
106724.0330314835
 21
98008.07507700923
 31
0.0000005875452676
  0
LINE
  5
50ED9
330
1F
100
AcDbEntity
  8
freecads.com
100
AcDbLine
 10
106724.026779363
 20
98008.0832109389
 30
0.0000005875452676
 11
106724.0299054232
 21
98008.07695406993
 31
0.0000005875452676
  0
LINE
  5
50EDA
330
1F
100
AcDbEntity
  8
freecads.com
100
AcDbLine
 10
106724.0217776666
 20
98008.08821643407
 30
0.0000005875452676
 11
106724.026779363
 21
98008.0832109389
 31
0.0000005875452676
  0
LINE
  5
50EDB
330
1F
100
AcDbEntity
  8
freecads.com
100
AcDbLine
 10
106724.0180263943
 20
98008.09384761615
 30
0.0000005875452676
 11
106724.0217776666
 21
98008.08821643407
 31
0.0000005875452676
  0
LINE
  5
50EDC
330
1F
100
AcDbEntity
  8
freecads.com
100
AcDbLine
 10
106724.0130246979
 20
98008.10010448513
 30
0.0000005875452676
 11
106724.0130246979
 21
98008.1026072327
 31
0.0000005875452676
  0
LINE
  5
50EDD
330
1F
100
AcDbEntity
  8
freecads.com
100
AcDbLine
 10
106724.0149003341
 20
98008.09384761615
 30
0.0000005875452676
 11
106724.0130246979
 21
98008.10010448513
 31
0.0000005875452676
  0
LINE
  5
50EDE
330
1F
100
AcDbEntity
  8
freecads.com
100
AcDbLine
 10
106724.0174011823
 20
98008.09009349476
 30
0.0000005875452676
 11
106724.0149003341
 21
98008.09384761615
 31
0.0000005875452676
  0
LINE
  5
50EDF
330
1F
100
AcDbEntity
  8
freecads.com
100
AcDbLine
 10
106724.0180263943
 20
98008.08633937338
 30
0.0000005875452676
 11
106724.0174011823
 21
98008.09009349476
 31
0.0000005875452676
  0
LINE
  5
50EE0
330
1F
100
AcDbEntity
  8
freecads.com
100
AcDbLine
 10
106724.0211524546
 20
98008.08446231268
 30
0.0000005875452676
 11
106724.0180263943
 21
98008.08633937338
 31
0.0000005875452676
  0
LINE
  5
50EE1
330
1F
100
AcDbEntity
  8
freecads.com
100
AcDbLine
 10
106724.0224028787
 20
98008.08070819131
 30
0.0000005875452676
 11
106724.0211524546
 21
98008.08446231268
 31
0.0000005875452676
  0
LINE
  5
50EE2
330
1F
100
AcDbEntity
  8
freecads.com
100
AcDbLine
 10
106724.0230280907
 20
98008.07632838303
 30
0.0000005875452676
 11
106724.0224028787
 21
98008.08070819131
 31
0.0000005875452676
  0
LINE
  5
50EE3
330
1F
100
AcDbEntity
  8
freecads.com
100
AcDbLine
 10
106724.0211524546
 20
98008.07445132234
 30
0.0000005875452676
 11
106724.0230280907
 21
98008.07632838303
 31
0.0000005875452676
  0
LINE
  5
50EE4
330
1F
100
AcDbEntity
  8
freecads.com
100
AcDbLine
 10
106724.0186516064
 20
98008.07507700923
 30
0.0000005875452676
 11
106724.0211524546
 21
98008.07445132234
 31
0.0000005875452676
  0
LINE
  5
50EE5
330
1F
100
AcDbEntity
  8
freecads.com
100
AcDbLine
 10
106724.01364991
 20
98008.07820544372
 30
0.0000005875452676
 11
106724.0186516064
 21
98008.07507700923
 31
0.0000005875452676
  0
LINE
  5
50EE6
330
1F
100
AcDbEntity
  8
freecads.com
100
AcDbLine
 10
106724.0086482136
 20
98008.08133387819
 30
0.0000005875452676
 11
106724.01364991
 21
98008.07820544372
 31
0.0000005875452676
  0
LINE
  5
50EE7
330
1F
100
AcDbEntity
  8
freecads.com
100
AcDbLine
 10
106724.0055221533
 20
98008.08508799958
 30
0.0000005875452676
 11
106724.0086482136
 21
98008.08133387819
 31
0.0000005875452676
  0
LINE
  5
50EE8
330
1F
100
AcDbEntity
  8
freecads.com
100
AcDbLine
 10
106724.0023960931
 20
98008.09071918166
 30
0.0000005875452676
 11
106724.0055221533
 21
98008.08508799958
 31
0.0000005875452676
  0
LINE
  5
50EE9
330
1F
100
AcDbEntity
  8
freecads.com
100
AcDbLine
 10
106723.9998952449
 20
98008.09635036374
 30
0.0000005875452676
 11
106724.0023960931
 21
98008.09071918166
 31
0.0000005875452676
  0
LINE
  5
50EEA
330
1F
100
AcDbEntity
  8
freecads.com
100
AcDbLine
 10
106723.9967691847
 20
98008.10135585892
 30
0.0000005875452676
 11
106723.9967691847
 21
98008.10448429341
 31
0.0000005875452676
  0
LINE
  5
50EEB
330
1F
100
AcDbEntity
  8
freecads.com
100
AcDbLine
 10
106723.9986448208
 20
98008.09447330305
 30
0.0000005875452676
 11
106723.9967691847
 21
98008.10135585892
 31
0.0000005875452676
  0
LINE
  5
50EEC
330
1F
100
AcDbEntity
  8
freecads.com
100
AcDbLine
 10
106723.9986448208
 20
98008.08946780787
 30
0.0000005875452676
 11
106723.9986448208
 21
98008.09447330305
 31
0.0000005875452676
  0
LINE
  5
50EED
330
1F
100
AcDbEntity
  8
freecads.com
100
AcDbLine
 10
106724.000520457
 20
98008.0832109389
 30
0.0000005875452676
 11
106723.9986448208
 21
98008.08946780787
 31
0.0000005875452676
  0
LINE
  5
50EEE
330
1F
100
AcDbEntity
  8
freecads.com
100
AcDbLine
 10
106724.001145669
 20
98008.07757975682
 30
0.0000005875452676
 11
106724.000520457
 21
98008.0832109389
 31
0.0000005875452676
  0
LINE
  5
50EEF
330
1F
100
AcDbEntity
  8
freecads.com
100
AcDbLine
 10
106723.9980196088
 20
98008.07820544372
 30
0.0000005875452676
 11
106724.001145669
 21
98008.07757975682
 31
0.0000005875452676
  0
LINE
  5
50EF0
330
1F
100
AcDbEntity
  8
freecads.com
100
AcDbLine
 10
106723.9923927003
 20
98008.08508799958
 30
0.0000005875452676
 11
106723.9980196088
 21
98008.07820544372
 31
0.0000005875452676
  0
LINE
  5
50EF1
330
1F
100
AcDbEntity
  8
freecads.com
100
AcDbLine
 10
106723.988016216
 20
98008.09009349476
 30
0.0000005875452676
 11
106723.9923927003
 21
98008.08508799958
 31
0.0000005875452676
  0
LINE
  5
50EF2
330
1F
100
AcDbEntity
  8
freecads.com
100
AcDbLine
 10
106723.9873910039
 20
98008.09509898995
 30
0.0000005875452676
 11
106723.988016216
 21
98008.09009349476
 31
0.0000005875452676
  0
LINE
  5
50EF3
330
1F
100
AcDbEntity
  8
freecads.com
100
AcDbLine
 10
106723.9861405798
 20
98008.10010448513
 30
0.0000005875452676
 11
106723.9873910039
 21
98008.09509898995
 31
0.0000005875452676
  0
LINE
  5
50EF4
330
1F
100
AcDbEntity
  8
freecads.com
100
AcDbLine
 10
106723.9842649437
 20
98008.10698704101
 30
0.0000005875452676
 11
106723.9861405798
 21
98008.10010448513
 31
0.0000005875452676
  0
LINE
  5
50EF5
330
1F
100
AcDbEntity
  8
freecads.com
100
AcDbLine
 10
106723.9830145196
 20
98008.11386959685
 30
0.0000005875452676
 11
106723.9823893076
 21
98008.11824940515
 31
0.0000005875452676
  0
LINE
  5
50EF6
330
1F
100
AcDbEntity
  8
freecads.com
100
AcDbLine
 10
106723.9830145196
 20
98008.10823841478
 30
0.0000005875452676
 11
106723.9830145196
 21
98008.11386959685
 31
0.0000005875452676
  0
LINE
  5
50EF7
330
1F
100
AcDbEntity
  8
freecads.com
100
AcDbLine
 10
106723.9830145196
 20
98008.1026072327
 30
0.0000005875452676
 11
106723.9830145196
 21
98008.10823841478
 31
0.0000005875452676
  0
LINE
  5
50EF8
330
1F
100
AcDbEntity
  8
freecads.com
100
AcDbLine
 10
106723.9830145196
 20
98008.09509898995
 30
0.0000005875452676
 11
106723.9830145196
 21
98008.1026072327
 31
0.0000005875452676
  0
LINE
  5
50EF9
330
1F
100
AcDbEntity
  8
freecads.com
100
AcDbLine
 10
106723.9811388835
 20
98008.09259624235
 30
0.0000005875452676
 11
106723.9830145196
 21
98008.09509898995
 31
0.0000005875452676
  0
LINE
  5
50EFA
330
1F
100
AcDbEntity
  8
freecads.com
100
AcDbLine
 10
106723.9786380353
 20
98008.09572467684
 30
0.0000005875452676
 11
106723.9811388835
 21
98008.09259624235
 31
0.0000005875452676
  0
LINE
  5
50EFB
330
1F
100
AcDbEntity
  8
freecads.com
100
AcDbLine
 10
106723.9761371871
 20
98008.10135585892
 30
0.0000005875452676
 11
106723.9786380353
 21
98008.09572467684
 31
0.0000005875452676
  0
LINE
  5
50EFC
330
1F
100
AcDbEntity
  8
freecads.com
100
AcDbLine
 10
106723.9730111268
 20
98008.10761272789
 30
0.0000005875452676
 11
106723.9761371871
 21
98008.10135585892
 31
0.0000005875452676
  0
LINE
  5
50EFD
330
1F
100
AcDbEntity
  8
freecads.com
100
AcDbLine
 10
106723.9705102786
 20
98008.11574665756
 30
0.0000005875452676
 11
106723.9730111268
 21
98008.10761272789
 31
0.0000005875452676
  0
LINE
  5
50EFE
330
1F
100
AcDbEntity
  8
freecads.com
100
AcDbLine
 10
106723.9692598545
 20
98008.12888608239
 30
0.0000005875452676
 11
106723.9686346425
 21
98008.13389157758
 31
0.0000005875452676
  0
LINE
  5
50EFF
330
1F
100
AcDbEntity
  8
freecads.com
100
AcDbLine
 10
106723.9692598545
 20
98008.12763470862
 30
0.0000005875452676
 11
106723.9692598545
 21
98008.12888608239
 31
0.0000005875452676
  0
LINE
  5
50F00
330
1F
100
AcDbEntity
  8
freecads.com
100
AcDbLine
 10
106723.9692598545
 20
98008.11762371823
 30
0.0000005875452676
 11
106723.9692598545
 21
98008.12763470862
 31
0.0000005875452676
  0
LINE
  5
50F01
330
1F
100
AcDbEntity
  8
freecads.com
100
AcDbLine
 10
106723.9698850666
 20
98008.11386959685
 30
0.0000005875452676
 11
106723.9692598545
 21
98008.11762371823
 31
0.0000005875452676
  0
LINE
  5
50F02
330
1F
100
AcDbEntity
  8
freecads.com
100
AcDbLine
 10
106723.9692598545
 20
98008.11074116237
 30
0.0000005875452676
 11
106723.9698850666
 21
98008.11386959685
 31
0.0000005875452676
  0
LINE
  5
50F03
330
1F
100
AcDbEntity
  8
freecads.com
100
AcDbLine
 10
106723.9661337943
 20
98008.10761272789
 30
0.0000005875452676
 11
106723.9692598545
 21
98008.11074116237
 31
0.0000005875452676
  0
LINE
  5
50F04
330
1F
100
AcDbEntity
  8
freecads.com
100
AcDbLine
 10
106723.9642581581
 20
98008.10761272789
 30
0.0000005875452676
 11
106723.9661337943
 21
98008.10761272789
 31
0.0000005875452676
  0
LINE
  5
50F05
330
1F
100
AcDbEntity
  8
freecads.com
100
AcDbLine
 10
106723.962382522
 20
98008.10761272789
 30
0.0000005875452676
 11
106723.9642581581
 21
98008.10761272789
 31
0.0000005875452676
  0
LINE
  5
50F06
330
1F
100
AcDbEntity
  8
freecads.com
100
AcDbLine
 10
106723.9605068859
 20
98008.11449528376
 30
0.0000005875452676
 11
106723.962382522
 21
98008.10761272789
 31
0.0000005875452676
  0
LINE
  5
50F07
330
1F
100
AcDbEntity
  8
freecads.com
100
AcDbLine
 10
106723.9605068859
 20
98008.12012646582
 30
0.0000005875452676
 11
106723.9605068859
 21
98008.11449528376
 31
0.0000005875452676
  0
LINE
  5
50F08
330
1F
100
AcDbEntity
  8
freecads.com
100
AcDbLine
 10
106723.9605068859
 20
98008.12888608239
 30
0.0000005875452676
 11
106723.9605068859
 21
98008.12012646582
 31
0.0000005875452676
  0
LINE
  5
50F09
330
1F
100
AcDbEntity
  8
freecads.com
100
AcDbLine
 10
106723.9605068859
 20
98008.13013745619
 30
0.0000005875452676
 11
106723.9605068859
 21
98008.13514295136
 31
0.0000005875452676
  0
LINE
  5
50F0A
330
1F
100
AcDbEntity
  8
freecads.com
100
AcDbLine
 10
106723.9598816738
 20
98008.1263833348
 30
0.0000005875452676
 11
106723.9605068859
 21
98008.13013745619
 31
0.0000005875452676
  0
LINE
  5
50F0B
330
1F
100
AcDbEntity
  8
freecads.com
100
AcDbLine
 10
106723.9592564618
 20
98008.12137783964
 30
0.0000005875452676
 11
106723.9598816738
 21
98008.1263833348
 31
0.0000005875452676
  0
LINE
  5
50F0C
330
1F
100
AcDbEntity
  8
freecads.com
100
AcDbLine
 10
106723.9573808256
 20
98008.11950077893
 30
0.0000005875452676
 11
106723.9592564618
 21
98008.12137783964
 31
0.0000005875452676
  0
LINE
  5
50F0D
330
1F
100
AcDbEntity
  8
freecads.com
100
AcDbLine
 10
106723.9548799774
 20
98008.12075215272
 30
0.0000005875452676
 11
106723.9573808256
 21
98008.11950077893
 31
0.0000005875452676
  0
LINE
  5
50F0E
330
1F
100
AcDbEntity
  8
freecads.com
100
AcDbLine
 10
106723.9523791292
 20
98008.1270090217
 30
0.0000005875452676
 11
106723.9548799774
 21
98008.12075215272
 31
0.0000005875452676
  0
LINE
  5
50F0F
330
1F
100
AcDbEntity
  8
freecads.com
100
AcDbLine
 10
106723.9523791292
 20
98008.13326589068
 30
0.0000005875452676
 11
106723.9523791292
 21
98008.1270090217
 31
0.0000005875452676
  0
LINE
  5
50F10
330
1F
100
AcDbEntity
  8
freecads.com
100
AcDbLine
 10
106723.9542547654
 20
98008.13952275966
 30
0.0000005875452676
 11
106723.9523791292
 21
98008.13326589068
 31
0.0000005875452676
  0
LINE
  5
50F11
330
1F
100
AcDbEntity
  8
freecads.com
100
AcDbLine
 10
106723.9548799774
 20
98008.14452825482
 30
0.0000005875452676
 11
106723.9542547654
 21
98008.13952275966
 31
0.0000005875452676
  0
LINE
  5
50F12
330
1F
100
AcDbEntity
  8
freecads.com
100
AcDbLine
 10
106723.9580060377
 20
98008.1501594369
 30
0.0000005875452676
 11
106723.9548799774
 21
98008.14452825482
 31
0.0000005875452676
  0
LINE
  5
50F13
330
1F
100
AcDbEntity
  8
freecads.com
100
AcDbLine
 10
106723.9605068859
 20
98008.15453924519
 30
0.0000005875452676
 11
106723.9580060377
 21
98008.1501594369
 31
0.0000005875452676
  0
LINE
  5
50F14
330
1F
100
AcDbEntity
  8
freecads.com
100
AcDbLine
 10
106723.962382522
 20
98008.15954474035
 30
0.0000005875452676
 11
106723.9605068859
 21
98008.15453924519
 31
0.0000005875452676
  0
LINE
  5
50F15
330
1F
100
AcDbEntity
  8
freecads.com
100
AcDbLine
 10
106724.0536634811
 20
98008.09572467684
 30
0.0000005875452676
 11
106724.0499122088
 21
98008.09697605062
 31
0.0000005875452676
  0
LINE
  5
50F16
330
1F
100
AcDbEntity
  8
freecads.com
100
AcDbLine
 10
106724.0586651775
 20
98008.09197055546
 30
0.0000005875452676
 11
106724.0536634811
 21
98008.09572467684
 31
0.0000005875452676
  0
LINE
  5
50F17
330
1F
100
AcDbEntity
  8
freecads.com
100
AcDbLine
 10
106724.0617912377
 20
98008.08821643407
 30
0.0000005875452676
 11
106724.0586651775
 21
98008.09197055546
 31
0.0000005875452676
  0
LINE
  5
50F18
330
1F
100
AcDbEntity
  8
freecads.com
100
AcDbLine
 10
106724.064917298
 20
98008.08759074717
 30
0.0000005875452676
 11
106724.0617912377
 21
98008.08821643407
 31
0.0000005875452676
  0
LINE
  5
50F19
330
1F
100
AcDbEntity
  8
freecads.com
100
AcDbLine
 10
106724.0636668739
 20
98008.09322192925
 30
0.0000005875452676
 11
106724.064917298
 21
98008.08759074717
 31
0.0000005875452676
  0
LINE
  5
50F1A
330
1F
100
AcDbEntity
  8
freecads.com
100
AcDbLine
 10
106724.0611660257
 20
98008.09822742444
 30
0.0000005875452676
 11
106724.0636668739
 21
98008.09322192925
 31
0.0000005875452676
  0
LINE
  5
50F1B
330
1F
100
AcDbEntity
  8
freecads.com
100
AcDbLine
 10
106724.0561643293
 20
98008.1019815458
 30
0.0000005875452676
 11
106724.0611660257
 21
98008.09822742444
 31
0.0000005875452676
  0
LINE
  5
50F1C
330
1F
100
AcDbEntity
  8
freecads.com
100
AcDbLine
 10
106724.0492869967
 20
98008.10698704101
 30
0.0000005875452676
 11
106724.0561643293
 21
98008.1019815458
 31
0.0000005875452676
  0
LINE
  5
50F1D
330
1F
100
AcDbEntity
  8
freecads.com
100
AcDbLine
 10
106724.0417844522
 20
98008.11136684927
 30
0.0000005875452676
 11
106724.0492869967
 21
98008.10698704101
 31
0.0000005875452676
  0
LINE
  5
50F1E
330
1F
100
AcDbEntity
  8
freecads.com
100
AcDbLine
 10
106724.0430348763
 20
98008.11449528376
 30
0.0000005875452676
 11
106724.0405340281
 21
98008.11574665756
 31
0.0000005875452676
  0
LINE
  5
50F1F
330
1F
100
AcDbEntity
  8
freecads.com
100
AcDbLine
 10
106724.0480365726
 20
98008.11261822307
 30
0.0000005875452676
 11
106724.0430348763
 21
98008.11449528376
 31
0.0000005875452676
  0
LINE
  5
50F20
330
1F
100
AcDbEntity
  8
freecads.com
100
AcDbLine
 10
106724.0480365726
 20
98008.11512097066
 30
0.0000005875452676
 11
106724.0480365726
 21
98008.11261822307
 31
0.0000005875452676
  0
LINE
  5
50F21
330
1F
100
AcDbEntity
  8
freecads.com
100
AcDbLine
 10
106724.0461609365
 20
98008.12075215272
 30
0.0000005875452676
 11
106724.0480365726
 21
98008.11512097066
 31
0.0000005875452676
  0
LINE
  5
50F22
330
1F
100
AcDbEntity
  8
freecads.com
100
AcDbLine
 10
106724.0424096642
 20
98008.12450627411
 30
0.0000005875452676
 11
106724.0461609365
 21
98008.12075215272
 31
0.0000005875452676
  0
LINE
  5
50F23
330
1F
100
AcDbEntity
  8
freecads.com
100
AcDbLine
 10
106724.0374079678
 20
98008.12888608239
 30
0.0000005875452676
 11
106724.0424096642
 21
98008.12450627411
 31
0.0000005875452676
  0
LINE
  5
50F24
330
1F
100
AcDbEntity
  8
freecads.com
100
AcDbLine
 10
106724.0311558474
 20
98008.13076314309
 30
0.0000005875452676
 11
106724.0374079678
 21
98008.12888608239
 31
0.0000005875452676
  0
LINE
  5
50F25
330
1F
100
AcDbEntity
  8
freecads.com
100
AcDbLine
 10
106724.0236533028
 20
98008.13326589068
 30
0.0000005875452676
 11
106724.0311558474
 21
98008.13076314309
 31
0.0000005875452676
  0
LINE
  5
50F26
330
1F
100
AcDbEntity
  8
freecads.com
100
AcDbLine
 10
106724.0261541509
 20
98008.13702001207
 30
0.0000005875452676
 11
106724.0211524546
 21
98008.13889707276
 31
0.0000005875452676
  0
LINE
  5
50F27
330
1F
100
AcDbEntity
  8
freecads.com
100
AcDbLine
 10
106724.0305306353
 20
98008.13576863827
 30
0.0000005875452676
 11
106724.0261541509
 21
98008.13702001207
 31
0.0000005875452676
  0
LINE
  5
50F28
330
1F
100
AcDbEntity
  8
freecads.com
100
AcDbLine
 10
106724.0330314835
 20
98008.13576863827
 30
0.0000005875452676
 11
106724.0305306353
 21
98008.13576863827
 31
0.0000005875452676
  0
LINE
  5
50F29
330
1F
100
AcDbEntity
  8
freecads.com
100
AcDbLine
 10
106724.0305306353
 20
98008.13889707276
 30
0.0000005875452676
 11
106724.0330314835
 21
98008.13576863827
 31
0.0000005875452676
  0
LINE
  5
50F2A
330
1F
100
AcDbEntity
  8
freecads.com
100
AcDbLine
 10
106724.027404575
 20
98008.14202550725
 30
0.0000005875452676
 11
106724.0305306353
 21
98008.13889707276
 31
0.0000005875452676
  0
LINE
  5
50F2B
330
1F
100
AcDbEntity
  8
freecads.com
100
AcDbLine
 10
106724.0242785148
 20
98008.14515394174
 30
0.0000005875452676
 11
106724.027404575
 21
98008.14202550725
 31
0.0000005875452676
  0
LINE
  5
50F2C
330
1F
100
AcDbEntity
  8
freecads.com
100
AcDbLine
 10
106724.0199020305
 20
98008.14890806311
 30
0.0000005875452676
 11
106724.0242785148
 21
98008.14515394174
 31
0.0000005875452676
  0
LINE
  5
50F2D
330
1F
100
AcDbEntity
  8
freecads.com
100
AcDbLine
 10
106724.0149003341
 20
98008.15203649758
 30
0.0000005875452676
 11
106724.0199020305
 21
98008.14890806311
 31
0.0000005875452676
  0
LINE
  5
50F2E
330
1F
100
AcDbEntity
  8
freecads.com
100
AcDbLine
 10
106724.0080230016
 20
98008.1526621845
 30
0.0000005875452676
 11
106724.0149003341
 21
98008.15203649758
 31
0.0000005875452676
  0
LINE
  5
50F2F
330
1F
100
AcDbEntity
  8
freecads.com
100
AcDbLine
 10
106724.0017708811
 20
98008.15391355829
 30
0.0000005875452676
 11
106724.0080230016
 21
98008.1526621845
 31
0.0000005875452676
  0
LINE
  5
50F30
330
1F
100
AcDbEntity
  8
freecads.com
100
AcDbLine
 10
106724.0080230016
 20
98008.15704199278
 30
0.0000005875452676
 11
106724.0030213052
 21
98008.15579061897
 31
0.0000005875452676
  0
LINE
  5
50F31
330
1F
100
AcDbEntity
  8
freecads.com
100
AcDbLine
 10
106724.0036465172
 20
98008.16079611415
 30
0.0000005875452676
 11
106724.0080230016
 21
98008.15704199278
 31
0.0000005875452676
  0
LINE
  5
50F32
330
1F
100
AcDbEntity
  8
freecads.com
100
AcDbLine
 10
106723.9986448208
 20
98008.16329886174
 30
0.0000005875452676
 11
106724.0036465172
 21
98008.16079611415
 31
0.0000005875452676
  0
LINE
  5
50F33
330
1F
100
AcDbEntity
  8
freecads.com
100
AcDbLine
 10
106723.9942683365
 20
98008.16580160933
 30
0.0000005875452676
 11
106723.9986448208
 21
98008.16329886174
 31
0.0000005875452676
  0
LINE
  5
50F34
330
1F
100
AcDbEntity
  8
freecads.com
100
AcDbLine
 10
106723.988016216
 20
98008.16642729623
 30
0.0000005875452676
 11
106723.9942683365
 21
98008.16580160933
 31
0.0000005875452676
  0
LINE
  5
50F35
330
1F
100
AcDbEntity
  8
freecads.com
100
AcDbLine
 10
106723.9842649437
 20
98008.16955573072
 30
0.0000005875452676
 11
106723.988016216
 21
98008.16642729623
 31
0.0000005875452676
  0
LINE
  5
50F36
330
1F
100
AcDbEntity
  8
freecads.com
100
AcDbLine
 10
106723.9786380353
 20
98008.16893004382
 30
0.0000005875452676
 11
106723.9842649437
 21
98008.16955573072
 31
0.0000005875452676
  0
LINE
  5
50F37
330
1F
100
AcDbEntity
  8
freecads.com
100
AcDbLine
 10
106723.9742615509
 20
98008.16830435692
 30
0.0000005875452676
 11
106723.9786380353
 21
98008.16893004382
 31
0.0000005875452676
  0
LINE
  5
50F38
330
1F
100
AcDbEntity
  8
freecads.com
100
AcDbLine
 10
106723.9705102786
 20
98008.16642729623
 30
0.0000005875452676
 11
106723.9742615509
 21
98008.16830435692
 31
0.0000005875452676
  0
LINE
  5
50F39
330
1F
100
AcDbEntity
  8
freecads.com
100
AcDbLine
 10
106723.9680094304
 20
98008.16392454864
 30
0.0000005875452676
 11
106723.9705102786
 21
98008.16642729623
 31
0.0000005875452676
  0
LINE
  5
50F3A
330
1F
100
AcDbEntity
  8
freecads.com
100
AcDbLine
 10
106724.0236533028
 20
98008.10761272789
 30
0.0000005875452676
 11
106724.0249037268
 21
98008.1026072327
 31
0.0000005875452676
  0
LINE
  5
50F3B
330
1F
100
AcDbEntity
  8
freecads.com
100
AcDbLine
 10
106724.0192768184
 20
98008.11199253617
 30
0.0000005875452676
 11
106724.0236533028
 21
98008.10761272789
 31
0.0000005875452676
  0
LINE
  5
50F3C
330
1F
100
AcDbEntity
  8
freecads.com
100
AcDbLine
 10
106724.0161507582
 20
98008.11637234446
 30
0.0000005875452676
 11
106724.0192768184
 21
98008.11199253617
 31
0.0000005875452676
  0
LINE
  5
50F3D
330
1F
100
AcDbEntity
  8
freecads.com
100
AcDbLine
 10
106724.0117742738
 20
98008.12200352654
 30
0.0000005875452676
 11
106724.0161507582
 21
98008.11637234446
 31
0.0000005875452676
  0
LINE
  5
50F3E
330
1F
100
AcDbEntity
  8
freecads.com
100
AcDbLine
 10
106724.0061473654
 20
98008.1282603955
 30
0.0000005875452676
 11
106724.0117742738
 21
98008.12200352654
 31
0.0000005875452676
  0
LINE
  5
50F3F
330
1F
100
AcDbEntity
  8
freecads.com
100
AcDbLine
 10
106724.000520457
 20
98008.13389157758
 30
0.0000005875452676
 11
106724.0061473654
 21
98008.1282603955
 31
0.0000005875452676
  0
LINE
  5
50F40
330
1F
100
AcDbEntity
  8
freecads.com
100
AcDbLine
 10
106723.9961439726
 20
98008.13889707276
 30
0.0000005875452676
 11
106724.000520457
 21
98008.13389157758
 31
0.0000005875452676
  0
LINE
  5
50F41
330
1F
100
AcDbEntity
  8
freecads.com
100
AcDbLine
 10
106723.9917674883
 20
98008.14327688103
 30
0.0000005875452676
 11
106723.9961439726
 21
98008.13889707276
 31
0.0000005875452676
  0
LINE
  5
50F42
330
1F
100
AcDbEntity
  8
freecads.com
100
AcDbLine
 10
106723.9867657919
 20
98008.14828237621
 30
0.0000005875452676
 11
106723.9917674883
 21
98008.14327688103
 31
0.0000005875452676
  0
LINE
  5
50F43
330
1F
100
AcDbEntity
  8
freecads.com
100
AcDbLine
 10
106723.9811388835
 20
98008.15328787139
 30
0.0000005875452676
 11
106723.9867657919
 21
98008.14828237621
 31
0.0000005875452676
  0
LINE
  5
50F44
330
1F
100
AcDbEntity
  8
freecads.com
100
AcDbLine
 10
106723.9761371871
 20
98008.15704199278
 30
0.0000005875452676
 11
106723.9811388835
 21
98008.15328787139
 31
0.0000005875452676
  0
LINE
  5
50F45
330
1F
100
AcDbEntity
  8
freecads.com
100
AcDbLine
 10
106723.9686346425
 20
98008.16079611415
 30
0.0000005875452676
 11
106723.9761371871
 21
98008.15704199278
 31
0.0000005875452676
  0
LINE
  5
50F46
330
1F
100
AcDbEntity
  8
freecads.com
100
AcDbLine
 10
106723.9642581581
 20
98008.16079611415
 30
0.0000005875452676
 11
106723.9686346425
 21
98008.16079611415
 31
0.0000005875452676
  0
LINE
  5
50F47
330
1F
100
AcDbEntity
  8
freecads.com
100
AcDbLine
 10
106724.1221367615
 20
98008.15307308335
 30
0.0000005875452676
 11
106724.1188888821
 21
98008.15794783799
 31
0.0000005875452676
  0
LINE
  5
50F48
330
1F
100
AcDbEntity
  8
freecads.com
100
AcDbLine
 10
106724.1248433277
 20
98008.15090652575
 30
0.0000005875452676
 11
106724.1221367615
 21
98008.15307308335
 31
0.0000005875452676
  0
LINE
  5
50F49
330
1F
100
AcDbEntity
  8
freecads.com
100
AcDbLine
 10
106724.1286325204
 20
98008.14711504992
 30
0.0000005875452676
 11
106724.1248433277
 21
98008.15090652575
 31
0.0000005875452676
  0
LINE
  5
50F4A
330
1F
100
AcDbEntity
  8
freecads.com
100
AcDbLine
 10
106724.1302564601
 20
98008.14224029528
 30
0.0000005875452676
 11
106724.1286325204
 21
98008.14711504992
 31
0.0000005875452676
  0
LINE
  5
50F4B
330
1F
100
AcDbEntity
  8
freecads.com
100
AcDbLine
 10
106724.1297151468
 20
98008.13899045886
 30
0.0000005875452676
 11
106724.1302564601
 21
98008.14224029528
 31
0.0000005875452676
  0
LINE
  5
50F4C
330
1F
100
AcDbEntity
  8
freecads.com
100
AcDbLine
 10
106724.1275498939
 20
98008.13736554065
 30
0.0000005875452676
 11
106724.1297151468
 21
98008.13899045886
 31
0.0000005875452676
  0
LINE
  5
50F4D
330
1F
100
AcDbEntity
  8
freecads.com
100
AcDbLine
 10
106724.1199715086
 20
98008.13790718004
 30
0.0000005875452676
 11
106724.1275498939
 21
98008.13736554065
 31
0.0000005875452676
  0
LINE
  5
50F4E
330
1F
100
AcDbEntity
  8
freecads.com
100
AcDbLine
 10
106724.1156410027
 20
98008.13844881947
 30
0.0000005875452676
 11
106724.1199715086
 21
98008.13790718004
 31
0.0000005875452676
  0
LINE
  5
50F4F
330
1F
100
AcDbEntity
  8
freecads.com
100
AcDbLine
 10
106724.1102278703
 20
98008.13953209825
 30
0.0000005875452676
 11
106724.1156410027
 21
98008.13844881947
 31
0.0000005875452676
  0
LINE
  5
50F50
330
1F
100
AcDbEntity
  8
freecads.com
100
AcDbLine
 10
106724.1042734247
 20
98008.14169865587
 30
0.0000005875452676
 11
106724.1102278703
 21
98008.13953209825
 31
0.0000005875452676
  0
LINE
  5
50F51
330
1F
100
AcDbEntity
  8
freecads.com
100
AcDbLine
 10
106724.0994016056
 20
98008.14386521349
 30
0.0000005875452676
 11
106724.1042734247
 21
98008.14169865587
 31
0.0000005875452676
  0
LINE
  5
50F52
330
1F
100
AcDbEntity
  8
freecads.com
100
AcDbLine
 10
106724.0950710997
 20
98008.1460317711
 30
0.0000005875452676
 11
106724.0994016056
 21
98008.14386521349
 31
0.0000005875452676
  0
LINE
  5
50F53
330
1F
100
AcDbEntity
  8
freecads.com
100
AcDbLine
 10
106724.0918232203
 20
98008.14819832872
 30
0.0000005875452676
 11
106724.0950710997
 21
98008.1460317711
 31
0.0000005875452676
  0
LINE
  5
50F54
330
1F
100
AcDbEntity
  8
freecads.com
100
AcDbLine
 10
106724.0826208952
 20
98008.15740619857
 30
0.0000005875452676
 11
106724.0788317026
 21
98008.16336423203
 31
0.0000005875452676
  0
LINE
  5
50F55
330
1F
100
AcDbEntity
  8
freecads.com
100
AcDbLine
 10
106724.0864100879
 20
98008.15036488632
 30
0.0000005875452676
 11
106724.0826208952
 21
98008.15740619857
 31
0.0000005875452676
  0
LINE
  5
50F56
330
1F
100
AcDbEntity
  8
freecads.com
100
AcDbLine
 10
106724.091281907
 20
98008.14549013169
 30
0.0000005875452676
 11
106724.0864100879
 21
98008.15036488632
 31
0.0000005875452676
  0
LINE
  5
50F57
330
1F
100
AcDbEntity
  8
freecads.com
100
AcDbLine
 10
106724.09344716
 20
98008.14115701646
 30
0.0000005875452676
 11
106724.091281907
 21
98008.14549013169
 31
0.0000005875452676
  0
LINE
  5
50F58
330
1F
100
AcDbEntity
  8
freecads.com
100
AcDbLine
 10
106724.0972363526
 20
98008.13736554065
 30
0.0000005875452676
 11
106724.09344716
 21
98008.14115701646
 31
0.0000005875452676
  0
LINE
  5
50F59
330
1F
100
AcDbEntity
  8
freecads.com
100
AcDbLine
 10
106724.1021081718
 20
98008.13465734362
 30
0.0000005875452676
 11
106724.0972363526
 21
98008.13736554065
 31
0.0000005875452676
  0
LINE
  5
50F5A
330
1F
100
AcDbEntity
  8
freecads.com
100
AcDbLine
 10
106724.1015668585
 20
98008.13140750721
 30
0.0000005875452676
 11
106724.1021081718
 21
98008.13465734362
 31
0.0000005875452676
  0
LINE
  5
50F5B
330
1F
100
AcDbEntity
  8
freecads.com
100
AcDbLine
 10
106724.0988602923
 20
98008.12869931018
 30
0.0000005875452676
 11
106724.1015668585
 21
98008.13140750721
 31
0.0000005875452676
  0
LINE
  5
50F5C
330
1F
100
AcDbEntity
  8
freecads.com
100
AcDbLine
 10
106724.0956124129
 20
98008.12815767079
 30
0.0000005875452676
 11
106724.0988602923
 21
98008.12869931018
 31
0.0000005875452676
  0
LINE
  5
50F5D
330
1F
100
AcDbEntity
  8
freecads.com
100
AcDbLine
 10
106724.091281907
 20
98008.12869931018
 30
0.0000005875452676
 11
106724.0956124129
 21
98008.12815767079
 31
0.0000005875452676
  0
LINE
  5
50F5E
330
1F
100
AcDbEntity
  8
freecads.com
100
AcDbLine
 10
106724.0864100879
 20
98008.12869931018
 30
0.0000005875452676
 11
106724.091281907
 21
98008.12869931018
 31
0.0000005875452676
  0
LINE
  5
50F5F
330
1F
100
AcDbEntity
  8
freecads.com
100
AcDbLine
 10
106724.082079582
 20
98008.13032422839
 30
0.0000005875452676
 11
106724.0864100879
 21
98008.12869931018
 31
0.0000005875452676
  0
LINE
  5
50F60
330
1F
100
AcDbEntity
  8
freecads.com
100
AcDbLine
 10
106724.0782903893
 20
98008.1308658678
 30
0.0000005875452676
 11
106724.082079582
 21
98008.13032422839
 31
0.0000005875452676
  0
LINE
  5
50F61
330
1F
100
AcDbEntity
  8
freecads.com
100
AcDbLine
 10
106724.0750425099
 20
98008.13249078601
 30
0.0000005875452676
 11
106724.0782903893
 21
98008.1308658678
 31
0.0000005875452676
  0
LINE
  5
50F62
330
1F
100
AcDbEntity
  8
freecads.com
100
AcDbLine
 10
106724.0723359437
 20
98008.13357406482
 30
0.0000005875452676
 11
106724.0750425099
 21
98008.13249078601
 31
0.0000005875452676
  0
LINE
  5
50F63
330
1F
100
AcDbEntity
  8
freecads.com
100
AcDbLine
 10
106724.0696293775
 20
98008.13465734362
 30
0.0000005875452676
 11
106724.0723359437
 21
98008.13357406482
 31
0.0000005875452676
  0
LINE
  5
50F64
330
1F
100
AcDbEntity
  8
freecads.com
100
AcDbLine
 10
106724.0636749319
 20
98008.13790718004
 30
0.0000005875452676
 11
106724.0696293775
 21
98008.13465734362
 31
0.0000005875452676
  0
LINE
  5
50F65
330
1F
100
AcDbEntity
  8
freecads.com
100
AcDbLine
 10
106724.0588031128
 20
98008.14224029528
 30
0.0000005875452676
 11
106724.0636749319
 21
98008.13790718004
 31
0.0000005875452676
  0
LINE
  5
50F66
330
1F
100
AcDbEntity
  8
freecads.com
100
AcDbLine
 10
106724.0566378599
 20
98008.14711504992
 30
0.0000005875452676
 11
106724.0588031128
 21
98008.14224029528
 31
0.0000005875452676
  0
LINE
  5
50F67
330
1F
100
AcDbEntity
  8
freecads.com
100
AcDbLine
 10
106724.0544726069
 20
98008.15144816514
 30
0.0000005875452676
 11
106724.0566378599
 21
98008.14711504992
 31
0.0000005875452676
  0
LINE
  5
50F68
330
1F
100
AcDbEntity
  8
freecads.com
100
AcDbLine
 10
106724.0539312937
 20
98008.15415636217
 30
0.0000005875452676
 11
106724.0544726069
 21
98008.15144816514
 31
0.0000005875452676
  0
LINE
  5
50F69
330
1F
100
AcDbEntity
  8
freecads.com
100
AcDbLine
 10
106724.0539312937
 20
98008.15903111679
 30
0.0000005875452676
 11
106724.0539312937
 21
98008.15415636217
 31
0.0000005875452676
  0
LINE
  5
50F6A
330
1F
100
AcDbEntity
  8
freecads.com
100
AcDbLine
 10
106724.0544726069
 20
98008.16282259262
 30
0.0000005875452676
 11
106724.0539312937
 21
98008.15903111679
 31
0.0000005875452676
  0
LINE
  5
50F6B
330
1F
100
AcDbEntity
  8
freecads.com
100
AcDbLine
 10
106724.0479768481
 20
98008.15686455917
 30
0.0000005875452676
 11
106724.0474355348
 21
98008.16173931382
 31
0.0000005875452676
  0
LINE
  5
50F6C
330
1F
100
AcDbEntity
  8
freecads.com
100
AcDbLine
 10
106724.0496007878
 20
98008.15253144396
 30
0.0000005875452676
 11
106724.0479768481
 21
98008.15686455917
 31
0.0000005875452676
  0
LINE
  5
50F6D
330
1F
100
AcDbEntity
  8
freecads.com
100
AcDbLine
 10
106724.0528486672
 20
98008.14873996811
 30
0.0000005875452676
 11
106724.0496007878
 21
98008.15253144396
 31
0.0000005875452676
  0
LINE
  5
50F6E
330
1F
100
AcDbEntity
  8
freecads.com
100
AcDbLine
 10
106724.0544726069
 20
98008.14440685289
 30
0.0000005875452676
 11
106724.0528486672
 21
98008.14873996811
 31
0.0000005875452676
  0
LINE
  5
50F6F
330
1F
100
AcDbEntity
  8
freecads.com
100
AcDbLine
 10
106724.0506834143
 20
98008.14061537707
 30
0.0000005875452676
 11
106724.0544726069
 21
98008.14440685289
 31
0.0000005875452676
  0
LINE
  5
50F70
330
1F
100
AcDbEntity
  8
freecads.com
100
AcDbLine
 10
106724.0458115951
 20
98008.14007373766
 30
0.0000005875452676
 11
106724.0506834143
 21
98008.14061537707
 31
0.0000005875452676
  0
LINE
  5
50F71
330
1F
100
AcDbEntity
  8
freecads.com
100
AcDbLine
 10
106724.0431050289
 20
98008.14224029528
 30
0.0000005875452676
 11
106724.0458115951
 21
98008.14007373766
 31
0.0000005875452676
  0
LINE
  5
50F72
330
1F
100
AcDbEntity
  8
freecads.com
100
AcDbLine
 10
106724.0393158363
 20
98008.14278193469
 30
0.0000005875452676
 11
106724.0431050289
 21
98008.14224029528
 31
0.0000005875452676
  0
LINE
  5
50F73
330
1F
100
AcDbEntity
  8
freecads.com
100
AcDbLine
 10
106724.0328200774
 20
98008.14494849229
 30
0.0000005875452676
 11
106724.0393158363
 21
98008.14278193469
 31
0.0000005875452676
  0
LINE
  5
50F74
330
1F
100
AcDbEntity
  8
freecads.com
100
AcDbLine
 10
106724.0279482583
 20
98008.14873996811
 30
0.0000005875452676
 11
106724.0328200774
 21
98008.14494849229
 31
0.0000005875452676
  0
LINE
  5
50F75
330
1F
100
AcDbEntity
  8
freecads.com
100
AcDbLine
 10
106724.0252416921
 20
98008.15415636217
 30
0.0000005875452676
 11
106724.0279482583
 21
98008.14873996811
 31
0.0000005875452676
  0
LINE
  5
50F76
330
1F
100
AcDbEntity
  8
freecads.com
100
AcDbLine
 10
106724.0236177524
 20
98008.160656035
 30
0.0000005875452676
 11
106724.0252416921
 21
98008.15415636217
 31
0.0000005875452676
  0
LINE
  5
50F77
330
1F
100
AcDbEntity
  8
freecads.com
100
AcDbLine
 10
106724.0247003789
 20
98008.16715570784
 30
0.0000005875452676
 11
106724.0236177524
 21
98008.160656035
 31
0.0000005875452676
  0
LINE
  5
50F78
330
1F
100
AcDbEntity
  8
freecads.com
100
AcDbLine
 10
106724.0274069451
 20
98008.17365538069
 30
0.0000005875452676
 11
106724.0247003789
 21
98008.16715570784
 31
0.0000005875452676
  0
LINE
  5
50F79
330
1F
100
AcDbEntity
  8
freecads.com
100
AcDbLine
 10
106724.0301135113
 20
98008.17798849591
 30
0.0000005875452676
 11
106724.0274069451
 21
98008.17365538069
 31
0.0000005875452676
  0
LINE
  5
50F7A
330
1F
100
AcDbEntity
  8
freecads.com
100
AcDbLine
 10
106724.0349853304
 20
98008.18177997173
 30
0.0000005875452676
 11
106724.0301135113
 21
98008.17798849591
 31
0.0000005875452676
  0
LINE
  5
50F7B
330
1F
100
AcDbEntity
  8
freecads.com
100
AcDbLine
 10
106724.0382332098
 20
98008.18557144756
 30
0.0000005875452676
 11
106724.0349853304
 21
98008.18177997173
 31
0.0000005875452676
  0
LINE
  5
50F7C
330
1F
100
AcDbEntity
  8
freecads.com
100
AcDbLine
 10
106724.0425637157
 20
98008.18827964459
 30
0.0000005875452676
 11
106724.0382332098
 21
98008.18557144756
 31
0.0000005875452676
  0
LINE
  5
50F7D
330
1F
100
AcDbEntity
  8
freecads.com
100
AcDbLine
 10
106724.0479768481
 20
98008.18936292339
 30
0.0000005875452676
 11
106724.0425637157
 21
98008.18827964459
 31
0.0000005875452676
  0
LINE
  5
50F7E
330
1F
100
AcDbEntity
  8
freecads.com
100
AcDbLine
 10
106724.1237607012
 20
98008.15848947738
 30
0.0000005875452676
 11
106724.1188888821
 21
98008.16119767441
 31
0.0000005875452676
  0
LINE
  5
50F7F
330
1F
100
AcDbEntity
  8
freecads.com
100
AcDbLine
 10
106724.1302564601
 20
98008.15307308335
 30
0.0000005875452676
 11
106724.1237607012
 21
98008.15848947738
 31
0.0000005875452676
  0
LINE
  5
50F80
330
1F
100
AcDbEntity
  8
freecads.com
100
AcDbLine
 10
106724.134586966
 20
98008.14819832872
 30
0.0000005875452676
 11
106724.1302564601
 21
98008.15307308335
 31
0.0000005875452676
  0
LINE
  5
50F81
330
1F
100
AcDbEntity
  8
freecads.com
100
AcDbLine
 10
106724.1410827248
 20
98008.1460317711
 30
0.0000005875452676
 11
106724.134586966
 21
98008.14819832872
 31
0.0000005875452676
  0
LINE
  5
50F82
330
1F
100
AcDbEntity
  8
freecads.com
100
AcDbLine
 10
106724.1492024234
 20
98008.14494849229
 30
0.0000005875452676
 11
106724.1410827248
 21
98008.1460317711
 31
0.0000005875452676
  0
LINE
  5
50F83
330
1F
100
AcDbEntity
  8
freecads.com
100
AcDbLine
 10
106724.1578634352
 20
98008.14224029528
 30
0.0000005875452676
 11
106724.1492024234
 21
98008.14494849229
 31
0.0000005875452676
  0
LINE
  5
50F84
330
1F
100
AcDbEntity
  8
freecads.com
100
AcDbLine
 10
106724.1632765675
 20
98008.14169865587
 30
0.0000005875452676
 11
106724.1578634352
 21
98008.14224029528
 31
0.0000005875452676
  0
LINE
  5
50F85
330
1F
100
AcDbEntity
  8
freecads.com
100
AcDbLine
 10
106724.1708549528
 20
98008.14169865587
 30
0.0000005875452676
 11
106724.1632765675
 21
98008.14169865587
 31
0.0000005875452676
  0
LINE
  5
50F86
330
1F
100
AcDbEntity
  8
freecads.com
100
AcDbLine
 10
106724.1746441455
 20
98008.14440685289
 30
0.0000005875452676
 11
106724.1708549528
 21
98008.14169865587
 31
0.0000005875452676
  0
LINE
  5
50F87
330
1F
100
AcDbEntity
  8
freecads.com
100
AcDbLine
 10
106724.1741028323
 20
98008.14819832872
 30
0.0000005875452676
 11
106724.1746441455
 21
98008.14440685289
 31
0.0000005875452676
  0
LINE
  5
50F88
330
1F
100
AcDbEntity
  8
freecads.com
100
AcDbLine
 10
106724.1703136396
 20
98008.15090652575
 30
0.0000005875452676
 11
106724.1741028323
 21
98008.14819832872
 31
0.0000005875452676
  0
LINE
  5
50F89
330
1F
100
AcDbEntity
  8
freecads.com
100
AcDbLine
 10
106724.166524447
 20
98008.15198980453
 30
0.0000005875452676
 11
106724.1703136396
 21
98008.15090652575
 31
0.0000005875452676
  0
LINE
  5
50F8A
330
1F
100
AcDbEntity
  8
freecads.com
100
AcDbLine
 10
106724.1632765675
 20
98008.15578128036
 30
0.0000005875452676
 11
106724.166524447
 21
98008.15198980453
 31
0.0000005875452676
  0
LINE
  5
50F8B
330
1F
100
AcDbEntity
  8
freecads.com
100
AcDbLine
 10
106724.1594873749
 20
98008.15794783799
 30
0.0000005875452676
 11
106724.1632765675
 21
98008.15578128036
 31
0.0000005875452676
  0
LINE
  5
50F8C
330
1F
100
AcDbEntity
  8
freecads.com
100
AcDbLine
 10
106724.1492024234
 20
98008.16228095321
 30
0.0000005875452676
 11
106724.1405414116
 21
98008.16498915024
 31
0.0000005875452676
  0
LINE
  5
50F8D
330
1F
100
AcDbEntity
  8
freecads.com
100
AcDbLine
 10
106724.1589460616
 20
98008.15903111679
 30
0.0000005875452676
 11
106724.1492024234
 21
98008.16228095321
 31
0.0000005875452676
  0
LINE
  5
50F8E
330
1F
100
AcDbEntity
  8
freecads.com
100
AcDbLine
 10
106724.1654418205
 20
98008.15632291977
 30
0.0000005875452676
 11
106724.1589460616
 21
98008.15903111679
 31
0.0000005875452676
  0
LINE
  5
50F8F
330
1F
100
AcDbEntity
  8
freecads.com
100
AcDbLine
 10
106724.1724788925
 20
98008.15469800156
 30
0.0000005875452676
 11
106724.1654418205
 21
98008.15632291977
 31
0.0000005875452676
  0
LINE
  5
50F90
330
1F
100
AcDbEntity
  8
freecads.com
100
AcDbLine
 10
106724.1795159646
 20
98008.15740619857
 30
0.0000005875452676
 11
106724.1724788925
 21
98008.15469800156
 31
0.0000005875452676
  0
LINE
  5
50F91
330
1F
100
AcDbEntity
  8
freecads.com
100
AcDbLine
 10
106724.1481197969
 20
98008.1909878416
 30
0.0000005875452676
 11
106724.155156869
 21
98008.19044620219
 31
0.0000005875452676
  0
LINE
  5
50F92
330
1F
100
AcDbEntity
  8
freecads.com
100
AcDbLine
 10
106724.1329630262
 20
98008.19477931744
 30
0.0000005875452676
 11
106724.1481197969
 21
98008.1909878416
 31
0.0000005875452676
  0
LINE
  5
50F93
330
1F
100
AcDbEntity
  8
freecads.com
100
AcDbLine
 10
106724.1253846409
 20
98008.19532095683
 30
0.0000005875452676
 11
106724.1329630262
 21
98008.19477931744
 31
0.0000005875452676
  0
LINE
  5
50F94
330
1F
100
AcDbEntity
  8
freecads.com
100
AcDbLine
 10
106724.1134757497
 20
98008.19315439921
 30
0.0000005875452676
 11
106724.1253846409
 21
98008.19532095683
 31
0.0000005875452676
  0
LINE
  5
50F95
330
1F
100
AcDbEntity
  8
freecads.com
100
AcDbLine
 10
106724.1075213041
 20
98008.19207112041
 30
0.0000005875452676
 11
106724.1134757497
 21
98008.19315439921
 31
0.0000005875452676
  0
LINE
  5
50F96
330
1F
100
AcDbEntity
  8
freecads.com
100
AcDbLine
 10
106724.1010255453
 20
98008.19152948101
 30
0.0000005875452676
 11
106724.1075213041
 21
98008.19207112041
 31
0.0000005875452676
  0
LINE
  5
50F97
330
1F
100
AcDbEntity
  8
freecads.com
100
AcDbLine
 10
106724.0923645335
 20
98008.19044620219
 30
0.0000005875452676
 11
106724.1010255453
 21
98008.19152948101
 31
0.0000005875452676
  0
LINE
  5
50F98
330
1F
100
AcDbEntity
  8
freecads.com
100
AcDbLine
 10
106724.0874927144
 20
98008.18936292339
 30
0.0000005875452676
 11
106724.0923645335
 21
98008.19044620219
 31
0.0000005875452676
  0
LINE
  5
50F99
330
1F
100
AcDbEntity
  8
freecads.com
100
AcDbLine
 10
106724.175726772
 20
98008.17094718366
 30
0.0000005875452676
 11
106724.1795159646
 21
98008.16932226545
 31
0.0000005875452676
  0
LINE
  5
50F9A
330
1F
100
AcDbEntity
  8
freecads.com
100
AcDbLine
 10
106724.1692310131
 20
98008.17311374128
 30
0.0000005875452676
 11
106724.175726772
 21
98008.17094718366
 31
0.0000005875452676
  0
LINE
  5
50F9B
330
1F
100
AcDbEntity
  8
freecads.com
100
AcDbLine
 10
106724.1649005072
 20
98008.17257210187
 30
0.0000005875452676
 11
106724.1692310131
 21
98008.17311374128
 31
0.0000005875452676
  0
LINE
  5
50F9C
330
1F
100
AcDbEntity
  8
freecads.com
100
AcDbLine
 10
106724.1584047484
 20
98008.17419702008
 30
0.0000005875452676
 11
106724.1649005072
 21
98008.17257210187
 31
0.0000005875452676
  0
LINE
  5
50F9D
330
1F
100
AcDbEntity
  8
freecads.com
100
AcDbLine
 10
106724.1519089896
 20
98008.17582193831
 30
0.0000005875452676
 11
106724.1584047484
 21
98008.17419702008
 31
0.0000005875452676
  0
LINE
  5
50F9E
330
1F
100
AcDbEntity
  8
freecads.com
100
AcDbLine
 10
106724.1443306042
 20
98008.17798849591
 30
0.0000005875452676
 11
106724.1519089896
 21
98008.17582193831
 31
0.0000005875452676
  0
LINE
  5
50F9F
330
1F
100
AcDbEntity
  8
freecads.com
100
AcDbLine
 10
106724.1383761586
 20
98008.17907177473
 30
0.0000005875452676
 11
106724.1443306042
 21
98008.17798849591
 31
0.0000005875452676
  0
LINE
  5
50FA0
330
1F
100
AcDbEntity
  8
freecads.com
100
AcDbLine
 10
106724.1313390866
 20
98008.18069669293
 30
0.0000005875452676
 11
106724.1383761586
 21
98008.17907177473
 31
0.0000005875452676
  0
LINE
  5
50FA1
330
1F
100
AcDbEntity
  8
freecads.com
100
AcDbLine
 10
106724.1270085807
 20
98008.18177997173
 30
0.0000005875452676
 11
106724.1313390866
 21
98008.18069669293
 31
0.0000005875452676
  0
LINE
  5
50FA2
330
1F
100
AcDbEntity
  8
freecads.com
100
AcDbLine
 10
106724.0847861482
 20
98008.18936292339
 30
0.0000005875452676
 11
106724.0885753409
 21
98008.18936292339
 31
0.0000005875452676
  0
LINE
  5
50FA3
330
1F
100
AcDbEntity
  8
freecads.com
100
AcDbLine
 10
106724.0788317026
 20
98008.18882128398
 30
0.0000005875452676
 11
106724.0847861482
 21
98008.18936292339
 31
0.0000005875452676
  0
LINE
  5
50FA4
330
1F
100
AcDbEntity
  8
freecads.com
100
AcDbLine
 10
106724.0717946305
 20
98008.18882128398
 30
0.0000005875452676
 11
106724.0788317026
 21
98008.18882128398
 31
0.0000005875452676
  0
LINE
  5
50FA5
330
1F
100
AcDbEntity
  8
freecads.com
100
AcDbLine
 10
106724.0658401849
 20
98008.1899045628
 30
0.0000005875452676
 11
106724.0717946305
 21
98008.18882128398
 31
0.0000005875452676
  0
LINE
  5
50FA6
330
1F
100
AcDbEntity
  8
freecads.com
100
AcDbLine
 10
106724.0609683657
 20
98008.18936292339
 30
0.0000005875452676
 11
106724.0658401849
 21
98008.1899045628
 31
0.0000005875452676
  0
LINE
  5
50FA7
330
1F
100
AcDbEntity
  8
freecads.com
100
AcDbLine
 10
106724.0544726069
 20
98008.18936292339
 30
0.0000005875452676
 11
106724.0609683657
 21
98008.18936292339
 31
0.0000005875452676
  0
LINE
  5
50FA8
330
1F
100
AcDbEntity
  8
freecads.com
100
AcDbLine
 10
106724.0485181613
 20
98008.18936292339
 30
0.0000005875452676
 11
106724.0544726069
 21
98008.18936292339
 31
0.0000005875452676
  0
LINE
  5
50FA9
330
1F
100
AcDbEntity
  8
freecads.com
100
AcDbLine
 10
106724.0431050289
 20
98008.19044620219
 30
0.0000005875452676
 11
106724.0485181613
 21
98008.18936292339
 31
0.0000005875452676
  0
LINE
  5
50FAA
330
1F
100
AcDbEntity
  8
freecads.com
100
AcDbLine
 10
106724.0420224025
 20
98008.19044620219
 30
0.0000005875452676
 11
106724.0463529084
 21
98008.19369603862
 31
0.0000005875452676
  0
LINE
  5
50FAB
330
1F
100
AcDbEntity
  8
freecads.com
100
AcDbLine
 10
106724.0355266436
 20
98008.19152948101
 30
0.0000005875452676
 11
106724.0420224025
 21
98008.19044620219
 31
0.0000005875452676
  0
LINE
  5
50FAC
330
1F
100
AcDbEntity
  8
freecads.com
100
AcDbLine
 10
106724.0317374509
 20
98008.19207112041
 30
0.0000005875452676
 11
106724.0355266436
 21
98008.19152948101
 31
0.0000005875452676
  0
LINE
  5
50FAD
330
1F
100
AcDbEntity
  8
freecads.com
100
AcDbLine
 10
106724.0268656318
 20
98008.19207112041
 30
0.0000005875452676
 11
106724.0317374509
 21
98008.19207112041
 31
0.0000005875452676
  0
LINE
  5
50FAE
330
1F
100
AcDbEntity
  8
freecads.com
100
AcDbLine
 10
106724.1741028323
 20
98008.1752802989
 30
0.0000005875452676
 11
106724.1681483866
 21
98008.17582193831
 31
0.0000005875452676
  0
LINE
  5
50FAF
330
1F
100
AcDbEntity
  8
freecads.com
100
AcDbLine
 10
106724.1800572779
 20
98008.1763635777
 30
0.0000005875452676
 11
106724.1741028323
 21
98008.1752802989
 31
0.0000005875452676
  0
LINE
  5
50FB0
330
1F
100
AcDbEntity
  8
freecads.com
100
AcDbLine
 10
106724.1778920249
 20
98008.2083203025
 30
0.0000005875452676
 11
106724.1811399044
 21
98008.20507046609
 31
0.0000005875452676
  0
LINE
  5
50FB1
330
1F
100
AcDbEntity
  8
freecads.com
100
AcDbLine
 10
106724.1773507117
 20
98008.21048686014
 30
0.0000005875452676
 11
106724.1778920249
 21
98008.2083203025
 31
0.0000005875452676
  0
LINE
  5
50FB2
330
1F
100
AcDbEntity
  8
freecads.com
100
AcDbLine
 10
106724.1724788925
 20
98008.21265341776
 30
0.0000005875452676
 11
106724.1773507117
 21
98008.21048686014
 31
0.0000005875452676
  0
LINE
  5
50FB3
330
1F
100
AcDbEntity
  8
freecads.com
100
AcDbLine
 10
106724.1676070734
 20
98008.21427833596
 30
0.0000005875452676
 11
106724.1724788925
 21
98008.21265341776
 31
0.0000005875452676
  0
LINE
  5
50FB4
330
1F
100
AcDbEntity
  8
freecads.com
100
AcDbLine
 10
106724.1638178808
 20
98008.21644489356
 30
0.0000005875452676
 11
106724.1676070734
 21
98008.21427833596
 31
0.0000005875452676
  0
LINE
  5
50FB5
330
1F
100
AcDbEntity
  8
freecads.com
100
AcDbLine
 10
106724.1594873749
 20
98008.21861145118
 30
0.0000005875452676
 11
106724.1638178808
 21
98008.21644489356
 31
0.0000005875452676
  0
LINE
  5
50FB6
330
1F
100
AcDbEntity
  8
freecads.com
100
AcDbLine
 10
106724.1567808087
 20
98008.21861145118
 30
0.0000005875452676
 11
106724.1594873749
 21
98008.21861145118
 31
0.0000005875452676
  0
LINE
  5
50FB7
330
1F
100
AcDbEntity
  8
freecads.com
100
AcDbLine
 10
106724.1497437366
 20
98008.21806981177
 30
0.0000005875452676
 11
106724.1567808087
 21
98008.21861145118
 31
0.0000005875452676
  0
LINE
  5
50FB8
330
1F
100
AcDbEntity
  8
freecads.com
100
AcDbLine
 10
106724.1464958572
 20
98008.21698653297
 30
0.0000005875452676
 11
106724.1497437366
 21
98008.21806981177
 31
0.0000005875452676
  0
LINE
  5
50FB9
330
1F
100
AcDbEntity
  8
freecads.com
100
AcDbLine
 10
106724.1367522189
 20
98008.21536161476
 30
0.0000005875452676
 11
106724.1464958572
 21
98008.21698653297
 31
0.0000005875452676
  0
LINE
  5
50FBA
330
1F
100
AcDbEntity
  8
freecads.com
100
AcDbLine
 10
106724.1307977733
 20
98008.21373669654
 30
0.0000005875452676
 11
106724.1367522189
 21
98008.21536161476
 31
0.0000005875452676
  0
LINE
  5
50FBB
330
1F
100
AcDbEntity
  8
freecads.com
100
AcDbLine
 10
106724.1264672674
 20
98008.21265341776
 30
0.0000005875452676
 11
106724.1307977733
 21
98008.21373669654
 31
0.0000005875452676
  0
LINE
  5
50FBC
330
1F
100
AcDbEntity
  8
freecads.com
100
AcDbLine
 10
106724.1205128218
 20
98008.21265341776
 30
0.0000005875452676
 11
106724.1264672674
 21
98008.21265341776
 31
0.0000005875452676
  0
LINE
  5
50FBD
330
1F
100
AcDbEntity
  8
freecads.com
100
AcDbLine
 10
106724.1161823159
 20
98008.21319505715
 30
0.0000005875452676
 11
106724.1205128218
 21
98008.21265341776
 31
0.0000005875452676
  0
LINE
  5
50FBE
330
1F
100
AcDbEntity
  8
freecads.com
100
AcDbLine
 10
106724.1102278703
 20
98008.21157013894
 30
0.0000005875452676
 11
106724.1086039306
 21
98008.20994522071
 31
0.0000005875452676
  0
LINE
  5
50FBF
330
1F
100
AcDbEntity
  8
freecads.com
100
AcDbLine
 10
106724.1129344365
 20
98008.21373669654
 30
0.0000005875452676
 11
106724.1102278703
 21
98008.21157013894
 31
0.0000005875452676
  0
LINE
  5
50FC0
330
1F
100
AcDbEntity
  8
freecads.com
100
AcDbLine
 10
106724.1178062556
 20
98008.21698653297
 30
0.0000005875452676
 11
106724.1129344365
 21
98008.21373669654
 31
0.0000005875452676
  0
LINE
  5
50FC1
330
1F
100
AcDbEntity
  8
freecads.com
100
AcDbLine
 10
106724.1237607012
 20
98008.21969473
 30
0.0000005875452676
 11
106724.1178062556
 21
98008.21698653297
 31
0.0000005875452676
  0
LINE
  5
50FC2
330
1F
100
AcDbEntity
  8
freecads.com
100
AcDbLine
 10
106724.1291738336
 20
98008.2207780088
 30
0.0000005875452676
 11
106724.1237607012
 21
98008.21969473
 31
0.0000005875452676
  0
LINE
  5
50FC3
330
1F
100
AcDbEntity
  8
freecads.com
100
AcDbLine
 10
106724.1340456527
 20
98008.22348620581
 30
0.0000005875452676
 11
106724.1291738336
 21
98008.2207780088
 31
0.0000005875452676
  0
LINE
  5
50FC4
330
1F
100
AcDbEntity
  8
freecads.com
100
AcDbLine
 10
106724.1389174719
 20
98008.22565276343
 30
0.0000005875452676
 11
106724.1340456527
 21
98008.22348620581
 31
0.0000005875452676
  0
LINE
  5
50FC5
330
1F
100
AcDbEntity
  8
freecads.com
100
AcDbLine
 10
106724.1443306042
 20
98008.22890259984
 30
0.0000005875452676
 11
106724.1389174719
 21
98008.22565276343
 31
0.0000005875452676
  0
LINE
  5
50FC6
330
1F
100
AcDbEntity
  8
freecads.com
100
AcDbLine
 10
106724.1448719175
 20
98008.23106915746
 30
0.0000005875452676
 11
106724.1443306042
 21
98008.22890259984
 31
0.0000005875452676
  0
LINE
  5
50FC7
330
1F
100
AcDbEntity
  8
freecads.com
100
AcDbLine
 10
106724.1394587851
 20
98008.23269407567
 30
0.0000005875452676
 11
106724.1448719175
 21
98008.23106915746
 31
0.0000005875452676
  0
LINE
  5
50FC8
330
1F
100
AcDbEntity
  8
freecads.com
100
AcDbLine
 10
106724.134586966
 20
98008.2354022727
 30
0.0000005875452676
 11
106724.1394587851
 21
98008.23269407567
 31
0.0000005875452676
  0
LINE
  5
50FC9
330
1F
100
AcDbEntity
  8
freecads.com
100
AcDbLine
 10
106724.1291738336
 20
98008.2354022727
 30
0.0000005875452676
 11
106724.134586966
 21
98008.2354022727
 31
0.0000005875452676
  0
LINE
  5
50FCA
330
1F
100
AcDbEntity
  8
freecads.com
100
AcDbLine
 10
106724.1221367615
 20
98008.23486063329
 30
0.0000005875452676
 11
106724.1291738336
 21
98008.2354022727
 31
0.0000005875452676
  0
LINE
  5
50FCB
330
1F
100
AcDbEntity
  8
freecads.com
100
AcDbLine
 10
106724.1178062556
 20
98008.23486063329
 30
0.0000005875452676
 11
106724.1221367615
 21
98008.23486063329
 31
0.0000005875452676
  0
LINE
  5
50FCC
330
1F
100
AcDbEntity
  8
freecads.com
100
AcDbLine
 10
106724.1107691835
 20
98008.23269407567
 30
0.0000005875452676
 11
106724.1178062556
 21
98008.23486063329
 31
0.0000005875452676
  0
LINE
  5
50FCD
330
1F
100
AcDbEntity
  8
freecads.com
100
AcDbLine
 10
106724.1064386776
 20
98008.23052751805
 30
0.0000005875452676
 11
106724.1107691835
 21
98008.23269407567
 31
0.0000005875452676
  0
LINE
  5
50FCE
330
1F
100
AcDbEntity
  8
freecads.com
100
AcDbLine
 10
106724.1015668585
 20
98008.22890259984
 30
0.0000005875452676
 11
106724.1064386776
 21
98008.23052751805
 31
0.0000005875452676
  0
LINE
  5
50FCF
330
1F
100
AcDbEntity
  8
freecads.com
100
AcDbLine
 10
106724.0869514011
 20
98008.20994522071
 30
0.0000005875452676
 11
106724.0842448349
 21
98008.20777866311
 31
0.0000005875452676
  0
LINE
  5
50FD0
330
1F
100
AcDbEntity
  8
freecads.com
100
AcDbLine
 10
106724.0880340276
 20
98008.21319505715
 30
0.0000005875452676
 11
106724.0869514011
 21
98008.20994522071
 31
0.0000005875452676
  0
LINE
  5
50FD1
330
1F
100
AcDbEntity
  8
freecads.com
100
AcDbLine
 10
106724.0901992805
 20
98008.21644489356
 30
0.0000005875452676
 11
106724.0880340276
 21
98008.21319505715
 31
0.0000005875452676
  0
LINE
  5
50FD2
330
1F
100
AcDbEntity
  8
freecads.com
100
AcDbLine
 10
106724.09344716
 20
98008.22023636939
 30
0.0000005875452676
 11
106724.0901992805
 21
98008.21644489356
 31
0.0000005875452676
  0
LINE
  5
50FD3
330
1F
100
AcDbEntity
  8
freecads.com
100
AcDbLine
 10
106724.0950710997
 20
98008.22294456642
 30
0.0000005875452676
 11
106724.09344716
 21
98008.22023636939
 31
0.0000005875452676
  0
LINE
  5
50FD4
330
1F
100
AcDbEntity
  8
freecads.com
100
AcDbLine
 10
106724.0983189791
 20
98008.22565276343
 30
0.0000005875452676
 11
106724.0950710997
 21
98008.22294456642
 31
0.0000005875452676
  0
LINE
  5
50FD5
330
1F
100
AcDbEntity
  8
freecads.com
100
AcDbLine
 10
106724.1004842321
 20
98008.22944423925
 30
0.0000005875452676
 11
106724.0983189791
 21
98008.22565276343
 31
0.0000005875452676
  0
LINE
  5
50FD6
330
1F
100
AcDbEntity
  8
freecads.com
100
AcDbLine
 10
106724.102649485
 20
98008.23215243628
 30
0.0000005875452676
 11
106724.1004842321
 21
98008.22944423925
 31
0.0000005875452676
  0
LINE
  5
50FD7
330
1F
100
AcDbEntity
  8
freecads.com
100
AcDbLine
 10
106724.1053560512
 20
98008.23486063329
 30
0.0000005875452676
 11
106724.102649485
 21
98008.23215243628
 31
0.0000005875452676
  0
LINE
  5
50FD8
330
1F
100
AcDbEntity
  8
freecads.com
100
AcDbLine
 10
106724.1096865571
 20
98008.23702719091
 30
0.0000005875452676
 11
106724.1053560512
 21
98008.23486063329
 31
0.0000005875452676
  0
LINE
  5
50FD9
330
1F
100
AcDbEntity
  8
freecads.com
100
AcDbLine
 10
106724.1107691835
 20
98008.24081866673
 30
0.0000005875452676
 11
106724.1096865571
 21
98008.23702719091
 31
0.0000005875452676
  0
LINE
  5
50FDA
330
1F
100
AcDbEntity
  8
freecads.com
100
AcDbLine
 10
106724.1080626174
 20
98008.24298522435
 30
0.0000005875452676
 11
106724.1107691835
 21
98008.24081866673
 31
0.0000005875452676
  0
LINE
  5
50FDB
330
1F
100
AcDbEntity
  8
freecads.com
100
AcDbLine
 10
106724.1031907983
 20
98008.24515178195
 30
0.0000005875452676
 11
106724.1080626174
 21
98008.24298522435
 31
0.0000005875452676
  0
LINE
  5
50FDC
330
1F
100
AcDbEntity
  8
freecads.com
100
AcDbLine
 10
106724.0994016056
 20
98008.24623506077
 30
0.0000005875452676
 11
106724.1031907983
 21
98008.24515178195
 31
0.0000005875452676
  0
LINE
  5
50FDD
330
1F
100
AcDbEntity
  8
freecads.com
100
AcDbLine
 10
106724.0972363526
 20
98008.24569342138
 30
0.0000005875452676
 11
106724.0994016056
 21
98008.24623506077
 31
0.0000005875452676
  0
LINE
  5
50FDE
330
1F
100
AcDbEntity
  8
freecads.com
100
AcDbLine
 10
106724.0918232203
 20
98008.24515178195
 30
0.0000005875452676
 11
106724.0972363526
 21
98008.24569342138
 31
0.0000005875452676
  0
LINE
  5
50FDF
330
1F
100
AcDbEntity
  8
freecads.com
100
AcDbLine
 10
106724.0869514011
 20
98008.24406850315
 30
0.0000005875452676
 11
106724.0918232203
 21
98008.24515178195
 31
0.0000005875452676
  0
LINE
  5
50FE0
330
1F
100
AcDbEntity
  8
freecads.com
100
AcDbLine
 10
106724.0831622085
 20
98008.24027702732
 30
0.0000005875452676
 11
106724.0869514011
 21
98008.24406850315
 31
0.0000005875452676
  0
LINE
  5
50FE1
330
1F
100
AcDbEntity
  8
freecads.com
100
AcDbLine
 10
106724.0788317026
 20
98008.23594391211
 30
0.0000005875452676
 11
106724.0831622085
 21
98008.24027702732
 31
0.0000005875452676
  0
LINE
  5
50FE2
330
1F
100
AcDbEntity
  8
freecads.com
100
AcDbLine
 10
106724.0734185702
 20
98008.23215243628
 30
0.0000005875452676
 11
106724.0788317026
 21
98008.23594391211
 31
0.0000005875452676
  0
LINE
  5
50FE3
330
1F
100
AcDbEntity
  8
freecads.com
100
AcDbLine
 10
106724.0690880643
 20
98008.22673604224
 30
0.0000005875452676
 11
106724.0690880643
 21
98008.22294456642
 31
0.0000005875452676
  0
LINE
  5
50FE4
330
1F
100
AcDbEntity
  8
freecads.com
100
AcDbLine
 10
106724.070712004
 20
98008.23052751805
 30
0.0000005875452676
 11
106724.0690880643
 21
98008.22673604224
 31
0.0000005875452676
  0
LINE
  5
50FE5
330
1F
100
AcDbEntity
  8
freecads.com
100
AcDbLine
 10
106724.072877257
 20
98008.23431899388
 30
0.0000005875452676
 11
106724.070712004
 21
98008.23052751805
 31
0.0000005875452676
  0
LINE
  5
50FE6
330
1F
100
AcDbEntity
  8
freecads.com
100
AcDbLine
 10
106724.0761251364
 20
98008.24081866673
 30
0.0000005875452676
 11
106724.072877257
 21
98008.23431899388
 31
0.0000005875452676
  0
LINE
  5
50FE7
330
1F
100
AcDbEntity
  8
freecads.com
100
AcDbLine
 10
106724.072877257
 20
98008.24136030612
 30
0.0000005875452676
 11
106724.0761251364
 21
98008.24081866673
 31
0.0000005875452676
  0
LINE
  5
50FE8
330
1F
100
AcDbEntity
  8
freecads.com
100
AcDbLine
 10
106724.0652988716
 20
98008.24027702732
 30
0.0000005875452676
 11
106724.072877257
 21
98008.24136030612
 31
0.0000005875452676
  0
LINE
  5
50FE9
330
1F
100
AcDbEntity
  8
freecads.com
100
AcDbLine
 10
106724.0604270525
 20
98008.23702719091
 30
0.0000005875452676
 11
106724.0652988716
 21
98008.24027702732
 31
0.0000005875452676
  0
LINE
  5
50FEA
330
1F
100
AcDbEntity
  8
freecads.com
100
AcDbLine
 10
106724.0550139202
 20
98008.23431899388
 30
0.0000005875452676
 11
106724.0604270525
 21
98008.23702719091
 31
0.0000005875452676
  0
LINE
  5
50FEB
330
1F
100
AcDbEntity
  8
freecads.com
100
AcDbLine
 10
106724.0506834143
 20
98008.22944423925
 30
0.0000005875452676
 11
106724.0550139202
 21
98008.23431899388
 31
0.0000005875452676
  0
LINE
  5
50FEC
330
1F
100
AcDbEntity
  8
freecads.com
100
AcDbLine
 10
106724.0485181613
 20
98008.22511112404
 30
0.0000005875452676
 11
106724.0506834143
 21
98008.22944423925
 31
0.0000005875452676
  0
LINE
  5
50FED
330
1F
100
AcDbEntity
  8
freecads.com
100
AcDbLine
 10
106724.0479768481
 20
98008.21806981177
 30
0.0000005875452676
 11
106724.0485181613
 21
98008.21536161476
 31
0.0000005875452676
  0
LINE
  5
50FEE
330
1F
100
AcDbEntity
  8
freecads.com
100
AcDbLine
 10
106724.0479768481
 20
98008.2218612876
 30
0.0000005875452676
 11
106724.0479768481
 21
98008.21806981177
 31
0.0000005875452676
  0
LINE
  5
50FEF
330
1F
100
AcDbEntity
  8
freecads.com
100
AcDbLine
 10
106724.0463529084
 20
98008.22781932104
 30
0.0000005875452676
 11
106724.0479768481
 21
98008.2218612876
 31
0.0000005875452676
  0
LINE
  5
50FF0
330
1F
100
AcDbEntity
  8
freecads.com
100
AcDbLine
 10
106724.0436463422
 20
98008.22944423925
 30
0.0000005875452676
 11
106724.0463529084
 21
98008.22781932104
 31
0.0000005875452676
  0
LINE
  5
50FF1
330
1F
100
AcDbEntity
  8
freecads.com
100
AcDbLine
 10
106724.0403984627
 20
98008.22781932104
 30
0.0000005875452676
 11
106724.0436463422
 21
98008.22944423925
 31
0.0000005875452676
  0
LINE
  5
50FF2
330
1F
100
AcDbEntity
  8
freecads.com
100
AcDbLine
 10
106724.0376918966
 20
98008.22565276343
 30
0.0000005875452676
 11
106724.0403984627
 21
98008.22781932104
 31
0.0000005875452676
  0
LINE
  5
50FF3
330
1F
100
AcDbEntity
  8
freecads.com
100
AcDbLine
 10
106724.0366092701
 20
98008.22131964821
 30
0.0000005875452676
 11
106724.0376918966
 21
98008.22565276343
 31
0.0000005875452676
  0
LINE
  5
50FF4
330
1F
100
AcDbEntity
  8
freecads.com
100
AcDbLine
 10
106724.0366092701
 20
98008.21752817238
 30
0.0000005875452676
 11
106724.0366092701
 21
98008.22131964821
 31
0.0000005875452676
  0
LINE
  5
50FF5
330
1F
100
AcDbEntity
  8
freecads.com
100
AcDbLine
 10
106724.0376918966
 20
98008.21211177835
 30
0.0000005875452676
 11
106724.0366092701
 21
98008.21752817238
 31
0.0000005875452676
  0
LINE
  5
50FF6
330
1F
100
AcDbEntity
  8
freecads.com
100
AcDbLine
 10
106724.0382332098
 20
98008.20886194193
 30
0.0000005875452676
 11
106724.0376918966
 21
98008.21211177835
 31
0.0000005875452676
  0
LINE
  5
50FF7
330
1F
100
AcDbEntity
  8
freecads.com
100
AcDbLine
 10
106724.0398571495
 20
98008.20452882669
 30
0.0000005875452676
 11
106724.0382332098
 21
98008.20886194193
 31
0.0000005875452676
  0
LINE
  5
50FF8
330
1F
100
AcDbEntity
  8
freecads.com
100
AcDbLine
 10
106724.0414810892
 20
98008.20127899026
 30
0.0000005875452676
 11
106724.0398571495
 21
98008.20452882669
 31
0.0000005875452676
  0
LINE
  5
50FF9
330
1F
100
AcDbEntity
  8
freecads.com
100
AcDbLine
 10
106724.0431050289
 20
98008.19748751443
 30
0.0000005875452676
 11
106724.0414810892
 21
98008.20127899026
 31
0.0000005875452676
  0
LINE
  5
50FFA
330
1F
100
AcDbEntity
  8
freecads.com
100
AcDbLine
 10
106724.0447289687
 20
98008.19477931744
 30
0.0000005875452676
 11
106724.0431050289
 21
98008.19748751443
 31
0.0000005875452676
  0
LINE
  5
50FFB
330
1F
100
AcDbEntity
  8
freecads.com
100
AcDbLine
 10
106724.0057544156
 20
98008.27385867036
 30
0.0000005875452676
 11
106724.0073783553
 21
98008.27331703095
 31
0.0000005875452676
  0
LINE
  5
50FFC
330
1F
100
AcDbEntity
  8
freecads.com
100
AcDbLine
 10
106724.0025065362
 20
98008.27331703095
 30
0.0000005875452676
 11
106724.0057544156
 21
98008.27385867036
 31
0.0000005875452676
  0
LINE
  5
50FFD
330
1F
100
AcDbEntity
  8
freecads.com
100
AcDbLine
 10
106724.0279482583
 20
98008.25760948823
 30
0.0000005875452676
 11
106724.0274069451
 21
98008.2538180124
 31
0.0000005875452676
  0
LINE
  5
50FFE
330
1F
100
AcDbEntity
  8
freecads.com
100
AcDbLine
 10
106724.0219938127
 20
98008.25652620943
 30
0.0000005875452676
 11
106724.0219938127
 21
98008.25869276705
 31
0.0000005875452676
  0
LINE
  5
50FFF
330
1F
100
AcDbEntity
  8
freecads.com
100
AcDbLine
 10
106724.0219938127
 20
98008.2538180124
 30
0.0000005875452676
 11
106724.0219938127
 21
98008.25652620943
 31
0.0000005875452676
  0
LINE
  5
51000
330
1F
100
AcDbEntity
  8
freecads.com
100
AcDbLine
 10
106723.9824779464
 20
98008.24406850315
 30
0.0000005875452676
 11
106723.9797713802
 21
98008.24623506077
 31
0.0000005875452676
  0
LINE
  5
51001
330
1F
100
AcDbEntity
  8
freecads.com
100
AcDbLine
 10
106723.9835605729
 20
98008.23865210912
 30
0.0000005875452676
 11
106723.9824779464
 21
98008.24406850315
 31
0.0000005875452676
  0
LINE
  5
51002
330
1F
100
AcDbEntity
  8
freecads.com
100
AcDbLine
 10
106723.9954694641
 20
98008.23811046971
 30
0.0000005875452676
 11
106723.9949281509
 21
98008.24136030612
 31
0.0000005875452676
  0
LINE
  5
51003
330
1F
100
AcDbEntity
  8
freecads.com
100
AcDbLine
 10
106723.9943868376
 20
98008.23377735449
 30
0.0000005875452676
 11
106723.9954694641
 21
98008.23811046971
 31
0.0000005875452676
  0
LINE
  5
51004
330
1F
100
AcDbEntity
  8
freecads.com
100
AcDbLine
 10
106723.9922215847
 20
98008.22944423925
 30
0.0000005875452676
 11
106723.9943868376
 21
98008.23377735449
 31
0.0000005875452676
  0
LINE
  5
51005
330
1F
100
AcDbEntity
  8
freecads.com
100
AcDbLine
 10
106723.9878910788
 20
98008.2364855515
 30
0.0000005875452676
 11
106723.9889737053
 21
98008.23431899388
 31
0.0000005875452676
  0
LINE
  5
51006
330
1F
100
AcDbEntity
  8
freecads.com
100
AcDbLine
 10
106723.9862671391
 20
98008.2364855515
 30
0.0000005875452676
 11
106723.9878910788
 21
98008.2364855515
 31
0.0000005875452676
  0
LINE
  5
51007
330
1F
100
AcDbEntity
  8
freecads.com
100
AcDbLine
 10
106723.9841018861
 20
98008.2354022727
 30
0.0000005875452676
 11
106723.9862671391
 21
98008.2364855515
 31
0.0000005875452676
  0
LINE
  5
51008
330
1F
100
AcDbEntity
  8
freecads.com
100
AcDbLine
 10
106723.9813953199
 20
98008.23323571508
 30
0.0000005875452676
 11
106723.9841018861
 21
98008.2354022727
 31
0.0000005875452676
  0
LINE
  5
51009
330
1F
100
AcDbEntity
  8
freecads.com
100
AcDbLine
 10
106723.9803126935
 20
98008.23106915746
 30
0.0000005875452676
 11
106723.9813953199
 21
98008.23323571508
 31
0.0000005875452676
  0
LINE
  5
5100A
330
1F
100
AcDbEntity
  8
freecads.com
100
AcDbLine
 10
106723.9765235008
 20
98008.22998587866
 30
0.0000005875452676
 11
106723.9803126935
 21
98008.23106915746
 31
0.0000005875452676
  0
LINE
  5
5100B
330
1F
100
AcDbEntity
  8
freecads.com
100
AcDbLine
 10
106724.0176633068
 20
98008.25435965181
 30
0.0000005875452676
 11
106724.0117088612
 21
98008.25056817599
 31
0.0000005875452676
  0
LINE
  5
5100C
330
1F
100
AcDbEntity
  8
freecads.com
100
AcDbLine
 10
106724.0252416921
 20
98008.25327637301
 30
0.0000005875452676
 11
106724.0176633068
 21
98008.25435965181
 31
0.0000005875452676
  0
LINE
  5
5100D
330
1F
100
AcDbEntity
  8
freecads.com
100
AcDbLine
 10
106724.0317374509
 20
98008.2538180124
 30
0.0000005875452676
 11
106724.0252416921
 21
98008.25327637301
 31
0.0000005875452676
  0
LINE
  5
5100E
330
1F
100
AcDbEntity
  8
freecads.com
100
AcDbLine
 10
106724.0339027039
 20
98008.25923440646
 30
0.0000005875452676
 11
106724.0317374509
 21
98008.2538180124
 31
0.0000005875452676
  0
LINE
  5
5100F
330
1F
100
AcDbEntity
  8
freecads.com
100
AcDbLine
 10
106724.0414810892
 20
98008.25977604587
 30
0.0000005875452676
 11
106724.0339027039
 21
98008.25923440646
 31
0.0000005875452676
  0
LINE
  5
51010
330
1F
100
AcDbEntity
  8
freecads.com
100
AcDbLine
 10
106724.040939776
 20
98008.26410916108
 30
0.0000005875452676
 11
106724.0414810892
 21
98008.25977604587
 31
0.0000005875452676
  0
LINE
  5
51011
330
1F
100
AcDbEntity
  8
freecads.com
100
AcDbLine
 10
106724.0382332098
 20
98008.26790063691
 30
0.0000005875452676
 11
106724.040939776
 21
98008.26410916108
 31
0.0000005875452676
  0
LINE
  5
51012
330
1F
100
AcDbEntity
  8
freecads.com
100
AcDbLine
 10
106724.0436463422
 20
98008.26898391573
 30
0.0000005875452676
 11
106724.0382332098
 21
98008.26790063691
 31
0.0000005875452676
  0
LINE
  5
51013
330
1F
100
AcDbEntity
  8
freecads.com
100
AcDbLine
 10
106724.0441876554
 20
98008.27440030975
 30
0.0000005875452676
 11
106724.0436463422
 21
98008.26898391573
 31
0.0000005875452676
  0
LINE
  5
51014
330
1F
100
AcDbEntity
  8
freecads.com
100
AcDbLine
 10
106724.0403984627
 20
98008.27656686736
 30
0.0000005875452676
 11
106724.0441876554
 21
98008.27440030975
 31
0.0000005875452676
  0
LINE
  5
51015
330
1F
100
AcDbEntity
  8
freecads.com
100
AcDbLine
 10
106724.0371505834
 20
98008.27873342498
 30
0.0000005875452676
 11
106724.0403984627
 21
98008.27656686736
 31
0.0000005875452676
  0
LINE
  5
51016
330
1F
100
AcDbEntity
  8
freecads.com
100
AcDbLine
 10
106724.0333613907
 20
98008.28306654022
 30
0.0000005875452676
 11
106724.0371505834
 21
98008.27873342498
 31
0.0000005875452676
  0
LINE
  5
51017
330
1F
100
AcDbEntity
  8
freecads.com
100
AcDbLine
 10
106724.0290308848
 20
98008.28739965544
 30
0.0000005875452676
 11
106724.0333613907
 21
98008.28306654022
 31
0.0000005875452676
  0
LINE
  5
51018
330
1F
100
AcDbEntity
  8
freecads.com
100
AcDbLine
 10
106724.0257830054
 20
98008.28469145843
 30
0.0000005875452676
 11
106724.0290308848
 21
98008.28739965544
 31
0.0000005875452676
  0
LINE
  5
51019
330
1F
100
AcDbEntity
  8
freecads.com
100
AcDbLine
 10
106724.0198285598
 20
98008.28252490081
 30
0.0000005875452676
 11
106724.0257830054
 21
98008.28469145843
 31
0.0000005875452676
  0
LINE
  5
5101A
330
1F
100
AcDbEntity
  8
freecads.com
100
AcDbLine
 10
106724.0144154274
 20
98008.28577473723
 30
0.0000005875452676
 11
106724.0198285598
 21
98008.28252490081
 31
0.0000005875452676
  0
LINE
  5
5101B
330
1F
100
AcDbEntity
  8
freecads.com
100
AcDbLine
 10
106724.0117088612
 20
98008.28252490081
 30
0.0000005875452676
 11
106724.0144154274
 21
98008.28577473723
 31
0.0000005875452676
  0
LINE
  5
5101C
330
1F
100
AcDbEntity
  8
freecads.com
100
AcDbLine
 10
106724.0095436083
 20
98008.27819178557
 30
0.0000005875452676
 11
106724.0117088612
 21
98008.28252490081
 31
0.0000005875452676
  0
LINE
  5
5101D
330
1F
100
AcDbEntity
  8
freecads.com
100
AcDbLine
 10
106724.0052131024
 20
98008.27656686736
 30
0.0000005875452676
 11
106724.0095436083
 21
98008.27819178557
 31
0.0000005875452676
  0
LINE
  5
5101E
330
1F
100
AcDbEntity
  8
freecads.com
100
AcDbLine
 10
106724.0008825965
 20
98008.27385867036
 30
0.0000005875452676
 11
106724.0052131024
 21
98008.27656686736
 31
0.0000005875452676
  0
LINE
  5
5101F
330
1F
100
AcDbEntity
  8
freecads.com
100
AcDbLine
 10
106723.9987173435
 20
98008.26952555512
 30
0.0000005875452676
 11
106724.0008825965
 21
98008.27385867036
 31
0.0000005875452676
  0
LINE
  5
51020
330
1F
100
AcDbEntity
  8
freecads.com
100
AcDbLine
 10
106723.99979997
 20
98008.26465080048
 30
0.0000005875452676
 11
106723.9987173435
 21
98008.26952555512
 31
0.0000005875452676
  0
LINE
  5
51021
330
1F
100
AcDbEntity
  8
freecads.com
100
AcDbLine
 10
106724.001965223
 20
98008.26140096408
 30
0.0000005875452676
 11
106723.99979997
 21
98008.26465080048
 31
0.0000005875452676
  0
LINE
  5
51022
330
1F
100
AcDbEntity
  8
freecads.com
100
AcDbLine
 10
106724.0003412832
 20
98008.23161079687
 30
0.0000005875452676
 11
106723.9954694641
 21
98008.22781932104
 31
0.0000005875452676
  0
LINE
  5
51023
330
1F
100
AcDbEntity
  8
freecads.com
100
AcDbLine
 10
106724.0014239097
 20
98008.23377735449
 30
0.0000005875452676
 11
106724.0003412832
 21
98008.23161079687
 31
0.0000005875452676
  0
LINE
  5
51024
330
1F
100
AcDbEntity
  8
freecads.com
100
AcDbLine
 10
106724.0062957288
 20
98008.23756883032
 30
0.0000005875452676
 11
106724.0014239097
 21
98008.23377735449
 31
0.0000005875452676
  0
LINE
  5
51025
330
1F
100
AcDbEntity
  8
freecads.com
100
AcDbLine
 10
106724.0084609818
 20
98008.24298522435
 30
0.0000005875452676
 11
106724.0062957288
 21
98008.23756883032
 31
0.0000005875452676
  0
LINE
  5
51026
330
1F
100
AcDbEntity
  8
freecads.com
100
AcDbLine
 10
106724.0095436083
 20
98008.24785997898
 30
0.0000005875452676
 11
106724.0084609818
 21
98008.24298522435
 31
0.0000005875452676
  0
LINE
  5
51027
330
1F
100
AcDbEntity
  8
freecads.com
100
AcDbLine
 10
106724.0100849215
 20
98008.25327637301
 30
0.0000005875452676
 11
106724.0095436083
 21
98008.24785997898
 31
0.0000005875452676
  0
LINE
  5
51028
330
1F
100
AcDbEntity
  8
freecads.com
100
AcDbLine
 10
106724.0046717891
 20
98008.2521930942
 30
0.0000005875452676
 11
106724.0100849215
 21
98008.25327637301
 31
0.0000005875452676
  0
LINE
  5
51029
330
1F
100
AcDbEntity
  8
freecads.com
100
AcDbLine
 10
106724.0025065362
 20
98008.25869276705
 30
0.0000005875452676
 11
106724.0046717891
 21
98008.2521930942
 31
0.0000005875452676
  0
LINE
  5
5102A
330
1F
100
AcDbEntity
  8
freecads.com
100
AcDbLine
 10
106723.9992586568
 20
98008.26031768526
 30
0.0000005875452676
 11
106724.0025065362
 21
98008.25869276705
 31
0.0000005875452676
  0
LINE
  5
5102B
330
1F
100
AcDbEntity
  8
freecads.com
100
AcDbLine
 10
106723.9960107773
 20
98008.25706784884
 30
0.0000005875452676
 11
106723.9992586568
 21
98008.26031768526
 31
0.0000005875452676
  0
LINE
  5
5102C
330
1F
100
AcDbEntity
  8
freecads.com
100
AcDbLine
 10
106723.9927628979
 20
98008.25923440646
 30
0.0000005875452676
 11
106723.9960107773
 21
98008.25706784884
 31
0.0000005875452676
  0
LINE
  5
5102D
330
1F
100
AcDbEntity
  8
freecads.com
100
AcDbLine
 10
106723.990597645
 20
98008.26248424288
 30
0.0000005875452676
 11
106723.9927628979
 21
98008.25923440646
 31
0.0000005875452676
  0
LINE
  5
5102E
330
1F
100
AcDbEntity
  8
freecads.com
100
AcDbLine
 10
106723.9857258258
 20
98008.25923440646
 30
0.0000005875452676
 11
106723.990597645
 21
98008.26248424288
 31
0.0000005875452676
  0
LINE
  5
5102F
330
1F
100
AcDbEntity
  8
freecads.com
100
AcDbLine
 10
106723.9873497656
 20
98008.25544293063
 30
0.0000005875452676
 11
106723.9868084523
 21
98008.2521930942
 31
0.0000005875452676
  0
LINE
  5
51030
330
1F
100
AcDbEntity
  8
freecads.com
100
AcDbLine
 10
106723.9857258258
 20
98008.25815112766
 30
0.0000005875452676
 11
106723.9873497656
 21
98008.25544293063
 31
0.0000005875452676
  0
LINE
  5
51031
330
1F
100
AcDbEntity
  8
freecads.com
100
AcDbLine
 10
106723.9808540067
 20
98008.26085932467
 30
0.0000005875452676
 11
106723.9857258258
 21
98008.25815112766
 31
0.0000005875452676
  0
LINE
  5
51032
330
1F
100
AcDbEntity
  8
freecads.com
100
AcDbLine
 10
106723.9776061273
 20
98008.25869276705
 30
0.0000005875452676
 11
106723.9808540067
 21
98008.26085932467
 31
0.0000005875452676
  0
LINE
  5
51033
330
1F
100
AcDbEntity
  8
freecads.com
100
AcDbLine
 10
106723.9743582479
 20
98008.25544293063
 30
0.0000005875452676
 11
106723.9776061273
 21
98008.25869276705
 31
0.0000005875452676
  0
LINE
  5
51034
330
1F
100
AcDbEntity
  8
freecads.com
100
AcDbLine
 10
106723.9732756214
 20
98008.25056817599
 30
0.0000005875452676
 11
106723.9743582479
 21
98008.25544293063
 31
0.0000005875452676
  0
LINE
  5
51035
330
1F
100
AcDbEntity
  8
freecads.com
100
AcDbLine
 10
106723.9970934038
 20
98008.22131964821
 30
0.0000005875452676
 11
106723.9927628979
 21
98008.22565276343
 31
0.0000005875452676
  0
LINE
  5
51036
330
1F
100
AcDbEntity
  8
freecads.com
100
AcDbLine
 10
106723.9981760303
 20
98008.21752817238
 30
0.0000005875452676
 11
106723.9970934038
 21
98008.22131964821
 31
0.0000005875452676
  0
LINE
  5
51037
330
1F
100
AcDbEntity
  8
freecads.com
100
AcDbLine
 10
106724.0014239097
 20
98008.21157013894
 30
0.0000005875452676
 11
106723.9981760303
 21
98008.21752817238
 31
0.0000005875452676
  0
LINE
  5
51038
330
1F
100
AcDbEntity
  8
freecads.com
100
AcDbLine
 10
106724.0052131024
 20
98008.2061537449
 30
0.0000005875452676
 11
106724.0014239097
 21
98008.21157013894
 31
0.0000005875452676
  0
LINE
  5
51039
330
1F
100
AcDbEntity
  8
freecads.com
100
AcDbLine
 10
106724.0073783553
 20
98008.20073735087
 30
0.0000005875452676
 11
106724.0052131024
 21
98008.2061537449
 31
0.0000005875452676
  0
LINE
  5
5103A
330
1F
100
AcDbEntity
  8
freecads.com
100
AcDbLine
 10
106724.009002295
 20
98008.19694587504
 30
0.0000005875452676
 11
106724.0073783553
 21
98008.20073735087
 31
0.0000005875452676
  0
LINE
  5
5103B
330
1F
100
AcDbEntity
  8
freecads.com
100
AcDbLine
 10
106724.0219938127
 20
98008.19261275981
 30
0.0000005875452676
 11
106724.0274069451
 21
98008.19207112041
 31
0.0000005875452676
  0
LINE
  5
5103C
330
1F
100
AcDbEntity
  8
freecads.com
100
AcDbLine
 10
106724.0176633068
 20
98008.19477931744
 30
0.0000005875452676
 11
106724.0219938127
 21
98008.19261275981
 31
0.0000005875452676
  0
LINE
  5
5103D
330
1F
100
AcDbEntity
  8
freecads.com
100
AcDbLine
 10
106724.0133328009
 20
98008.19586259622
 30
0.0000005875452676
 11
106724.0176633068
 21
98008.19477931744
 31
0.0000005875452676
  0
LINE
  5
5103E
330
1F
100
AcDbEntity
  8
freecads.com
100
AcDbLine
 10
106724.0073783553
 20
98008.19640423565
 30
0.0000005875452676
 11
106724.0133328009
 21
98008.19586259622
 31
0.0000005875452676
  0
LINE
  5
5103F
330
1F
100
AcDbEntity
  8
freecads.com
100
AcDbLine
 10
106723.9992586568
 20
98008.19694587504
 30
0.0000005875452676
 11
106724.0073783553
 21
98008.19640423565
 31
0.0000005875452676
  0
LINE
  5
51040
330
1F
100
AcDbEntity
  8
freecads.com
100
AcDbLine
 10
106723.9911389582
 20
98008.19748751443
 30
0.0000005875452676
 11
106723.9992586568
 21
98008.19694587504
 31
0.0000005875452676
  0
LINE
  5
51041
330
1F
100
AcDbEntity
  8
freecads.com
100
AcDbLine
 10
106723.9846431994
 20
98008.19586259622
 30
0.0000005875452676
 11
106723.9911389582
 21
98008.19748751443
 31
0.0000005875452676
  0
LINE
  5
51042
330
1F
100
AcDbEntity
  8
freecads.com
100
AcDbLine
 10
106723.9781474405
 20
98008.19586259622
 30
0.0000005875452676
 11
106723.9846431994
 21
98008.19586259622
 31
0.0000005875452676
  0
LINE
  5
51043
330
1F
100
AcDbEntity
  8
freecads.com
100
AcDbLine
 10
106723.9743582479
 20
98008.19532095683
 30
0.0000005875452676
 11
106723.9781474405
 21
98008.19586259622
 31
0.0000005875452676
  0
LINE
  5
51044
330
1F
100
AcDbEntity
  8
freecads.com
100
AcDbLine
 10
106723.970027742
 20
98008.19207112041
 30
0.0000005875452676
 11
106723.9743582479
 21
98008.19532095683
 31
0.0000005875452676
  0
LINE
  5
51045
330
1F
100
AcDbEntity
  8
freecads.com
100
AcDbLine
 10
106723.9569149976
 20
98008.22003091997
 30
0.0000005875452676
 11
106723.9523791292
 21
98008.22255234477
 31
0.0000005875452676
  0
LINE
  5
51046
330
1F
100
AcDbEntity
  8
freecads.com
100
AcDbLine
 10
106723.961450866
 20
98008.21851806508
 30
0.0000005875452676
 11
106723.9569149976
 21
98008.22003091997
 31
0.0000005875452676
  0
LINE
  5
51047
330
1F
100
AcDbEntity
  8
freecads.com
100
AcDbLine
 10
106723.9669947051
 20
98008.21599664027
 30
0.0000005875452676
 11
106723.961450866
 21
98008.21851806508
 31
0.0000005875452676
  0
LINE
  5
51048
330
1F
100
AcDbEntity
  8
freecads.com
100
AcDbLine
 10
106723.9705226028
 20
98008.21650092524
 30
0.0000005875452676
 11
106723.9669947051
 21
98008.21599664027
 31
0.0000005875452676
  0
LINE
  5
51049
330
1F
100
AcDbEntity
  8
freecads.com
100
AcDbLine
 10
106723.9690106466
 20
98008.22053520494
 30
0.0000005875452676
 11
106723.9705226028
 21
98008.21650092524
 31
0.0000005875452676
  0
LINE
  5
5104A
330
1F
100
AcDbEntity
  8
freecads.com
100
AcDbLine
 10
106723.9644747782
 20
98008.22507376958
 30
0.0000005875452676
 11
106723.9690106466
 21
98008.22053520494
 31
0.0000005875452676
  0
LINE
  5
5104B
330
1F
100
AcDbEntity
  8
freecads.com
100
AcDbLine
 10
106723.9599389099
 20
98008.22809947936
 30
0.0000005875452676
 11
106723.9559070269
 21
98008.23162947409
 31
0.0000005875452676
  0
LINE
  5
5104C
330
1F
100
AcDbEntity
  8
freecads.com
100
AcDbLine
 10
106723.965482749
 20
98008.22507376958
 30
0.0000005875452676
 11
106723.9599389099
 21
98008.22809947936
 31
0.0000005875452676
  0
LINE
  5
5104D
330
1F
100
AcDbEntity
  8
freecads.com
100
AcDbLine
 10
106723.9710265881
 20
98008.22456948463
 30
0.0000005875452676
 11
106723.965482749
 21
98008.22507376958
 31
0.0000005875452676
  0
LINE
  5
5104E
330
1F
100
AcDbEntity
  8
freecads.com
100
AcDbLine
 10
106723.9760664419
 20
98008.22910804928
 30
0.0000005875452676
 11
106723.9710265881
 21
98008.22456948463
 31
0.0000005875452676
  0
LINE
  5
5104F
330
1F
100
AcDbEntity
  8
freecads.com
100
AcDbLine
 10
106723.9765704273
 20
98008.23213375906
 30
0.0000005875452676
 11
106723.9760664419
 21
98008.22910804928
 31
0.0000005875452676
  0
LINE
  5
51050
330
1F
100
AcDbEntity
  8
freecads.com
100
AcDbLine
 10
106723.9750584711
 20
98008.23667232371
 30
0.0000005875452676
 11
106723.9765704273
 21
98008.23213375906
 31
0.0000005875452676
  0
LINE
  5
51051
330
1F
100
AcDbEntity
  8
freecads.com
100
AcDbLine
 10
106723.9740505004
 20
98008.23768089363
 30
0.0000005875452676
 11
106723.9750584711
 21
98008.23667232371
 31
0.0000005875452676
  0
LINE
  5
51052
330
1F
100
AcDbEntity
  8
freecads.com
100
AcDbLine
 10
106723.9705226028
 20
98008.23868946356
 30
0.0000005875452676
 11
106723.9740505004
 21
98008.23768089363
 31
0.0000005875452676
  0
LINE
  5
51053
330
1F
100
AcDbEntity
  8
freecads.com
100
AcDbLine
 10
106723.9674986905
 20
98008.23969803349
 30
0.0000005875452676
 11
106723.9705226028
 21
98008.23868946356
 31
0.0000005875452676
  0
LINE
  5
51054
330
1F
100
AcDbEntity
  8
freecads.com
100
AcDbLine
 10
106723.965482749
 20
98008.24322802823
 30
0.0000005875452676
 11
106723.9674986905
 21
98008.23969803349
 31
0.0000005875452676
  0
LINE
  5
51055
330
1F
100
AcDbEntity
  8
freecads.com
100
AcDbLine
 10
106723.9609468806
 20
98008.24423659815
 30
0.0000005875452676
 11
106723.965482749
 21
98008.24322802823
 31
0.0000005875452676
  0
LINE
  5
51056
330
1F
100
AcDbEntity
  8
freecads.com
100
AcDbLine
 10
106723.9579229684
 20
98008.24625373799
 30
0.0000005875452676
 11
106723.9609468806
 21
98008.24423659815
 31
0.0000005875452676
  0
LINE
  5
51057
330
1F
100
AcDbEntity
  8
freecads.com
100
AcDbLine
 10
106723.9543950707
 20
98008.24574945302
 30
0.0000005875452676
 11
106723.9579229684
 21
98008.24625373799
 31
0.0000005875452676
  0
LINE
  5
51058
330
1F
100
AcDbEntity
  8
freecads.com
100
AcDbLine
 10
106723.969514632
 20
98008.1917909621
 30
0.0000005875452676
 11
106723.9700186174
 21
98008.18826096737
 31
0.0000005875452676
  0
LINE
  5
51059
330
1F
100
AcDbEntity
  8
freecads.com
100
AcDbLine
 10
106723.9554030415
 20
98008.14337960575
 30
0.0000005875452676
 11
106723.957418983
 21
98008.14842245538
 31
0.0000005875452676
  0
LINE
  5
5105A
330
1F
100
AcDbEntity
  8
freecads.com
100
AcDbLine
 10
106723.8777892936
 20
98008.12925962681
 30
0.0000005875452676
 11
106723.874261396
 21
98008.13178105162
 31
0.0000005875452676
  0
LINE
  5
5105B
330
1F
100
AcDbEntity
  8
freecads.com
100
AcDbLine
 10
106723.8808132059
 20
98008.12774677194
 30
0.0000005875452676
 11
106723.8777892936
 21
98008.12925962681
 31
0.0000005875452676
  0
LINE
  5
5105C
330
1F
100
AcDbEntity
  8
freecads.com
100
AcDbLine
 10
106723.8853490743
 20
98008.12522534712
 30
0.0000005875452676
 11
106723.8808132059
 21
98008.12774677194
 31
0.0000005875452676
  0
LINE
  5
5105D
330
1F
100
AcDbEntity
  8
freecads.com
100
AcDbLine
 10
106723.890388928
 20
98008.12119106742
 30
0.0000005875452676
 11
106723.8853490743
 21
98008.12522534712
 31
0.0000005875452676
  0
LINE
  5
5105E
330
1F
100
AcDbEntity
  8
freecads.com
100
AcDbLine
 10
106723.8954287818
 20
98008.11715678774
 30
0.0000005875452676
 11
106723.890388928
 21
98008.12119106742
 31
0.0000005875452676
  0
LINE
  5
5105F
330
1F
100
AcDbEntity
  8
freecads.com
100
AcDbLine
 10
106723.8999646501
 20
98008.11261822307
 30
0.0000005875452676
 11
106723.8954287818
 21
98008.11715678774
 31
0.0000005875452676
  0
LINE
  5
51060
330
1F
100
AcDbEntity
  8
freecads.com
100
AcDbLine
 10
106723.9050045039
 20
98008.10908822834
 30
0.0000005875452676
 11
106723.8999646501
 21
98008.11261822307
 31
0.0000005875452676
  0
LINE
  5
51061
330
1F
100
AcDbEntity
  8
freecads.com
100
AcDbLine
 10
106723.9100443577
 20
98008.1055582336
 30
0.0000005875452676
 11
106723.9050045039
 21
98008.10908822834
 31
0.0000005875452676
  0
LINE
  5
51062
330
1F
100
AcDbEntity
  8
freecads.com
100
AcDbLine
 10
106723.9130682699
 20
98008.10354109374
 30
0.0000005875452676
 11
106723.9100443577
 21
98008.1055582336
 31
0.0000005875452676
  0
LINE
  5
51063
330
1F
100
AcDbEntity
  8
freecads.com
100
AcDbLine
 10
106723.9211320359
 20
98008.10152395392
 30
0.0000005875452676
 11
106723.9130682699
 21
98008.10354109374
 31
0.0000005875452676
  0
LINE
  5
51064
330
1F
100
AcDbEntity
  8
freecads.com
100
AcDbLine
 10
106723.9191160944
 20
98008.10606251856
 30
0.0000005875452676
 11
106723.9211320359
 21
98008.10152395392
 31
0.0000005875452676
  0
LINE
  5
51065
330
1F
100
AcDbEntity
  8
freecads.com
100
AcDbLine
 10
106723.9160921822
 20
98008.11110536818
 30
0.0000005875452676
 11
106723.9191160944
 21
98008.10606251856
 31
0.0000005875452676
  0
LINE
  5
51066
330
1F
100
AcDbEntity
  8
freecads.com
100
AcDbLine
 10
106723.9130682699
 20
98008.11715678774
 30
0.0000005875452676
 11
106723.9160921822
 21
98008.11110536818
 31
0.0000005875452676
  0
LINE
  5
51067
330
1F
100
AcDbEntity
  8
freecads.com
100
AcDbLine
 10
106723.9085324015
 20
98008.12219963734
 30
0.0000005875452676
 11
106723.9130682699
 21
98008.11715678774
 31
0.0000005875452676
  0
LINE
  5
51068
330
1F
100
AcDbEntity
  8
freecads.com
100
AcDbLine
 10
106723.9050045039
 20
98008.12724248697
 30
0.0000005875452676
 11
106723.9085324015
 21
98008.12219963734
 31
0.0000005875452676
  0
LINE
  5
51069
330
1F
100
AcDbEntity
  8
freecads.com
100
AcDbLine
 10
106723.8989566794
 20
98008.1307724817
 30
0.0000005875452676
 11
106723.9050045039
 21
98008.12724248697
 31
0.0000005875452676
  0
LINE
  5
5106A
330
1F
100
AcDbEntity
  8
freecads.com
100
AcDbLine
 10
106723.894420811
 20
98008.13480676138
 30
0.0000005875452676
 11
106723.8989566794
 21
98008.1307724817
 31
0.0000005875452676
  0
LINE
  5
5106B
330
1F
100
AcDbEntity
  8
freecads.com
100
AcDbLine
 10
106723.8868610304
 20
98008.13732818621
 30
0.0000005875452676
 11
106723.894420811
 21
98008.13480676138
 31
0.0000005875452676
  0
LINE
  5
5106C
330
1F
100
AcDbEntity
  8
freecads.com
100
AcDbLine
 10
106723.8818211766
 20
98008.13884104108
 30
0.0000005875452676
 11
106723.8868610304
 21
98008.13732818621
 31
0.0000005875452676
  0
LINE
  5
5106D
330
1F
100
AcDbEntity
  8
freecads.com
100
AcDbLine
 10
106723.8757733521
 20
98008.13884104108
 30
0.0000005875452676
 11
106723.8818211766
 21
98008.13884104108
 31
0.0000005875452676
  0
LINE
  5
5106E
330
1F
100
AcDbEntity
  8
freecads.com
100
AcDbLine
 10
106723.870229513
 20
98008.13884104108
 30
0.0000005875452676
 11
106723.8757733521
 21
98008.13884104108
 31
0.0000005875452676
  0
LINE
  5
5106F
330
1F
100
AcDbEntity
  8
freecads.com
100
AcDbLine
 10
106723.9034925478
 20
98008.16002100949
 30
0.0000005875452676
 11
106723.9045005185
 21
98008.16304671926
 31
0.0000005875452676
  0
LINE
  5
51070
330
1F
100
AcDbEntity
  8
freecads.com
100
AcDbLine
 10
106723.9029885624
 20
98008.15901243957
 30
0.0000005875452676
 11
106723.9034925478
 21
98008.16002100949
 31
0.0000005875452676
  0
LINE
  5
51071
330
1F
100
AcDbEntity
  8
freecads.com
100
AcDbLine
 10
106723.9014766063
 20
98008.15598672979
 30
0.0000005875452676
 11
106723.9029885624
 21
98008.15901243957
 31
0.0000005875452676
  0
LINE
  5
51072
330
1F
100
AcDbEntity
  8
freecads.com
100
AcDbLine
 10
106723.8969407379
 20
98008.15346530498
 30
0.0000005875452676
 11
106723.9014766063
 21
98008.15598672979
 31
0.0000005875452676
  0
LINE
  5
51073
330
1F
100
AcDbEntity
  8
freecads.com
100
AcDbLine
 10
106723.8919008842
 20
98008.15094388017
 30
0.0000005875452676
 11
106723.8969407379
 21
98008.15346530498
 31
0.0000005875452676
  0
LINE
  5
51074
330
1F
100
AcDbEntity
  8
freecads.com
100
AcDbLine
 10
106723.8873650158
 20
98008.14842245538
 30
0.0000005875452676
 11
106723.8919008842
 21
98008.15094388017
 31
0.0000005875452676
  0
LINE
  5
51075
330
1F
100
AcDbEntity
  8
freecads.com
100
AcDbLine
 10
106723.8803092205
 20
98008.14690960047
 30
0.0000005875452676
 11
106723.8873650158
 21
98008.14842245538
 31
0.0000005875452676
  0
LINE
  5
51076
330
1F
100
AcDbEntity
  8
freecads.com
100
AcDbLine
 10
106723.8898849427
 20
98008.16304671926
 30
0.0000005875452676
 11
106723.8949247964
 21
98008.16203814934
 31
0.0000005875452676
  0
LINE
  5
51077
330
1F
100
AcDbEntity
  8
freecads.com
100
AcDbLine
 10
106723.8843411035
 20
98008.1625424343
 30
0.0000005875452676
 11
106723.8898849427
 21
98008.16304671926
 31
0.0000005875452676
  0
LINE
  5
51078
330
1F
100
AcDbEntity
  8
freecads.com
100
AcDbLine
 10
106723.8793012498
 20
98008.16203814934
 30
0.0000005875452676
 11
106723.8843411035
 21
98008.1625424343
 31
0.0000005875452676
  0
LINE
  5
51079
330
1F
100
AcDbEntity
  8
freecads.com
100
AcDbLine
 10
106723.8732534252
 20
98008.16203814934
 30
0.0000005875452676
 11
106723.8793012498
 21
98008.16203814934
 31
0.0000005875452676
  0
LINE
  5
5107A
330
1F
100
AcDbEntity
  8
freecads.com
100
AcDbLine
 10
106723.8672056007
 20
98008.16002100949
 30
0.0000005875452676
 11
106723.8732534252
 21
98008.16203814934
 31
0.0000005875452676
  0
LINE
  5
5107B
330
1F
100
AcDbEntity
  8
freecads.com
100
AcDbLine
 10
106723.8636777031
 20
98008.15901243957
 30
0.0000005875452676
 11
106723.8672056007
 21
98008.16002100949
 31
0.0000005875452676
  0
LINE
  5
5107C
330
1F
100
AcDbEntity
  8
freecads.com
100
AcDbLine
 10
106723.8586378493
 20
98008.15699529973
 30
0.0000005875452676
 11
106723.8636777031
 21
98008.15901243957
 31
0.0000005875452676
  0
LINE
  5
5107D
330
1F
100
AcDbEntity
  8
freecads.com
100
AcDbLine
 10
106723.8566219079
 20
98008.15497815987
 30
0.0000005875452676
 11
106723.8586378493
 21
98008.15699529973
 31
0.0000005875452676
  0
LINE
  5
5107E
330
1F
100
AcDbEntity
  8
freecads.com
100
AcDbLine
 10
106723.9488512316
 20
98008.1544738749
 30
0.0000005875452676
 11
106723.9503631877
 21
98008.15548244484
 31
0.0000005875452676
  0
LINE
  5
5107F
330
1F
100
AcDbEntity
  8
freecads.com
100
AcDbLine
 10
106723.9468352901
 20
98008.15144816514
 30
0.0000005875452676
 11
106723.9488512316
 21
98008.1544738749
 31
0.0000005875452676
  0
LINE
  5
51080
330
1F
100
AcDbEntity
  8
freecads.com
100
AcDbLine
 10
106723.9438113778
 20
98008.14791817041
 30
0.0000005875452676
 11
106723.9468352901
 21
98008.15144816514
 31
0.0000005875452676
  0
LINE
  5
51081
330
1F
100
AcDbEntity
  8
freecads.com
100
AcDbLine
 10
106723.9362515972
 20
98008.14690960047
 30
0.0000005875452676
 11
106723.9438113778
 21
98008.14791817041
 31
0.0000005875452676
  0
LINE
  5
51082
330
1F
100
AcDbEntity
  8
freecads.com
100
AcDbLine
 10
106723.9302037727
 20
98008.14741388544
 30
0.0000005875452676
 11
106723.9362515972
 21
98008.14690960047
 31
0.0000005875452676
  0
LINE
  5
51083
330
1F
100
AcDbEntity
  8
freecads.com
100
AcDbLine
 10
106723.9266758751
 20
98008.1504395952
 30
0.0000005875452676
 11
106723.9302037727
 21
98008.14741388544
 31
0.0000005875452676
  0
LINE
  5
51084
330
1F
100
AcDbEntity
  8
freecads.com
100
AcDbLine
 10
106723.9251639189
 20
98008.15548244484
 30
0.0000005875452676
 11
106723.9266758751
 21
98008.1504395952
 31
0.0000005875452676
  0
LINE
  5
51085
330
1F
100
AcDbEntity
  8
freecads.com
100
AcDbLine
 10
106723.9261718897
 20
98008.16455957416
 30
0.0000005875452676
 11
106723.9251639189
 21
98008.15548244484
 31
0.0000005875452676
  0
LINE
  5
51086
330
1F
100
AcDbEntity
  8
freecads.com
100
AcDbLine
 10
106723.9276838458
 20
98008.16909813882
 30
0.0000005875452676
 11
106723.9261718897
 21
98008.16455957416
 31
0.0000005875452676
  0
LINE
  5
51087
330
1F
100
AcDbEntity
  8
freecads.com
100
AcDbLine
 10
106723.9443153632
 20
98008.17262813355
 30
0.0000005875452676
 11
106723.9448193486
 21
98008.17514955834
 31
0.0000005875452676
  0
LINE
  5
51088
330
1F
100
AcDbEntity
  8
freecads.com
100
AcDbLine
 10
106723.9428034071
 20
98008.16859385385
 30
0.0000005875452676
 11
106723.9443153632
 21
98008.17262813355
 31
0.0000005875452676
  0
LINE
  5
51089
330
1F
100
AcDbEntity
  8
freecads.com
100
AcDbLine
 10
106723.9417954363
 20
98008.16506385912
 30
0.0000005875452676
 11
106723.9428034071
 21
98008.16859385385
 31
0.0000005875452676
  0
LINE
  5
5108A
330
1F
100
AcDbEntity
  8
freecads.com
100
AcDbLine
 10
106723.9397794948
 20
98008.16153386438
 30
0.0000005875452676
 11
106723.9417954363
 21
98008.16506385912
 31
0.0000005875452676
  0
LINE
  5
5108B
330
1F
100
AcDbEntity
  8
freecads.com
100
AcDbLine
 10
106723.9377635533
 20
98008.15749958468
 30
0.0000005875452676
 11
106723.9397794948
 21
98008.16153386438
 31
0.0000005875452676
  0
LINE
  5
5108C
330
1F
100
AcDbEntity
  8
freecads.com
100
AcDbLine
 10
106723.9337316703
 20
98008.1544738749
 30
0.0000005875452676
 11
106723.9377635533
 21
98008.15749958468
 31
0.0000005875452676
  0
LINE
  5
5108D
330
1F
100
AcDbEntity
  8
freecads.com
100
AcDbLine
 10
106723.9296997873
 20
98008.15296102003
 30
0.0000005875452676
 11
106723.9337316703
 21
98008.1544738749
 31
0.0000005875452676
  0
LINE
  5
5108E
330
1F
100
AcDbEntity
  8
freecads.com
100
AcDbLine
 10
106723.9241559482
 20
98008.15144816514
 30
0.0000005875452676
 11
106723.9296997873
 21
98008.15296102003
 31
0.0000005875452676
  0
LINE
  5
5108F
330
1F
100
AcDbEntity
  8
freecads.com
100
AcDbLine
 10
106723.9186121091
 20
98008.15094388017
 30
0.0000005875452676
 11
106723.9241559482
 21
98008.15144816514
 31
0.0000005875452676
  0
LINE
  5
51090
330
1F
100
AcDbEntity
  8
freecads.com
100
AcDbLine
 10
106723.9130682699
 20
98008.15346530498
 30
0.0000005875452676
 11
106723.9186121091
 21
98008.15094388017
 31
0.0000005875452676
  0
LINE
  5
51091
330
1F
100
AcDbEntity
  8
freecads.com
100
AcDbLine
 10
106723.9100443577
 20
98008.16002100949
 30
0.0000005875452676
 11
106723.9130682699
 21
98008.15346530498
 31
0.0000005875452676
  0
LINE
  5
51092
330
1F
100
AcDbEntity
  8
freecads.com
100
AcDbLine
 10
106723.9085324015
 20
98008.16708099896
 30
0.0000005875452676
 11
106723.9100443577
 21
98008.16002100949
 31
0.0000005875452676
  0
LINE
  5
51093
330
1F
100
AcDbEntity
  8
freecads.com
100
AcDbLine
 10
106723.9100443577
 20
98008.17464527339
 30
0.0000005875452676
 11
106723.9085324015
 21
98008.16708099896
 31
0.0000005875452676
  0
LINE
  5
51094
330
1F
100
AcDbEntity
  8
freecads.com
100
AcDbLine
 10
106723.9125642845
 20
98008.17817526812
 30
0.0000005875452676
 11
106723.9100443577
 21
98008.17464527339
 31
0.0000005875452676
  0
LINE
  5
51095
330
1F
100
AcDbEntity
  8
freecads.com
100
AcDbLine
 10
106723.9221400067
 20
98008.18321811775
 30
0.0000005875452676
 11
106723.9216360213
 21
98008.18674811248
 31
0.0000005875452676
  0
LINE
  5
51096
330
1F
100
AcDbEntity
  8
freecads.com
100
AcDbLine
 10
106723.9206280506
 20
98008.17918383804
 30
0.0000005875452676
 11
106723.9221400067
 21
98008.18321811775
 31
0.0000005875452676
  0
LINE
  5
51097
330
1F
100
AcDbEntity
  8
freecads.com
100
AcDbLine
 10
106723.9191160944
 20
98008.17565384331
 30
0.0000005875452676
 11
106723.9206280506
 21
98008.17918383804
 31
0.0000005875452676
  0
LINE
  5
51098
330
1F
100
AcDbEntity
  8
freecads.com
100
AcDbLine
 10
106723.9186121091
 20
98008.17262813355
 30
0.0000005875452676
 11
106723.9191160944
 21
98008.17565384331
 31
0.0000005875452676
  0
LINE
  5
51099
330
1F
100
AcDbEntity
  8
freecads.com
100
AcDbLine
 10
106723.9160921822
 20
98008.16909813882
 30
0.0000005875452676
 11
106723.9186121091
 21
98008.17262813355
 31
0.0000005875452676
  0
LINE
  5
5109A
330
1F
100
AcDbEntity
  8
freecads.com
100
AcDbLine
 10
106723.9105483431
 20
98008.16708099896
 30
0.0000005875452676
 11
106723.9160921822
 21
98008.16909813882
 31
0.0000005875452676
  0
LINE
  5
5109B
330
1F
100
AcDbEntity
  8
freecads.com
100
AcDbLine
 10
106723.9080284162
 20
98008.16506385912
 30
0.0000005875452676
 11
106723.9105483431
 21
98008.16708099896
 31
0.0000005875452676
  0
LINE
  5
5109C
330
1F
100
AcDbEntity
  8
freecads.com
100
AcDbLine
 10
106723.9055084893
 20
98008.16455957416
 30
0.0000005875452676
 11
106723.9080284162
 21
98008.16506385912
 31
0.0000005875452676
  0
LINE
  5
5109D
330
1F
100
AcDbEntity
  8
freecads.com
100
AcDbLine
 10
106723.898452694
 20
98008.1625424343
 30
0.0000005875452676
 11
106723.9055084893
 21
98008.16455957416
 31
0.0000005875452676
  0
LINE
  5
5109E
330
1F
100
AcDbEntity
  8
freecads.com
100
AcDbLine
 10
106723.8924048695
 20
98008.16405528919
 30
0.0000005875452676
 11
106723.898452694
 21
98008.1625424343
 31
0.0000005875452676
  0
LINE
  5
5109F
330
1F
100
AcDbEntity
  8
freecads.com
100
AcDbLine
 10
106723.886357045
 20
98008.16556814407
 30
0.0000005875452676
 11
106723.8924048695
 21
98008.16405528919
 31
0.0000005875452676
  0
LINE
  5
510A0
330
1F
100
AcDbEntity
  8
freecads.com
100
AcDbLine
 10
106723.8828291474
 20
98008.17010670872
 30
0.0000005875452676
 11
106723.886357045
 21
98008.16556814407
 31
0.0000005875452676
  0
LINE
  5
510A1
330
1F
100
AcDbEntity
  8
freecads.com
100
AcDbLine
 10
106723.882325162
 20
98008.17464527339
 30
0.0000005875452676
 11
106723.8828291474
 21
98008.17010670872
 31
0.0000005875452676
  0
LINE
  5
510A2
330
1F
100
AcDbEntity
  8
freecads.com
100
AcDbLine
 10
106723.8833331328
 20
98008.18271383278
 30
0.0000005875452676
 11
106723.882325162
 21
98008.17464527339
 31
0.0000005875452676
  0
LINE
  5
510A3
330
1F
100
AcDbEntity
  8
freecads.com
100
AcDbLine
 10
106723.8858530596
 20
98008.18876525234
 30
0.0000005875452676
 11
106723.8833331328
 21
98008.18271383278
 31
0.0000005875452676
  0
LINE
  5
510A4
330
1F
100
AcDbEntity
  8
freecads.com
100
AcDbLine
 10
106723.8883729865
 20
98008.19431238689
 30
0.0000005875452676
 11
106723.8858530596
 21
98008.18876525234
 31
0.0000005875452676
  0
LINE
  5
510A5
330
1F
100
AcDbEntity
  8
freecads.com
100
AcDbLine
 10
106723.8913968988
 20
98008.19935523653
 30
0.0000005875452676
 11
106723.8883729865
 21
98008.19431238689
 31
0.0000005875452676
  0
LINE
  5
510A6
330
1F
100
AcDbEntity
  8
freecads.com
100
AcDbLine
 10
106723.9407874656
 20
98008.19683381172
 30
0.0000005875452676
 11
106723.9402834802
 21
98008.19229524707
 31
0.0000005875452676
  0
LINE
  5
510A7
330
1F
100
AcDbEntity
  8
freecads.com
100
AcDbLine
 10
106723.941291451
 20
98008.2023809463
 30
0.0000005875452676
 11
106723.9407874656
 21
98008.19683381172
 31
0.0000005875452676
  0
LINE
  5
510A8
330
1F
100
AcDbEntity
  8
freecads.com
100
AcDbLine
 10
106723.9407874656
 20
98008.20792808089
 30
0.0000005875452676
 11
106723.941291451
 21
98008.2023809463
 31
0.0000005875452676
  0
LINE
  5
510A9
330
1F
100
AcDbEntity
  8
freecads.com
100
AcDbLine
 10
106723.9397794948
 20
98008.21196236057
 30
0.0000005875452676
 11
106723.9407874656
 21
98008.20792808089
 31
0.0000005875452676
  0
LINE
  5
510AA
330
1F
100
AcDbEntity
  8
freecads.com
100
AcDbLine
 10
106723.9382675387
 20
98008.21650092524
 30
0.0000005875452676
 11
106723.9397794948
 21
98008.21196236057
 31
0.0000005875452676
  0
LINE
  5
510AB
330
1F
100
AcDbEntity
  8
freecads.com
100
AcDbLine
 10
106723.9352436264
 20
98008.22154377485
 30
0.0000005875452676
 11
106723.9382675387
 21
98008.21650092524
 31
0.0000005875452676
  0
LINE
  5
510AC
330
1F
100
AcDbEntity
  8
freecads.com
100
AcDbLine
 10
106723.9302037727
 20
98008.22709090944
 30
0.0000005875452676
 11
106723.9352436264
 21
98008.22154377485
 31
0.0000005875452676
  0
LINE
  5
510AD
330
1F
100
AcDbEntity
  8
freecads.com
100
AcDbLine
 10
106723.9750584711
 20
98008.24171517332
 30
0.0000005875452676
 11
106723.9755624565
 21
98008.23969803349
 31
0.0000005875452676
  0
LINE
  5
510AE
330
1F
100
AcDbEntity
  8
freecads.com
100
AcDbLine
 10
106723.9745544858
 20
98008.24423659815
 30
0.0000005875452676
 11
106723.9750584711
 21
98008.24171517332
 31
0.0000005875452676
  0
LINE
  5
510AF
330
1F
100
AcDbEntity
  8
freecads.com
100
AcDbLine
 10
106723.9730425296
 20
98008.24827087785
 30
0.0000005875452676
 11
106723.9745544858
 21
98008.24423659815
 31
0.0000005875452676
  0
LINE
  5
510B0
330
1F
100
AcDbEntity
  8
freecads.com
100
AcDbLine
 10
106723.9710265881
 20
98008.25180087258
 30
0.0000005875452676
 11
106723.9730425296
 21
98008.24827087785
 31
0.0000005875452676
  0
LINE
  5
510B1
330
1F
100
AcDbEntity
  8
freecads.com
100
AcDbLine
 10
106723.9690106466
 20
98008.25432229737
 30
0.0000005875452676
 11
106723.9710265881
 21
98008.25180087258
 31
0.0000005875452676
  0
LINE
  5
510B2
330
1F
100
AcDbEntity
  8
freecads.com
100
AcDbLine
 10
106723.9664907198
 20
98008.25835657708
 30
0.0000005875452676
 11
106723.9690106466
 21
98008.25432229737
 31
0.0000005875452676
  0
LINE
  5
510B3
330
1F
100
AcDbEntity
  8
freecads.com
100
AcDbLine
 10
106723.9619548514
 20
98008.2633994267
 30
0.0000005875452676
 11
106723.9664907198
 21
98008.25835657708
 31
0.0000005875452676
  0
LINE
  5
510B4
330
1F
100
AcDbEntity
  8
freecads.com
100
AcDbLine
 10
106723.9604428952
 20
98008.26642513646
 30
0.0000005875452676
 11
106723.9619548514
 21
98008.2633994267
 31
0.0000005875452676
  0
LINE
  5
510B5
330
1F
100
AcDbEntity
  8
freecads.com
100
AcDbLine
 10
106723.9528831146
 20
98008.27045941616
 30
0.0000005875452676
 11
106723.9604428952
 21
98008.26642513646
 31
0.0000005875452676
  0
LINE
  5
510B6
330
1F
100
AcDbEntity
  8
freecads.com
100
AcDbLine
 10
106723.9478432608
 20
98008.27298084096
 30
0.0000005875452676
 11
106723.9528831146
 21
98008.27045941616
 31
0.0000005875452676
  0
LINE
  5
510B7
330
1F
100
AcDbEntity
  8
freecads.com
100
AcDbLine
 10
106723.9428034071
 20
98008.27550226578
 30
0.0000005875452676
 11
106723.9478432608
 21
98008.27298084096
 31
0.0000005875452676
  0
LINE
  5
510B8
330
1F
100
AcDbEntity
  8
freecads.com
100
AcDbLine
 10
106723.937259568
 20
98008.27550226578
 30
0.0000005875452676
 11
106723.9428034071
 21
98008.27550226578
 31
0.0000005875452676
  0
LINE
  5
510B9
330
1F
100
AcDbEntity
  8
freecads.com
100
AcDbLine
 10
106723.9327236996
 20
98008.27550226578
 30
0.0000005875452676
 11
106723.937259568
 21
98008.27550226578
 31
0.0000005875452676
  0
LINE
  5
510BA
330
1F
100
AcDbEntity
  8
freecads.com
100
AcDbLine
 10
106723.9266758751
 20
98008.27348512592
 30
0.0000005875452676
 11
106723.9327236996
 21
98008.27550226578
 31
0.0000005875452676
  0
LINE
  5
510BB
330
1F
100
AcDbEntity
  8
freecads.com
100
AcDbLine
 10
106723.9221400067
 20
98008.27045941616
 30
0.0000005875452676
 11
106723.9266758751
 21
98008.27348512592
 31
0.0000005875452676
  0
LINE
  5
510BC
330
1F
100
AcDbEntity
  8
freecads.com
100
AcDbLine
 10
106723.9181081237
 20
98008.26692942143
 30
0.0000005875452676
 11
106723.9221400067
 21
98008.27045941616
 31
0.0000005875452676
  0
LINE
  5
510BD
330
1F
100
AcDbEntity
  8
freecads.com
100
AcDbLine
 10
106723.9140762407
 20
98008.26289514173
 30
0.0000005875452676
 11
106723.9181081237
 21
98008.26692942143
 31
0.0000005875452676
  0
LINE
  5
510BE
330
1F
100
AcDbEntity
  8
freecads.com
100
AcDbLine
 10
106723.9181081237
 20
98008.22305662974
 30
0.0000005875452676
 11
106723.9186121091
 21
98008.22759519441
 31
0.0000005875452676
  0
LINE
  5
510BF
330
1F
100
AcDbEntity
  8
freecads.com
100
AcDbLine
 10
106723.914580226
 20
98008.21801378011
 30
0.0000005875452676
 11
106723.9181081237
 21
98008.22305662974
 31
0.0000005875452676
  0
LINE
  5
510C0
330
1F
100
AcDbEntity
  8
freecads.com
100
AcDbLine
 10
106723.9135722553
 20
98008.21650092524
 30
0.0000005875452676
 11
106723.914580226
 21
98008.21801378011
 31
0.0000005875452676
  0
LINE
  5
510C1
330
1F
100
AcDbEntity
  8
freecads.com
100
AcDbLine
 10
106723.9100443577
 20
98008.21297093049
 30
0.0000005875452676
 11
106723.9135722553
 21
98008.21650092524
 31
0.0000005875452676
  0
LINE
  5
510C2
330
1F
100
AcDbEntity
  8
freecads.com
100
AcDbLine
 10
106723.9075244308
 20
98008.20691951095
 30
0.0000005875452676
 11
106723.9100443577
 21
98008.21297093049
 31
0.0000005875452676
  0
LINE
  5
510C3
330
1F
100
AcDbEntity
  8
freecads.com
100
AcDbLine
 10
106723.9019805917
 20
98008.20490237111
 30
0.0000005875452676
 11
106723.9075244308
 21
98008.20691951095
 31
0.0000005875452676
  0
LINE
  5
510C4
330
1F
100
AcDbEntity
  8
freecads.com
100
AcDbLine
 10
106723.9029885624
 20
98008.20338951622
 30
0.0000005875452676
 11
106723.9019805917
 21
98008.20490237111
 31
0.0000005875452676
  0
LINE
  5
510C5
330
1F
100
AcDbEntity
  8
freecads.com
100
AcDbLine
 10
106723.9009726209
 20
98008.20187666133
 30
0.0000005875452676
 11
106723.9029885624
 21
98008.20338951622
 31
0.0000005875452676
  0
LINE
  5
510C6
330
1F
100
AcDbEntity
  8
freecads.com
100
AcDbLine
 10
106723.8964367525
 20
98008.19935523653
 30
0.0000005875452676
 11
106723.9009726209
 21
98008.20187666133
 31
0.0000005875452676
  0
LINE
  5
510C7
330
1F
100
AcDbEntity
  8
freecads.com
100
AcDbLine
 10
106723.8929088549
 20
98008.20036380645
 30
0.0000005875452676
 11
106723.8964367525
 21
98008.19935523653
 31
0.0000005875452676
  0
LINE
  5
510C8
330
1F
100
AcDbEntity
  8
freecads.com
100
AcDbLine
 10
106723.8908929134
 20
98008.20288523125
 30
0.0000005875452676
 11
106723.8929088549
 21
98008.20036380645
 31
0.0000005875452676
  0
LINE
  5
510C9
330
1F
100
AcDbEntity
  8
freecads.com
100
AcDbLine
 10
106723.8919008842
 20
98008.20893665081
 30
0.0000005875452676
 11
106723.8908929134
 21
98008.20288523125
 31
0.0000005875452676
  0
LINE
  5
510CA
330
1F
100
AcDbEntity
  8
freecads.com
100
AcDbLine
 10
106723.8929088549
 20
98008.21448378538
 30
0.0000005875452676
 11
106723.8919008842
 21
98008.20893665081
 31
0.0000005875452676
  0
LINE
  5
510CB
330
1F
100
AcDbEntity
  8
freecads.com
100
AcDbLine
 10
106723.9034925478
 20
98008.23515946882
 30
0.0000005875452676
 11
106723.9034925478
 21
98008.24221945829
 31
0.0000005875452676
  0
LINE
  5
510CC
330
1F
100
AcDbEntity
  8
freecads.com
100
AcDbLine
 10
106723.9029885624
 20
98008.23062090417
 30
0.0000005875452676
 11
106723.9034925478
 21
98008.23515946882
 31
0.0000005875452676
  0
LINE
  5
510CD
330
1F
100
AcDbEntity
  8
freecads.com
100
AcDbLine
 10
106723.8989566794
 20
98008.22507376958
 30
0.0000005875452676
 11
106723.9029885624
 21
98008.23062090417
 31
0.0000005875452676
  0
LINE
  5
510CE
330
1F
100
AcDbEntity
  8
freecads.com
100
AcDbLine
 10
106723.8979487087
 20
98008.22305662974
 30
0.0000005875452676
 11
106723.8989566794
 21
98008.22507376958
 31
0.0000005875452676
  0
LINE
  5
510CF
330
1F
100
AcDbEntity
  8
freecads.com
100
AcDbLine
 10
106723.8959327672
 20
98008.21902235004
 30
0.0000005875452676
 11
106723.8979487087
 21
98008.22305662974
 31
0.0000005875452676
  0
LINE
  5
510D0
330
1F
100
AcDbEntity
  8
freecads.com
100
AcDbLine
 10
106723.8929088549
 20
98008.21498807035
 30
0.0000005875452676
 11
106723.8959327672
 21
98008.21902235004
 31
0.0000005875452676
  0
LINE
  5
510D1
330
1F
100
AcDbEntity
  8
freecads.com
100
AcDbLine
 10
106723.8868610304
 20
98008.21145807562
 30
0.0000005875452676
 11
106723.8929088549
 21
98008.21498807035
 31
0.0000005875452676
  0
LINE
  5
510D2
330
1F
100
AcDbEntity
  8
freecads.com
100
AcDbLine
 10
106723.8833331328
 20
98008.21145807562
 30
0.0000005875452676
 11
106723.8868610304
 21
98008.21145807562
 31
0.0000005875452676
  0
LINE
  5
510D3
330
1F
100
AcDbEntity
  8
freecads.com
100
AcDbLine
 10
106723.8828291474
 20
98008.21448378538
 30
0.0000005875452676
 11
106723.8833331328
 21
98008.21145807562
 31
0.0000005875452676
  0
LINE
  5
510D4
330
1F
100
AcDbEntity
  8
freecads.com
100
AcDbLine
 10
106723.8833331328
 20
98008.219526635
 30
0.0000005875452676
 11
106723.8828291474
 21
98008.21448378538
 31
0.0000005875452676
  0
LINE
  5
510D5
330
1F
100
AcDbEntity
  8
freecads.com
100
AcDbLine
 10
106723.886357045
 20
98008.22759519441
 30
0.0000005875452676
 11
106723.8833331328
 21
98008.219526635
 31
0.0000005875452676
  0
LINE
  5
510D6
330
1F
100
AcDbEntity
  8
freecads.com
100
AcDbLine
 10
106723.8873650158
 20
98008.23314232896
 30
0.0000005875452676
 11
106723.886357045
 21
98008.22759519441
 31
0.0000005875452676
  0
LINE
  5
510D7
330
1F
100
AcDbEntity
  8
freecads.com
100
AcDbLine
 10
106723.8888769719
 20
98008.23062090417
 30
0.0000005875452676
 11
106723.8919008842
 21
98008.23314232896
 31
0.0000005875452676
  0
LINE
  5
510D8
330
1F
100
AcDbEntity
  8
freecads.com
100
AcDbLine
 10
106723.8853490743
 20
98008.22557805455
 30
0.0000005875452676
 11
106723.8888769719
 21
98008.23062090417
 31
0.0000005875452676
  0
LINE
  5
510D9
330
1F
100
AcDbEntity
  8
freecads.com
100
AcDbLine
 10
106723.8798052351
 20
98008.22255234477
 30
0.0000005875452676
 11
106723.8853490743
 21
98008.22557805455
 31
0.0000005875452676
  0
LINE
  5
510DA
330
1F
100
AcDbEntity
  8
freecads.com
100
AcDbLine
 10
106723.8732534252
 20
98008.22204805982
 30
0.0000005875452676
 11
106723.8798052351
 21
98008.22255234477
 31
0.0000005875452676
  0
LINE
  5
510DB
330
1F
100
AcDbEntity
  8
freecads.com
100
AcDbLine
 10
106723.8707334984
 20
98008.22658662447
 30
0.0000005875452676
 11
106723.8732534252
 21
98008.22204805982
 31
0.0000005875452676
  0
LINE
  5
510DC
330
1F
100
AcDbEntity
  8
freecads.com
100
AcDbLine
 10
106723.8712374837
 20
98008.23213375906
 30
0.0000005875452676
 11
106723.8707334984
 21
98008.22658662447
 31
0.0000005875452676
  0
LINE
  5
510DD
330
1F
100
AcDbEntity
  8
freecads.com
100
AcDbLine
 10
106723.8727494399
 20
98008.23868946356
 30
0.0000005875452676
 11
106723.8712374837
 21
98008.23213375906
 31
0.0000005875452676
  0
LINE
  5
510DE
330
1F
100
AcDbEntity
  8
freecads.com
100
AcDbLine
 10
106723.8747653814
 20
98008.24322802823
 30
0.0000005875452676
 11
106723.8727494399
 21
98008.23868946356
 31
0.0000005875452676
  0
LINE
  5
510DF
330
1F
100
AcDbEntity
  8
freecads.com
100
AcDbLine
 10
106723.8762773375
 20
98008.23364661393
 30
0.0000005875452676
 11
106723.8793012498
 21
98008.23818517859
 31
0.0000005875452676
  0
LINE
  5
510E0
330
1F
100
AcDbEntity
  8
freecads.com
100
AcDbLine
 10
106723.8727494399
 20
98008.23062090417
 30
0.0000005875452676
 11
106723.8762773375
 21
98008.23364661393
 31
0.0000005875452676
  0
LINE
  5
510E1
330
1F
100
AcDbEntity
  8
freecads.com
100
AcDbLine
 10
106723.870229513
 20
98008.22759519441
 30
0.0000005875452676
 11
106723.8727494399
 21
98008.23062090417
 31
0.0000005875452676
  0
LINE
  5
510E2
330
1F
100
AcDbEntity
  8
freecads.com
100
AcDbLine
 10
106723.8677095861
 20
98008.22557805455
 30
0.0000005875452676
 11
106723.870229513
 21
98008.22759519441
 31
0.0000005875452676
  0
LINE
  5
510E3
330
1F
100
AcDbEntity
  8
freecads.com
100
AcDbLine
 10
106723.8636777031
 20
98008.22255234477
 30
0.0000005875452676
 11
106723.8677095861
 21
98008.22557805455
 31
0.0000005875452676
  0
LINE
  5
510E4
330
1F
100
AcDbEntity
  8
freecads.com
100
AcDbLine
 10
106723.8596458201
 20
98008.22204805982
 30
0.0000005875452676
 11
106723.8636777031
 21
98008.22255234477
 31
0.0000005875452676
  0
LINE
  5
510E5
330
1F
100
AcDbEntity
  8
freecads.com
100
AcDbLine
 10
106723.8551099517
 20
98008.22406519968
 30
0.0000005875452676
 11
106723.8596458201
 21
98008.22204805982
 31
0.0000005875452676
  0
LINE
  5
510E6
330
1F
100
AcDbEntity
  8
freecads.com
100
AcDbLine
 10
106723.8551099517
 20
98008.22759519441
 30
0.0000005875452676
 11
106723.8551099517
 21
98008.22406519968
 31
0.0000005875452676
  0
LINE
  5
510E7
330
1F
100
AcDbEntity
  8
freecads.com
100
AcDbLine
 10
106723.8556139371
 20
98008.23213375906
 30
0.0000005875452676
 11
106723.8551099517
 21
98008.22759519441
 31
0.0000005875452676
  0
LINE
  5
510E8
330
1F
100
AcDbEntity
  8
freecads.com
100
AcDbLine
 10
106723.8571258932
 20
98008.23566375379
 30
0.0000005875452676
 11
106723.8556139371
 21
98008.23213375906
 31
0.0000005875452676
  0
LINE
  5
510E9
330
1F
100
AcDbEntity
  8
freecads.com
100
AcDbLine
 10
106723.8601498055
 20
98008.24020231845
 30
0.0000005875452676
 11
106723.8571258932
 21
98008.23566375379
 31
0.0000005875452676
  0
LINE
  5
510EA
330
1F
100
AcDbEntity
  8
freecads.com
100
AcDbLine
 10
106723.862165747
 20
98008.2447408831
 30
0.0000005875452676
 11
106723.8601498055
 21
98008.24020231845
 31
0.0000005875452676
  0
LINE
  5
510EB
330
1F
100
AcDbEntity
  8
freecads.com
100
AcDbLine
 10
106723.86619763
 20
98008.25129658761
 30
0.0000005875452676
 11
106723.862165747
 21
98008.2447408831
 31
0.0000005875452676
  0
LINE
  5
510EC
330
1F
100
AcDbEntity
  8
freecads.com
100
AcDbLine
 10
106723.8732534252
 20
98008.25482658234
 30
0.0000005875452676
 11
106723.86619763
 21
98008.25129658761
 31
0.0000005875452676
  0
LINE
  5
510ED
330
1F
100
AcDbEntity
  8
freecads.com
100
AcDbLine
 10
106723.878293279
 20
98008.25785229211
 30
0.0000005875452676
 11
106723.8732534252
 21
98008.25482658234
 31
0.0000005875452676
  0
LINE
  5
510EE
330
1F
100
AcDbEntity
  8
freecads.com
100
AcDbLine
 10
106723.8828291474
 20
98008.26037371693
 30
0.0000005875452676
 11
106723.878293279
 21
98008.25785229211
 31
0.0000005875452676
  0
LINE
  5
510EF
330
1F
100
AcDbEntity
  8
freecads.com
100
AcDbLine
 10
106723.8873650158
 20
98008.2633994267
 30
0.0000005875452676
 11
106723.8828291474
 21
98008.26037371693
 31
0.0000005875452676
  0
LINE
  5
510F0
330
1F
100
AcDbEntity
  8
freecads.com
100
AcDbLine
 10
106723.8954287818
 20
98008.26491228157
 30
0.0000005875452676
 11
106723.8873650158
 21
98008.2633994267
 31
0.0000005875452676
  0
LINE
  5
510F1
330
1F
100
AcDbEntity
  8
freecads.com
100
AcDbLine
 10
106723.9014766063
 20
98008.26642513646
 30
0.0000005875452676
 11
106723.8954287818
 21
98008.26491228157
 31
0.0000005875452676
  0
LINE
  5
510F2
330
1F
100
AcDbEntity
  8
freecads.com
100
AcDbLine
 10
106723.9075244308
 20
98008.26592085151
 30
0.0000005875452676
 11
106723.9014766063
 21
98008.26642513646
 31
0.0000005875452676
  0
LINE
  5
510F3
330
1F
100
AcDbEntity
  8
freecads.com
100
AcDbLine
 10
106723.9120602992
 20
98008.2633994267
 30
0.0000005875452676
 11
106723.9075244308
 21
98008.26592085151
 31
0.0000005875452676
  0
LINE
  5
510F4
330
1F
100
AcDbEntity
  8
freecads.com
100
AcDbLine
 10
106723.8655458737
 20
98008.10693395836
 30
0.0000005875452676
 11
106723.8610540877
 21
98008.11142877901
 31
0.0000005875452676
  0
LINE
  5
510F5
330
1F
100
AcDbEntity
  8
freecads.com
100
AcDbLine
 10
106723.8700376596
 20
98008.10243913772
 30
0.0000005875452676
 11
106723.8655458737
 21
98008.10693395836
 31
0.0000005875452676
  0
LINE
  5
510F6
330
1F
100
AcDbEntity
  8
freecads.com
100
AcDbLine
 10
106723.87632616
 20
98008.10513603011
 30
0.0000005875452676
 11
106723.8700376596
 21
98008.10243913772
 31
0.0000005875452676
  0
LINE
  5
510F7
330
1F
100
AcDbEntity
  8
freecads.com
100
AcDbLine
 10
106723.8808179459
 20
98008.11232774313
 30
0.0000005875452676
 11
106723.87632616
 21
98008.10513603011
 31
0.0000005875452676
  0
LINE
  5
510F8
330
1F
100
AcDbEntity
  8
freecads.com
100
AcDbLine
 10
106723.8790212315
 20
98008.12131738441
 30
0.0000005875452676
 11
106723.8808179459
 21
98008.11232774313
 31
0.0000005875452676
  0
LINE
  5
510F9
330
1F
100
AcDbEntity
  8
freecads.com
100
AcDbLine
 10
106723.8754278028
 20
98008.12761013331
 30
0.0000005875452676
 11
106723.8790212315
 21
98008.12131738441
 31
0.0000005875452676
  0
LINE
  5
510FA
330
1F
100
AcDbEntity
  8
freecads.com
100
AcDbLine
 10
106723.8709360168
 20
98008.13659977459
 30
0.0000005875452676
 11
106723.8754278028
 21
98008.12761013331
 31
0.0000005875452676
  0
LINE
  5
510FB
330
1F
100
AcDbEntity
  8
freecads.com
100
AcDbLine
 10
106723.8637491593
 20
98008.14379148761
 30
0.0000005875452676
 11
106723.8709360168
 21
98008.13659977459
 31
0.0000005875452676
  0
LINE
  5
510FC
330
1F
100
AcDbEntity
  8
freecads.com
100
AcDbLine
 10
106723.8592573733
 20
98008.15008423651
 30
0.0000005875452676
 11
106723.8637491593
 21
98008.14379148761
 31
0.0000005875452676
  0
LINE
  5
510FD
330
1F
100
AcDbEntity
  8
freecads.com
100
AcDbLine
 10
106723.8520705158
 20
98008.16087180605
 30
0.0000005875452676
 11
106723.8592573733
 21
98008.15008423651
 31
0.0000005875452676
  0
LINE
  5
510FE
330
1F
100
AcDbEntity
  8
freecads.com
100
AcDbLine
 10
106723.8448836583
 20
98008.16626559081
 30
0.0000005875452676
 11
106723.8520705158
 21
98008.16087180605
 31
0.0000005875452676
  0
LINE
  5
510FF
330
1F
100
AcDbEntity
  8
freecads.com
100
AcDbLine
 10
106723.8385951579
 20
98008.17255833973
 30
0.0000005875452676
 11
106723.8448836583
 21
98008.16626559081
 31
0.0000005875452676
  0
LINE
  5
51100
330
1F
100
AcDbEntity
  8
freecads.com
100
AcDbLine
 10
106723.8305099432
 20
98008.17705316035
 30
0.0000005875452676
 11
106723.8385951579
 21
98008.17255833973
 31
0.0000005875452676
  0
LINE
  5
51101
330
1F
100
AcDbEntity
  8
freecads.com
100
AcDbLine
 10
106723.8260181573
 20
98008.17795212449
 30
0.0000005875452676
 11
106723.8305099432
 21
98008.17705316035
 31
0.0000005875452676
  0
LINE
  5
51102
330
1F
100
AcDbEntity
  8
freecads.com
100
AcDbLine
 10
106723.8305099432
 20
98008.09165156818
 30
0.0000005875452676
 11
106723.8278148717
 21
98008.0952474247
 31
0.0000005875452676
  0
LINE
  5
51103
330
1F
100
AcDbEntity
  8
freecads.com
100
AcDbLine
 10
106723.8350017292
 20
98008.08805571168
 30
0.0000005875452676
 11
106723.8305099432
 21
98008.09165156818
 31
0.0000005875452676
  0
LINE
  5
51104
330
1F
100
AcDbEntity
  8
freecads.com
100
AcDbLine
 10
106723.8394935151
 20
98008.08535881929
 30
0.0000005875452676
 11
106723.8350017292
 21
98008.08805571168
 31
0.0000005875452676
  0
LINE
  5
51105
330
1F
100
AcDbEntity
  8
freecads.com
100
AcDbLine
 10
106723.8421885867
 20
98008.07906607039
 30
0.0000005875452676
 11
106723.8394935151
 21
98008.08535881929
 31
0.0000005875452676
  0
LINE
  5
51106
330
1F
100
AcDbEntity
  8
freecads.com
100
AcDbLine
 10
106723.8430869439
 20
98008.076369178
 30
0.0000005875452676
 11
106723.8421885867
 21
98008.07906607039
 31
0.0000005875452676
  0
LINE
  5
51107
330
1F
100
AcDbEntity
  8
freecads.com
100
AcDbLine
 10
106723.8502738014
 20
98008.07996503451
 30
0.0000005875452676
 11
106723.8430869439
 21
98008.076369178
 31
0.0000005875452676
  0
LINE
  5
51108
330
1F
100
AcDbEntity
  8
freecads.com
100
AcDbLine
 10
106723.8547655874
 20
98008.0826619269
 30
0.0000005875452676
 11
106723.8502738014
 21
98008.07996503451
 31
0.0000005875452676
  0
LINE
  5
51109
330
1F
100
AcDbEntity
  8
freecads.com
100
AcDbLine
 10
106723.8583590161
 20
98008.09344949644
 30
0.0000005875452676
 11
106723.8547655874
 21
98008.0826619269
 31
0.0000005875452676
  0
LINE
  5
5110A
330
1F
100
AcDbEntity
  8
freecads.com
100
AcDbLine
 10
106723.8583590161
 20
98008.10513603011
 30
0.0000005875452676
 11
106723.8583590161
 21
98008.09344949644
 31
0.0000005875452676
  0
LINE
  5
5110B
330
1F
100
AcDbEntity
  8
freecads.com
100
AcDbLine
 10
106723.8574606589
 20
98008.11592359965
 30
0.0000005875452676
 11
106723.8583590161
 21
98008.10513603011
 31
0.0000005875452676
  0
LINE
  5
5110C
330
1F
100
AcDbEntity
  8
freecads.com
100
AcDbLine
 10
106723.8565623018
 20
98008.12401427679
 30
0.0000005875452676
 11
106723.8574606589
 21
98008.11592359965
 31
0.0000005875452676
  0
LINE
  5
5110D
330
1F
100
AcDbEntity
  8
freecads.com
100
AcDbLine
 10
106723.8520705158
 20
98008.12940806157
 30
0.0000005875452676
 11
106723.8565623018
 21
98008.12401427679
 31
0.0000005875452676
  0
LINE
  5
5110E
330
1F
100
AcDbEntity
  8
freecads.com
100
AcDbLine
 10
106723.8493754442
 20
98008.13749873872
 30
0.0000005875452676
 11
106723.8520705158
 21
98008.12940806157
 31
0.0000005875452676
  0
LINE
  5
5110F
330
1F
100
AcDbEntity
  8
freecads.com
100
AcDbLine
 10
106723.8403918723
 20
98008.14648837999
 30
0.0000005875452676
 11
106723.8493754442
 21
98008.13749873872
 31
0.0000005875452676
  0
LINE
  5
51110
330
1F
100
AcDbEntity
  8
freecads.com
100
AcDbLine
 10
106723.834103372
 20
98008.1527811289
 30
0.0000005875452676
 11
106723.8403918723
 21
98008.14648837999
 31
0.0000005875452676
  0
LINE
  5
51111
330
1F
100
AcDbEntity
  8
freecads.com
100
AcDbLine
 10
106723.7694216542
 20
98008.16356869844
 30
0.0000005875452676
 11
106723.773015083
 21
98008.16266973431
 31
0.0000005875452676
  0
LINE
  5
51112
330
1F
100
AcDbEntity
  8
freecads.com
100
AcDbLine
 10
106723.7631331539
 20
98008.16446766257
 30
0.0000005875452676
 11
106723.7694216542
 21
98008.16356869844
 31
0.0000005875452676
  0
LINE
  5
51113
330
1F
100
AcDbEntity
  8
freecads.com
100
AcDbLine
 10
106723.7577430107
 20
98008.16356869844
 30
0.0000005875452676
 11
106723.7631331539
 21
98008.16446766257
 31
0.0000005875452676
  0
LINE
  5
51114
330
1F
100
AcDbEntity
  8
freecads.com
100
AcDbLine
 10
106723.7559462964
 20
98008.16356869844
 30
0.0000005875452676
 11
106723.7577430107
 21
98008.16356869844
 31
0.0000005875452676
  0
LINE
  5
51115
330
1F
100
AcDbEntity
  8
freecads.com
100
AcDbLine
 10
106723.7559462964
 20
98008.15907387779
 30
0.0000005875452676
 11
106723.7559462964
 21
98008.16356869844
 31
0.0000005875452676
  0
LINE
  5
51116
330
1F
100
AcDbEntity
  8
freecads.com
100
AcDbLine
 10
106723.8314083004
 20
98008.1527811289
 30
0.0000005875452676
 11
106723.8350017292
 21
98008.15817491367
 31
0.0000005875452676
  0
LINE
  5
51117
330
1F
100
AcDbEntity
  8
freecads.com
100
AcDbLine
 10
106723.8251198001
 20
98008.15368009303
 30
0.0000005875452676
 11
106723.8314083004
 21
98008.1527811289
 31
0.0000005875452676
  0
LINE
  5
51118
330
1F
100
AcDbEntity
  8
freecads.com
100
AcDbLine
 10
106723.8179329425
 20
98008.14918527239
 30
0.0000005875452676
 11
106723.8251198001
 21
98008.15368009303
 31
0.0000005875452676
  0
LINE
  5
51119
330
1F
100
AcDbEntity
  8
freecads.com
100
AcDbLine
 10
106723.8125427994
 20
98008.14738734413
 30
0.0000005875452676
 11
106723.8179329425
 21
98008.14918527239
 31
0.0000005875452676
  0
LINE
  5
5111A
330
1F
100
AcDbEntity
  8
freecads.com
100
AcDbLine
 10
106723.8071526563
 20
98008.14379148761
 30
0.0000005875452676
 11
106723.8125427994
 21
98008.14738734413
 31
0.0000005875452676
  0
LINE
  5
5111B
330
1F
100
AcDbEntity
  8
freecads.com
100
AcDbLine
 10
106723.8017625131
 20
98008.14019563111
 30
0.0000005875452676
 11
106723.8071526563
 21
98008.14379148761
 31
0.0000005875452676
  0
LINE
  5
5111C
330
1F
100
AcDbEntity
  8
freecads.com
100
AcDbLine
 10
106723.79637237
 20
98008.13659977459
 30
0.0000005875452676
 11
106723.8017625131
 21
98008.14019563111
 31
0.0000005875452676
  0
LINE
  5
5111D
330
1F
100
AcDbEntity
  8
freecads.com
100
AcDbLine
 10
106723.7882871553
 20
98008.13480184633
 30
0.0000005875452676
 11
106723.79637237
 21
98008.13659977459
 31
0.0000005875452676
  0
LINE
  5
5111E
330
1F
100
AcDbEntity
  8
freecads.com
100
AcDbLine
 10
106723.7819986549
 20
98008.12850909744
 30
0.0000005875452676
 11
106723.7882871553
 21
98008.13480184633
 31
0.0000005875452676
  0
LINE
  5
5111F
330
1F
100
AcDbEntity
  8
freecads.com
100
AcDbLine
 10
106723.768523297
 20
98008.12671116919
 30
0.0000005875452676
 11
106723.7819986549
 21
98008.12850909744
 31
0.0000005875452676
  0
LINE
  5
51120
330
1F
100
AcDbEntity
  8
freecads.com
100
AcDbLine
 10
106723.7622347967
 20
98008.13570081047
 30
0.0000005875452676
 11
106723.7649298683
 21
98008.1303070257
 31
0.0000005875452676
  0
LINE
  5
51121
330
1F
100
AcDbEntity
  8
freecads.com
100
AcDbLine
 10
106723.7613364395
 20
98008.14109459524
 30
0.0000005875452676
 11
106723.7622347967
 21
98008.13570081047
 31
0.0000005875452676
  0
LINE
  5
51122
330
1F
100
AcDbEntity
  8
freecads.com
100
AcDbLine
 10
106723.7622347967
 20
98008.14558941587
 30
0.0000005875452676
 11
106723.7613364395
 21
98008.14109459524
 31
0.0000005875452676
  0
LINE
  5
51123
330
1F
100
AcDbEntity
  8
freecads.com
100
AcDbLine
 10
106723.7604380823
 20
98008.15098320065
 30
0.0000005875452676
 11
106723.7622347967
 21
98008.14558941587
 31
0.0000005875452676
  0
LINE
  5
51124
330
1F
100
AcDbEntity
  8
freecads.com
100
AcDbLine
 10
106723.7577430107
 20
98008.15637698541
 30
0.0000005875452676
 11
106723.7604380823
 21
98008.15098320065
 31
0.0000005875452676
  0
LINE
  5
51125
330
1F
100
AcDbEntity
  8
freecads.com
100
AcDbLine
 10
106723.8278148717
 20
98008.16716455495
 30
0.0000005875452676
 11
106723.8242214429
 21
98008.16536662669
 31
0.0000005875452676
  0
LINE
  5
51126
330
1F
100
AcDbEntity
  8
freecads.com
100
AcDbLine
 10
106723.8287132288
 20
98008.17165937559
 30
0.0000005875452676
 11
106723.8278148717
 21
98008.16716455495
 31
0.0000005875452676
  0
LINE
  5
51127
330
1F
100
AcDbEntity
  8
freecads.com
100
AcDbLine
 10
106723.8260181573
 20
98008.17615419623
 30
0.0000005875452676
 11
106723.8287132288
 21
98008.17165937559
 31
0.0000005875452676
  0
LINE
  5
51128
330
1F
100
AcDbEntity
  8
freecads.com
100
AcDbLine
 10
106723.8224247285
 20
98008.18154798099
 30
0.0000005875452676
 11
106723.8260181573
 21
98008.17615419623
 31
0.0000005875452676
  0
LINE
  5
51129
330
1F
100
AcDbEntity
  8
freecads.com
100
AcDbLine
 10
106723.8170345853
 20
98008.18604280165
 30
0.0000005875452676
 11
106723.8224247285
 21
98008.18154798099
 31
0.0000005875452676
  0
LINE
  5
5112A
330
1F
100
AcDbEntity
  8
freecads.com
100
AcDbLine
 10
106723.8125427994
 20
98008.19143658641
 30
0.0000005875452676
 11
106723.8170345853
 21
98008.18604280165
 31
0.0000005875452676
  0
LINE
  5
5112B
330
1F
100
AcDbEntity
  8
freecads.com
100
AcDbLine
 10
106723.8071526563
 20
98008.19593140705
 30
0.0000005875452676
 11
106723.8125427994
 21
98008.19143658641
 31
0.0000005875452676
  0
LINE
  5
5112C
330
1F
100
AcDbEntity
  8
freecads.com
100
AcDbLine
 10
106723.8017625131
 20
98008.19772933529
 30
0.0000005875452676
 11
106723.8071526563
 21
98008.19593140705
 31
0.0000005875452676
  0
LINE
  5
5112D
330
1F
100
AcDbEntity
  8
freecads.com
100
AcDbLine
 10
106723.7936772984
 20
98008.19862829943
 30
0.0000005875452676
 11
106723.8017625131
 21
98008.19772933529
 31
0.0000005875452676
  0
LINE
  5
5112E
330
1F
100
AcDbEntity
  8
freecads.com
100
AcDbLine
 10
106723.7855920837
 20
98008.20042622769
 30
0.0000005875452676
 11
106723.7936772984
 21
98008.19862829943
 31
0.0000005875452676
  0
LINE
  5
5112F
330
1F
100
AcDbEntity
  8
freecads.com
100
AcDbLine
 10
106723.7802019405
 20
98008.19862829943
 30
0.0000005875452676
 11
106723.7855920837
 21
98008.20042622769
 31
0.0000005875452676
  0
LINE
  5
51130
330
1F
100
AcDbEntity
  8
freecads.com
100
AcDbLine
 10
106723.7793035833
 20
98008.19413347879
 30
0.0000005875452676
 11
106723.7802019405
 21
98008.19862829943
 31
0.0000005875452676
  0
LINE
  5
51131
330
1F
100
AcDbEntity
  8
freecads.com
100
AcDbLine
 10
106723.7828970121
 20
98008.19053762227
 30
0.0000005875452676
 11
106723.7793035833
 21
98008.19413347879
 31
0.0000005875452676
  0
LINE
  5
51132
330
1F
100
AcDbEntity
  8
freecads.com
100
AcDbLine
 10
106723.7828970121
 20
98008.18424487339
 30
0.0000005875452676
 11
106723.7828970121
 21
98008.19053762227
 31
0.0000005875452676
  0
LINE
  5
51133
330
1F
100
AcDbEntity
  8
freecads.com
100
AcDbLine
 10
106723.791880584
 20
98008.17885108861
 30
0.0000005875452676
 11
106723.8008641559
 21
98008.17435626798
 31
0.0000005875452676
  0
LINE
  5
51134
330
1F
100
AcDbEntity
  8
freecads.com
100
AcDbLine
 10
106723.7864904408
 20
98008.18334590925
 30
0.0000005875452676
 11
106723.791880584
 21
98008.17885108861
 31
0.0000005875452676
  0
LINE
  5
51135
330
1F
100
AcDbEntity
  8
freecads.com
100
AcDbLine
 10
106723.7766085118
 20
98008.18424487339
 30
0.0000005875452676
 11
106723.7864904408
 21
98008.18334590925
 31
0.0000005875452676
  0
LINE
  5
51136
330
1F
100
AcDbEntity
  8
freecads.com
100
AcDbLine
 10
106723.7703200114
 20
98008.18604280165
 30
0.0000005875452676
 11
106723.7766085118
 21
98008.18424487339
 31
0.0000005875452676
  0
LINE
  5
51137
330
1F
100
AcDbEntity
  8
freecads.com
100
AcDbLine
 10
106723.7622347967
 20
98008.18244694513
 30
0.0000005875452676
 11
106723.7703200114
 21
98008.18604280165
 31
0.0000005875452676
  0
LINE
  5
51138
330
1F
100
AcDbEntity
  8
freecads.com
100
AcDbLine
 10
106723.7568446536
 20
98008.17795212449
 30
0.0000005875452676
 11
106723.7622347967
 21
98008.18244694513
 31
0.0000005875452676
  0
LINE
  5
51139
330
1F
100
AcDbEntity
  8
freecads.com
100
AcDbLine
 10
106723.7595397251
 20
98008.17345730385
 30
0.0000005875452676
 11
106723.7568446536
 21
98008.17795212449
 31
0.0000005875452676
  0
LINE
  5
5113A
330
1F
100
AcDbEntity
  8
freecads.com
100
AcDbLine
 10
106723.7837953693
 20
98008.15547802129
 30
0.0000005875452676
 11
106723.7855920837
 21
98008.15008423651
 31
0.0000005875452676
  0
LINE
  5
5113B
330
1F
100
AcDbEntity
  8
freecads.com
100
AcDbLine
 10
106723.7784052261
 20
98008.15997284193
 30
0.0000005875452676
 11
106723.7837953693
 21
98008.15547802129
 31
0.0000005875452676
  0
LINE
  5
5113C
330
1F
100
AcDbEntity
  8
freecads.com
100
AcDbLine
 10
106723.7748117974
 20
98008.16356869844
 30
0.0000005875452676
 11
106723.7784052261
 21
98008.15997284193
 31
0.0000005875452676
  0
LINE
  5
5113D
330
1F
100
AcDbEntity
  8
freecads.com
100
AcDbLine
 10
106723.7703200114
 20
98008.16896248321
 30
0.0000005875452676
 11
106723.7748117974
 21
98008.16356869844
 31
0.0000005875452676
  0
LINE
  5
5113E
330
1F
100
AcDbEntity
  8
freecads.com
100
AcDbLine
 10
106723.7667265827
 20
98008.17255833973
 30
0.0000005875452676
 11
106723.7703200114
 21
98008.16896248321
 31
0.0000005875452676
  0
LINE
  5
5113F
330
1F
100
AcDbEntity
  8
freecads.com
100
AcDbLine
 10
106723.7622347967
 20
98008.17345730385
 30
0.0000005875452676
 11
106723.7667265827
 21
98008.17255833973
 31
0.0000005875452676
  0
LINE
  5
51140
330
1F
100
AcDbEntity
  8
freecads.com
100
AcDbLine
 10
106723.8269165144
 20
98008.09614638883
 30
0.0000005875452676
 11
106723.8269165144
 21
98008.10154017359
 31
0.0000005875452676
  0
LINE
  5
51141
330
1F
100
AcDbEntity
  8
freecads.com
100
AcDbLine
 10
106723.8242214429
 20
98008.09255053231
 30
0.0000005875452676
 11
106723.8269165144
 21
98008.09614638883
 31
0.0000005875452676
  0
LINE
  5
51142
330
1F
100
AcDbEntity
  8
freecads.com
100
AcDbLine
 10
106723.8233230857
 20
98008.08805571168
 30
0.0000005875452676
 11
106723.8242214429
 21
98008.09255053231
 31
0.0000005875452676
  0
LINE
  5
51143
330
1F
100
AcDbEntity
  8
freecads.com
100
AcDbLine
 10
106723.8197296569
 20
98008.08445985516
 30
0.0000005875452676
 11
106723.8233230857
 21
98008.08805571168
 31
0.0000005875452676
  0
LINE
  5
51144
330
1F
100
AcDbEntity
  8
freecads.com
100
AcDbLine
 10
106723.8161362282
 20
98008.07906607039
 30
0.0000005875452676
 11
106723.8197296569
 21
98008.08445985516
 31
0.0000005875452676
  0
LINE
  5
51145
330
1F
100
AcDbEntity
  8
freecads.com
100
AcDbLine
 10
106723.8071526563
 20
98008.07367228562
 30
0.0000005875452676
 11
106723.8161362282
 21
98008.07906607039
 31
0.0000005875452676
  0
LINE
  5
51146
330
1F
100
AcDbEntity
  8
freecads.com
100
AcDbLine
 10
106723.8035592275
 20
98008.07457124975
 30
0.0000005875452676
 11
106723.8071526563
 21
98008.07367228562
 31
0.0000005875452676
  0
LINE
  5
51147
330
1F
100
AcDbEntity
  8
freecads.com
100
AcDbLine
 10
106723.7954740128
 20
98008.07097539324
 30
0.0000005875452676
 11
106723.8035592275
 21
98008.07457124975
 31
0.0000005875452676
  0
LINE
  5
51148
330
1F
100
AcDbEntity
  8
freecads.com
100
AcDbLine
 10
106723.7882871553
 20
98008.07007642911
 30
0.0000005875452676
 11
106723.7954740128
 21
98008.07097539324
 31
0.0000005875452676
  0
LINE
  5
51149
330
1F
100
AcDbEntity
  8
freecads.com
100
AcDbLine
 10
106723.7811002977
 20
98008.07007642911
 30
0.0000005875452676
 11
106723.7882871553
 21
98008.07007642911
 31
0.0000005875452676
  0
LINE
  5
5114A
330
1F
100
AcDbEntity
  8
freecads.com
100
AcDbLine
 10
106723.7757101546
 20
98008.07097539324
 30
0.0000005875452676
 11
106723.7811002977
 21
98008.07007642911
 31
0.0000005875452676
  0
LINE
  5
5114B
330
1F
100
AcDbEntity
  8
freecads.com
100
AcDbLine
 10
106723.7739134402
 20
98008.076369178
 30
0.0000005875452676
 11
106723.7757101546
 21
98008.07097539324
 31
0.0000005875452676
  0
LINE
  5
5114C
330
1F
100
AcDbEntity
  8
freecads.com
100
AcDbLine
 10
106723.7739134402
 20
98008.08356089103
 30
0.0000005875452676
 11
106723.7739134402
 21
98008.076369178
 31
0.0000005875452676
  0
LINE
  5
5114D
330
1F
100
AcDbEntity
  8
freecads.com
100
AcDbLine
 10
106723.8206280141
 20
98008.13839770285
 30
0.0000005875452676
 11
106723.815237871
 21
98008.14379148761
 31
0.0000005875452676
  0
LINE
  5
5114E
330
1F
100
AcDbEntity
  8
freecads.com
100
AcDbLine
 10
106723.8215263713
 20
98008.1303070257
 30
0.0000005875452676
 11
106723.8206280141
 21
98008.13839770285
 31
0.0000005875452676
  0
LINE
  5
5114F
330
1F
100
AcDbEntity
  8
freecads.com
100
AcDbLine
 10
106723.8233230857
 20
98008.12131738441
 30
0.0000005875452676
 11
106723.8215263713
 21
98008.1303070257
 31
0.0000005875452676
  0
LINE
  5
51150
330
1F
100
AcDbEntity
  8
freecads.com
100
AcDbLine
 10
106723.8242214429
 20
98008.11052981488
 30
0.0000005875452676
 11
106723.8233230857
 21
98008.12131738441
 31
0.0000005875452676
  0
LINE
  5
51151
330
1F
100
AcDbEntity
  8
freecads.com
100
AcDbLine
 10
106723.8233230857
 20
98008.10064120947
 30
0.0000005875452676
 11
106723.8242214429
 21
98008.11052981488
 31
0.0000005875452676
  0
LINE
  5
51152
330
1F
100
AcDbEntity
  8
freecads.com
100
AcDbLine
 10
106723.8170345853
 20
98008.09344949644
 30
0.0000005875452676
 11
106723.8233230857
 21
98008.10064120947
 31
0.0000005875452676
  0
LINE
  5
51153
330
1F
100
AcDbEntity
  8
freecads.com
100
AcDbLine
 10
106723.8143395138
 20
98008.09075260405
 30
0.0000005875452676
 11
106723.8170345853
 21
98008.09344949644
 31
0.0000005875452676
  0
LINE
  5
51154
330
1F
100
AcDbEntity
  8
freecads.com
100
AcDbLine
 10
106723.8071526563
 20
98008.08715674754
 30
0.0000005875452676
 11
106723.8143395138
 21
98008.09075260405
 31
0.0000005875452676
  0
LINE
  5
51155
330
1F
100
AcDbEntity
  8
freecads.com
100
AcDbLine
 10
106723.8035592275
 20
98008.08805571168
 30
0.0000005875452676
 11
106723.8071526563
 21
98008.08715674754
 31
0.0000005875452676
  0
LINE
  5
51156
330
1F
100
AcDbEntity
  8
freecads.com
100
AcDbLine
 10
106723.8017625131
 20
98008.09434846057
 30
0.0000005875452676
 11
106723.8035592275
 21
98008.08805571168
 31
0.0000005875452676
  0
LINE
  5
51157
330
1F
100
AcDbEntity
  8
freecads.com
100
AcDbLine
 10
106723.7990674415
 20
98008.09974224534
 30
0.0000005875452676
 11
106723.8017625131
 21
98008.09434846057
 31
0.0000005875452676
  0
LINE
  5
51158
330
1F
100
AcDbEntity
  8
freecads.com
100
AcDbLine
 10
106723.7999657987
 20
98008.10603499423
 30
0.0000005875452676
 11
106723.7990674415
 21
98008.09974224534
 31
0.0000005875452676
  0
LINE
  5
51159
330
1F
100
AcDbEntity
  8
freecads.com
100
AcDbLine
 10
106723.7981690843
 20
98008.10693395836
 30
0.0000005875452676
 11
106723.8035592275
 21
98008.10963085076
 31
0.0000005875452676
  0
LINE
  5
5115A
330
1F
100
AcDbEntity
  8
freecads.com
100
AcDbLine
 10
106723.791880584
 20
98008.09794431708
 30
0.0000005875452676
 11
106723.7981690843
 21
98008.10693395836
 31
0.0000005875452676
  0
LINE
  5
5115B
330
1F
100
AcDbEntity
  8
freecads.com
100
AcDbLine
 10
106723.7855920837
 20
98008.09075260405
 30
0.0000005875452676
 11
106723.791880584
 21
98008.09794431708
 31
0.0000005875452676
  0
LINE
  5
5115C
330
1F
100
AcDbEntity
  8
freecads.com
100
AcDbLine
 10
106723.7784052261
 20
98008.08715674754
 30
0.0000005875452676
 11
106723.7855920837
 21
98008.09075260405
 31
0.0000005875452676
  0
LINE
  5
5115D
330
1F
100
AcDbEntity
  8
freecads.com
100
AcDbLine
 10
106723.7676249399
 20
98008.08356089103
 30
0.0000005875452676
 11
106723.7784052261
 21
98008.08715674754
 31
0.0000005875452676
  0
LINE
  5
5115E
330
1F
100
AcDbEntity
  8
freecads.com
100
AcDbLine
 10
106723.7568446536
 20
98008.08445985516
 30
0.0000005875452676
 11
106723.7676249399
 21
98008.08356089103
 31
0.0000005875452676
  0
LINE
  5
5115F
330
1F
100
AcDbEntity
  8
freecads.com
100
AcDbLine
 10
106723.7649298683
 20
98008.12131738441
 30
0.0000005875452676
 11
106723.7649298683
 21
98008.12850909744
 31
0.0000005875452676
  0
LINE
  5
51160
330
1F
100
AcDbEntity
  8
freecads.com
100
AcDbLine
 10
106723.7649298683
 20
98008.10963085076
 30
0.0000005875452676
 11
106723.7649298683
 21
98008.12131738441
 31
0.0000005875452676
  0
LINE
  5
51161
330
1F
100
AcDbEntity
  8
freecads.com
100
AcDbLine
 10
106723.7640315111
 20
98008.10243913772
 30
0.0000005875452676
 11
106723.7649298683
 21
98008.10963085076
 31
0.0000005875452676
  0
LINE
  5
51162
330
1F
100
AcDbEntity
  8
freecads.com
100
AcDbLine
 10
106723.7613364395
 20
98008.09344949644
 30
0.0000005875452676
 11
106723.7640315111
 21
98008.10243913772
 31
0.0000005875452676
  0
LINE
  5
51163
330
1F
100
AcDbEntity
  8
freecads.com
100
AcDbLine
 10
106723.7568446536
 20
98008.08715674754
 30
0.0000005875452676
 11
106723.7613364395
 21
98008.09344949644
 31
0.0000005875452676
  0
LINE
  5
51164
330
1F
100
AcDbEntity
  8
freecads.com
100
AcDbLine
 10
106723.7487594389
 20
98008.0826619269
 30
0.0000005875452676
 11
106723.7568446536
 21
98008.08715674754
 31
0.0000005875452676
  0
LINE
  5
51165
330
1F
100
AcDbEntity
  8
freecads.com
100
AcDbLine
 10
106723.7415725813
 20
98008.07816710626
 30
0.0000005875452676
 11
106723.7487594389
 21
98008.0826619269
 31
0.0000005875452676
  0
LINE
  5
51166
330
1F
100
AcDbEntity
  8
freecads.com
100
AcDbLine
 10
106723.7325890094
 20
98008.076369178
 30
0.0000005875452676
 11
106723.7415725813
 21
98008.07816710626
 31
0.0000005875452676
  0
LINE
  5
51167
330
1F
100
AcDbEntity
  8
freecads.com
100
AcDbLine
 10
106723.7227070803
 20
98008.07367228562
 30
0.0000005875452676
 11
106723.7325890094
 21
98008.076369178
 31
0.0000005875452676
  0
LINE
  5
51168
330
1F
100
AcDbEntity
  8
freecads.com
100
AcDbLine
 10
106723.7379791525
 20
98008.09704535296
 30
0.0000005875452676
 11
106723.7388775097
 21
98008.10603499423
 31
0.0000005875452676
  0
LINE
  5
51169
330
1F
100
AcDbEntity
  8
freecads.com
100
AcDbLine
 10
106723.7334873666
 20
98008.09165156818
 30
0.0000005875452676
 11
106723.7379791525
 21
98008.09704535296
 31
0.0000005875452676
  0
LINE
  5
5116A
330
1F
100
AcDbEntity
  8
freecads.com
100
AcDbLine
 10
106723.7280972235
 20
98008.08445985516
 30
0.0000005875452676
 11
106723.7334873666
 21
98008.09165156818
 31
0.0000005875452676
  0
LINE
  5
5116B
330
1F
100
AcDbEntity
  8
freecads.com
100
AcDbLine
 10
106723.7245037947
 20
98008.08176296278
 30
0.0000005875452676
 11
106723.7280972235
 21
98008.08445985516
 31
0.0000005875452676
  0
LINE
  5
5116C
330
1F
100
AcDbEntity
  8
freecads.com
100
AcDbLine
 10
106723.7191136515
 20
98008.07726814214
 30
0.0000005875452676
 11
106723.7245037947
 21
98008.08176296278
 31
0.0000005875452676
  0
LINE
  5
5116D
330
1F
100
AcDbEntity
  8
freecads.com
100
AcDbLine
 10
106723.7101300796
 20
98008.07187435736
 30
0.0000005875452676
 11
106723.7191136515
 21
98008.07726814214
 31
0.0000005875452676
  0
LINE
  5
5116E
330
1F
100
AcDbEntity
  8
freecads.com
100
AcDbLine
 10
106723.6984514361
 20
98008.07007642911
 30
0.0000005875452676
 11
106723.7101300796
 21
98008.07187435736
 31
0.0000005875452676
  0
LINE
  5
5116F
330
1F
100
AcDbEntity
  8
freecads.com
100
AcDbLine
 10
106723.6912645786
 20
98008.0664805726
 30
0.0000005875452676
 11
106723.6984514361
 21
98008.07007642911
 31
0.0000005875452676
  0
LINE
  5
51170
330
1F
100
AcDbEntity
  8
freecads.com
100
AcDbLine
 10
106723.6804842923
 20
98008.06378368022
 30
0.0000005875452676
 11
106723.6912645786
 21
98008.0664805726
 31
0.0000005875452676
  0
LINE
  5
51171
330
1F
100
AcDbEntity
  8
freecads.com
100
AcDbLine
 10
106723.7002481505
 20
98008.08805571168
 30
0.0000005875452676
 11
106723.6975530789
 21
98008.08176296278
 31
0.0000005875452676
  0
LINE
  5
51172
330
1F
100
AcDbEntity
  8
freecads.com
100
AcDbLine
 10
106723.7038415793
 20
98008.09344949644
 30
0.0000005875452676
 11
106723.7002481505
 21
98008.08805571168
 31
0.0000005875452676
  0
LINE
  5
51173
330
1F
100
AcDbEntity
  8
freecads.com
100
AcDbLine
 10
106723.6786875779
 20
98008.06737953672
 30
0.0000005875452676
 11
106723.6813826495
 21
98008.06917746498
 31
0.0000005875452676
  0
LINE
  5
51174
330
1F
100
AcDbEntity
  8
freecads.com
100
AcDbLine
 10
106723.6688056488
 20
98008.06378368022
 30
0.0000005875452676
 11
106723.6786875779
 21
98008.06737953672
 31
0.0000005875452676
  0
LINE
  5
51175
330
1F
100
AcDbEntity
  8
freecads.com
100
AcDbLine
 10
106723.6616187913
 20
98008.06108678782
 30
0.0000005875452676
 11
106723.6688056488
 21
98008.06378368022
 31
0.0000005875452676
  0
LINE
  5
51176
330
1F
100
AcDbEntity
  8
freecads.com
100
AcDbLine
 10
106723.655330291
 20
98008.06198575196
 30
0.0000005875452676
 11
106723.6616187913
 21
98008.06108678782
 31
0.0000005875452676
  0
LINE
  5
51177
330
1F
100
AcDbEntity
  8
freecads.com
100
AcDbLine
 10
106723.6580253625
 20
98008.06737953672
 30
0.0000005875452676
 11
106723.655330291
 21
98008.06198575196
 31
0.0000005875452676
  0
LINE
  5
51178
330
1F
100
AcDbEntity
  8
freecads.com
100
AcDbLine
 10
106723.6598220769
 20
98008.07547021388
 30
0.0000005875452676
 11
106723.6580253625
 21
98008.06737953672
 31
0.0000005875452676
  0
LINE
  5
51179
330
1F
100
AcDbEntity
  8
freecads.com
100
AcDbLine
 10
106723.6831793639
 20
98008.07277332149
 30
0.0000005875452676
 11
106723.6804842923
 21
98008.06737953672
 31
0.0000005875452676
  0
LINE
  5
5117A
330
1F
100
AcDbEntity
  8
freecads.com
100
AcDbLine
 10
106723.6894678642
 20
98008.08086399865
 30
0.0000005875452676
 11
106723.6831793639
 21
98008.07277332149
 31
0.0000005875452676
  0
LINE
  5
5117B
330
1F
100
AcDbEntity
  8
freecads.com
100
AcDbLine
 10
106723.6939596502
 20
98008.08625778342
 30
0.0000005875452676
 11
106723.6894678642
 21
98008.08086399865
 31
0.0000005875452676
  0
LINE
  5
5117C
330
1F
100
AcDbEntity
  8
freecads.com
100
AcDbLine
 10
106723.6975530789
 20
98008.09165156818
 30
0.0000005875452676
 11
106723.6939596502
 21
98008.08625778342
 31
0.0000005875452676
  0
LINE
  5
5117D
330
1F
100
AcDbEntity
  8
freecads.com
100
AcDbLine
 10
106723.7029432221
 20
98008.0952474247
 30
0.0000005875452676
 11
106723.6975530789
 21
98008.09165156818
 31
0.0000005875452676
  0
LINE
  5
5117E
330
1F
100
AcDbEntity
  8
freecads.com
100
AcDbLine
 10
106723.693061293
 20
98008.09614638883
 30
0.0000005875452676
 11
106723.6975530789
 21
98008.09794431708
 31
0.0000005875452676
  0
LINE
  5
5117F
330
1F
100
AcDbEntity
  8
freecads.com
100
AcDbLine
 10
106723.688569507
 20
98008.09255053231
 30
0.0000005875452676
 11
106723.693061293
 21
98008.09614638883
 31
0.0000005875452676
  0
LINE
  5
51180
330
1F
100
AcDbEntity
  8
freecads.com
100
AcDbLine
 10
106723.6804842923
 20
98008.08715674754
 30
0.0000005875452676
 11
106723.688569507
 21
98008.09255053231
 31
0.0000005875452676
  0
LINE
  5
51181
330
1F
100
AcDbEntity
  8
freecads.com
100
AcDbLine
 10
106723.674195792
 20
98008.08535881929
 30
0.0000005875452676
 11
106723.6804842923
 21
98008.08715674754
 31
0.0000005875452676
  0
LINE
  5
51182
330
1F
100
AcDbEntity
  8
freecads.com
100
AcDbLine
 10
106723.6643138629
 20
98008.08086399865
 30
0.0000005875452676
 11
106723.674195792
 21
98008.08535881929
 31
0.0000005875452676
  0
LINE
  5
51183
330
1F
100
AcDbEntity
  8
freecads.com
100
AcDbLine
 10
106723.6589237197
 20
98008.07816710626
 30
0.0000005875452676
 11
106723.6643138629
 21
98008.08086399865
 31
0.0000005875452676
  0
LINE
  5
51184
330
1F
100
AcDbEntity
  8
freecads.com
100
AcDbLine
 10
106723.6517368622
 20
98008.07816710626
 30
0.0000005875452676
 11
106723.6589237197
 21
98008.07816710626
 31
0.0000005875452676
  0
LINE
  5
51185
330
1F
100
AcDbEntity
  8
freecads.com
100
AcDbLine
 10
106723.6472450763
 20
98008.08086399865
 30
0.0000005875452676
 11
106723.6517368622
 21
98008.07816710626
 31
0.0000005875452676
  0
LINE
  5
51186
330
1F
100
AcDbEntity
  8
freecads.com
100
AcDbLine
 10
106723.6472450763
 20
98008.08805571168
 30
0.0000005875452676
 11
106723.6472450763
 21
98008.08086399865
 31
0.0000005875452676
  0
LINE
  5
51187
330
1F
100
AcDbEntity
  8
freecads.com
100
AcDbLine
 10
106723.6499401478
 20
98008.09344949644
 30
0.0000005875452676
 11
106723.6472450763
 21
98008.08805571168
 31
0.0000005875452676
  0
LINE
  5
51188
330
1F
100
AcDbEntity
  8
freecads.com
100
AcDbLine
 10
106723.6526352194
 20
98008.09884328122
 30
0.0000005875452676
 11
106723.6499401478
 21
98008.09344949644
 31
0.0000005875452676
  0
LINE
  5
51189
330
1F
100
AcDbEntity
  8
freecads.com
100
AcDbLine
 10
106723.6589237197
 20
98008.10333810185
 30
0.0000005875452676
 11
106723.6526352194
 21
98008.09884328122
 31
0.0000005875452676
  0
LINE
  5
5118A
330
1F
100
AcDbEntity
  8
freecads.com
100
AcDbLine
 10
106723.6993497933
 20
98008.12221634853
 30
0.0000005875452676
 11
106723.7011465077
 21
98008.12221634853
 31
0.0000005875452676
  0
LINE
  5
5118B
330
1F
100
AcDbEntity
  8
freecads.com
100
AcDbLine
 10
106723.6948580074
 20
98008.12131738441
 30
0.0000005875452676
 11
106723.6993497933
 21
98008.12221634853
 31
0.0000005875452676
  0
LINE
  5
5118C
330
1F
100
AcDbEntity
  8
freecads.com
100
AcDbLine
 10
106723.6894678642
 20
98008.11951945616
 30
0.0000005875452676
 11
106723.6948580074
 21
98008.12131738441
 31
0.0000005875452676
  0
LINE
  5
5118D
330
1F
100
AcDbEntity
  8
freecads.com
100
AcDbLine
 10
106723.6813826495
 20
98008.11592359965
 30
0.0000005875452676
 11
106723.6894678642
 21
98008.11951945616
 31
0.0000005875452676
  0
LINE
  5
5118E
330
1F
100
AcDbEntity
  8
freecads.com
100
AcDbLine
 10
106723.6732974348
 20
98008.11412567139
 30
0.0000005875452676
 11
106723.6813826495
 21
98008.11592359965
 31
0.0000005875452676
  0
LINE
  5
5118F
330
1F
100
AcDbEntity
  8
freecads.com
100
AcDbLine
 10
106723.6652122201
 20
98008.10873188662
 30
0.0000005875452676
 11
106723.6732974348
 21
98008.11412567139
 31
0.0000005875452676
  0
LINE
  5
51190
330
1F
100
AcDbEntity
  8
freecads.com
100
AcDbLine
 10
106723.6526352194
 20
98008.10333810185
 30
0.0000005875452676
 11
106723.6652122201
 21
98008.10873188662
 31
0.0000005875452676
  0
LINE
  5
51191
330
1F
100
AcDbEntity
  8
freecads.com
100
AcDbLine
 10
106723.6535335766
 20
98008.10963085076
 30
0.0000005875452676
 11
106723.6526352194
 21
98008.10333810185
 31
0.0000005875452676
  0
LINE
  5
51192
330
1F
100
AcDbEntity
  8
freecads.com
100
AcDbLine
 10
106723.6526352194
 20
98008.11592359965
 30
0.0000005875452676
 11
106723.6535335766
 21
98008.10963085076
 31
0.0000005875452676
  0
LINE
  5
51193
330
1F
100
AcDbEntity
  8
freecads.com
100
AcDbLine
 10
106723.6544319338
 20
98008.12131738441
 30
0.0000005875452676
 11
106723.6526352194
 21
98008.11592359965
 31
0.0000005875452676
  0
LINE
  5
51194
330
1F
100
AcDbEntity
  8
freecads.com
100
AcDbLine
 10
106723.6589237197
 20
98008.12671116919
 30
0.0000005875452676
 11
106723.6544319338
 21
98008.12131738441
 31
0.0000005875452676
  0
LINE
  5
51195
330
1F
100
AcDbEntity
  8
freecads.com
100
AcDbLine
 10
106723.6643138629
 20
98008.1303070257
 30
0.0000005875452676
 11
106723.6589237197
 21
98008.12671116919
 31
0.0000005875452676
  0
LINE
  5
51196
330
1F
100
AcDbEntity
  8
freecads.com
100
AcDbLine
 10
106723.6966547218
 20
98008.13839770285
 30
0.0000005875452676
 11
106723.7029432221
 21
98008.13929666698
 31
0.0000005875452676
  0
LINE
  5
51197
330
1F
100
AcDbEntity
  8
freecads.com
100
AcDbLine
 10
106723.6858744355
 20
98008.13749873872
 30
0.0000005875452676
 11
106723.6966547218
 21
98008.13839770285
 31
0.0000005875452676
  0
LINE
  5
51198
330
1F
100
AcDbEntity
  8
freecads.com
100
AcDbLine
 10
106723.6777892208
 20
98008.13570081047
 30
0.0000005875452676
 11
106723.6858744355
 21
98008.13749873872
 31
0.0000005875452676
  0
LINE
  5
51199
330
1F
100
AcDbEntity
  8
freecads.com
100
AcDbLine
 10
106723.6706023632
 20
98008.13210495395
 30
0.0000005875452676
 11
106723.6777892208
 21
98008.13570081047
 31
0.0000005875452676
  0
LINE
  5
5119A
330
1F
100
AcDbEntity
  8
freecads.com
100
AcDbLine
 10
106723.6544319338
 20
98008.12940806157
 30
0.0000005875452676
 11
106723.6706023632
 21
98008.13210495395
 31
0.0000005875452676
  0
LINE
  5
5119B
330
1F
100
AcDbEntity
  8
freecads.com
100
AcDbLine
 10
106723.6571270054
 20
98008.13480184633
 30
0.0000005875452676
 11
106723.6544319338
 21
98008.12940806157
 31
0.0000005875452676
  0
LINE
  5
5119C
330
1F
100
AcDbEntity
  8
freecads.com
100
AcDbLine
 10
106723.6598220769
 20
98008.14469045175
 30
0.0000005875452676
 11
106723.6571270054
 21
98008.13480184633
 31
0.0000005875452676
  0
LINE
  5
5119D
330
1F
100
AcDbEntity
  8
freecads.com
100
AcDbLine
 10
106723.6679072917
 20
98008.14828630825
 30
0.0000005875452676
 11
106723.6598220769
 21
98008.14469045175
 31
0.0000005875452676
  0
LINE
  5
5119E
330
1F
100
AcDbEntity
  8
freecads.com
100
AcDbLine
 10
106723.6786875779
 20
98008.15457905715
 30
0.0000005875452676
 11
106723.6679072917
 21
98008.14828630825
 31
0.0000005875452676
  0
LINE
  5
5119F
330
1F
100
AcDbEntity
  8
freecads.com
100
AcDbLine
 10
106723.6876711499
 20
98008.15817491367
 30
0.0000005875452676
 11
106723.6786875779
 21
98008.15457905715
 31
0.0000005875452676
  0
LINE
  5
511A0
330
1F
100
AcDbEntity
  8
freecads.com
100
AcDbLine
 10
106723.6966547218
 20
98008.16266973431
 30
0.0000005875452676
 11
106723.6876711499
 21
98008.15817491367
 31
0.0000005875452676
  0
LINE
  5
511A1
330
1F
100
AcDbEntity
  8
freecads.com
100
AcDbLine
 10
106723.7092317224
 20
98008.16446766257
 30
0.0000005875452676
 11
106723.6966547218
 21
98008.16266973431
 31
0.0000005875452676
  0
LINE
  5
511A2
330
1F
100
AcDbEntity
  8
freecads.com
100
AcDbLine
 10
106723.7236054375
 20
98008.16446766257
 30
0.0000005875452676
 11
106723.7092317224
 21
98008.16446766257
 31
0.0000005875452676
  0
LINE
  5
511A3
330
1F
100
AcDbEntity
  8
freecads.com
100
AcDbLine
 10
106723.7361824382
 20
98008.16356869844
 30
0.0000005875452676
 11
106723.7236054375
 21
98008.16446766257
 31
0.0000005875452676
  0
LINE
  5
511A4
330
1F
100
AcDbEntity
  8
freecads.com
100
AcDbLine
 10
106723.7505561532
 20
98008.15907387779
 30
0.0000005875452676
 11
106723.7361824382
 21
98008.16356869844
 31
0.0000005875452676
  0
LINE
  5
511A5
330
1F
100
AcDbEntity
  8
freecads.com
100
AcDbLine
 10
106723.6486199266
 20
98008.11302912194
 30
0.0000005875452676
 11
106723.640705946
 21
98008.11302912194
 31
0.0000005875452676
  0
LINE
  5
511A6
330
1F
100
AcDbEntity
  8
freecads.com
100
AcDbLine
 10
106724.1504196672
 20
98008.06118115696
 30
0.0000005875452676
 11
106724.1813285582
 21
98008.06891352637
 31
0.0000005875452676
  0
LINE
  5
511A7
330
1F
100
AcDbEntity
  8
freecads.com
100
AcDbLine
 10
106724.1117835534
 20
98008.06118115696
 30
0.0000005875452676
 11
106724.1504196672
 21
98008.06118115696
 31
0.0000005875452676
  0
LINE
  5
511A8
330
1F
100
AcDbEntity
  8
freecads.com
100
AcDbLine
 10
106724.1774649468
 20
98008.11530774286
 30
0.0000005875452676
 11
106724.1813285582
 21
98008.11530774286
 31
0.0000005875452676
  0
LINE
  5
511A9
330
1F
100
AcDbEntity
  8
freecads.com
100
AcDbLine
 10
106724.1658741127
 20
98008.12690629699
 30
0.0000005875452676
 11
106724.1774649468
 21
98008.11530774286
 31
0.0000005875452676
  0
LINE
  5
511AA
330
1F
100
AcDbEntity
  8
freecads.com
100
AcDbLine
 10
106724.1504196672
 20
98008.1307724817
 30
0.0000005875452676
 11
106724.1658741127
 21
98008.12690629699
 31
0.0000005875452676
  0
LINE
  5
511AB
330
1F
100
AcDbEntity
  8
freecads.com
100
AcDbLine
 10
106724.1272379989
 20
98008.12304011227
 30
0.0000005875452676
 11
106724.1504196672
 21
98008.1307724817
 31
0.0000005875452676
  0
LINE
  5
511AC
330
1F
100
AcDbEntity
  8
freecads.com
100
AcDbLine
 10
106724.1813285582
 20
98008.07277971108
 30
0.0000005875452676
 11
106724.1813285582
 21
98008.06891352637
 31
0.0000005875452676
  0
LINE
  5
511AD
330
1F
100
AcDbEntity
  8
freecads.com
100
AcDbLine
 10
106723.9688299324
 20
98008.0882444499
 30
0.0000005875452676
 11
106723.9688299324
 21
98008.09211063462
 31
0.0000005875452676
  0
LINE
  5
511AE
330
1F
100
AcDbEntity
  8
freecads.com
100
AcDbLine
 10
106723.9611027096
 20
98008.07277971108
 30
0.0000005875452676
 11
106723.9688299324
 21
98008.0882444499
 31
0.0000005875452676
  0
LINE
  5
511AF
330
1F
100
AcDbEntity
  8
freecads.com
100
AcDbLine
 10
106723.9554132699
 20
98008.06139325285
 30
0.0000005875452676
 11
106723.9611027096
 21
98008.07277971108
 31
0.0000005875452676
  0
LINE
  5
511B0
330
1F
100
AcDbEntity
  8
freecads.com
100
AcDbLine
 10
106723.7138315814
 20
98008.11144155815
 30
0.0000005875452676
 11
106723.7022407473
 21
98008.09597681933
 31
0.0000005875452676
  0
LINE
  5
511B1
330
1F
100
AcDbEntity
  8
freecads.com
100
AcDbLine
 10
106723.7292860269
 20
98008.1307724817
 30
0.0000005875452676
 11
106723.7138315814
 21
98008.11144155815
 31
0.0000005875452676
  0
LINE
  5
511B2
330
1F
100
AcDbEntity
  8
freecads.com
100
AcDbLine
 10
106723.7292860269
 20
98008.13850485111
 30
0.0000005875452676
 11
106723.7292860269
 21
98008.1307724817
 31
0.0000005875452676
  0
LINE
  5
511B3
330
1F
100
AcDbEntity
  8
freecads.com
100
AcDbLine
 10
106723.7408768611
 20
98008.15010340523
 30
0.0000005875452676
 11
106723.7292860269
 21
98008.13850485111
 31
0.0000005875452676
  0
LINE
  5
511B4
330
1F
100
AcDbEntity
  8
freecads.com
100
AcDbLine
 10
106723.6674682449
 20
98008.06504734165
 30
0.0000005875452676
 11
106723.6713318563
 21
98008.06504734165
 31
0.0000005875452676
  0
LINE
  5
511B5
330
1F
100
AcDbEntity
  8
freecads.com
100
AcDbLine
 10
106724.1737782972
 20
98008.15699529973
 30
0.0000005875452676
 11
106724.1687384434
 21
98008.15901243957
 31
0.0000005875452676
  0
LINE
  5
511B6
330
1F
100
AcDbEntity
  8
freecads.com
100
AcDbLine
 10
106724.1757942387
 20
98008.15497815987
 30
0.0000005875452676
 11
106724.1737782972
 21
98008.15699529973
 31
0.0000005875452676
  0
LINE
  5
511B7
330
1F
100
AcDbEntity
  8
freecads.com
100
AcDbLine
 10
106724.1668702728
 20
98008.10693395836
 30
0.0000005875452676
 11
106724.1713620588
 21
98008.11142877901
 31
0.0000005875452676
  0
LINE
  5
511B8
330
1F
100
AcDbEntity
  8
freecads.com
100
AcDbLine
 10
106724.1731587732
 20
98008.15008423651
 30
0.0000005875452676
 11
106724.1686669872
 21
98008.14379148761
 31
0.0000005875452676
  0
LINE
  5
511B9
330
1F
100
AcDbEntity
  8
freecads.com
100
AcDbLine
 10
106724.1803456307
 20
98008.16087180605
 30
0.0000005875452676
 11
106724.1731587732
 21
98008.15008423651
 31
0.0000005875452676
  0
LINE
  5
511BA
330
1F
100
AcDbEntity
  8
freecads.com
100
AcDbLine
 10
106724.1875324882
 20
98008.16626559081
 30
0.0000005875452676
 11
106724.1803456307
 21
98008.16087180605
 31
0.0000005875452676
  0
LINE
  5
511BB
330
1F
100
AcDbEntity
  8
freecads.com
100
AcDbLine
 10
106724.1938209886
 20
98008.17255833973
 30
0.0000005875452676
 11
106724.1875324882
 21
98008.16626559081
 31
0.0000005875452676
  0
LINE
  5
511BC
330
1F
100
AcDbEntity
  8
freecads.com
100
AcDbLine
 10
106724.2019062033
 20
98008.17705316035
 30
0.0000005875452676
 11
106724.1938209886
 21
98008.17255833973
 31
0.0000005875452676
  0
LINE
  5
511BD
330
1F
100
AcDbEntity
  8
freecads.com
100
AcDbLine
 10
106724.2063979892
 20
98008.17795212449
 30
0.0000005875452676
 11
106724.2019062033
 21
98008.17705316035
 31
0.0000005875452676
  0
LINE
  5
511BE
330
1F
100
AcDbEntity
  8
freecads.com
100
AcDbLine
 10
106724.2019062033
 20
98008.09165156818
 30
0.0000005875452676
 11
106724.2046012749
 21
98008.0952474247
 31
0.0000005875452676
  0
LINE
  5
511BF
330
1F
100
AcDbEntity
  8
freecads.com
100
AcDbLine
 10
106724.1974144173
 20
98008.08805571168
 30
0.0000005875452676
 11
106724.2019062033
 21
98008.09165156818
 31
0.0000005875452676
  0
LINE
  5
511C0
330
1F
100
AcDbEntity
  8
freecads.com
100
AcDbLine
 10
106724.1929226314
 20
98008.08535881929
 30
0.0000005875452676
 11
106724.1974144173
 21
98008.08805571168
 31
0.0000005875452676
  0
LINE
  5
511C1
330
1F
100
AcDbEntity
  8
freecads.com
100
AcDbLine
 10
106724.1902275598
 20
98008.07906607039
 30
0.0000005875452676
 11
106724.1929226314
 21
98008.08535881929
 31
0.0000005875452676
  0
LINE
  5
511C2
330
1F
100
AcDbEntity
  8
freecads.com
100
AcDbLine
 10
106724.1893292026
 20
98008.076369178
 30
0.0000005875452676
 11
106724.1902275598
 21
98008.07906607039
 31
0.0000005875452676
  0
LINE
  5
511C3
330
1F
100
AcDbEntity
  8
freecads.com
100
AcDbLine
 10
106724.1821423451
 20
98008.07996503451
 30
0.0000005875452676
 11
106724.1893292026
 21
98008.076369178
 31
0.0000005875452676
  0
LINE
  5
511C4
330
1F
100
AcDbEntity
  8
freecads.com
100
AcDbLine
 10
106724.1776505591
 20
98008.0826619269
 30
0.0000005875452676
 11
106724.1821423451
 21
98008.07996503451
 31
0.0000005875452676
  0
LINE
  5
511C5
330
1F
100
AcDbEntity
  8
freecads.com
100
AcDbLine
 10
106724.1740571304
 20
98008.09344949644
 30
0.0000005875452676
 11
106724.1776505591
 21
98008.0826619269
 31
0.0000005875452676
  0
LINE
  5
511C6
330
1F
100
AcDbEntity
  8
freecads.com
100
AcDbLine
 10
106724.1740571304
 20
98008.10513603011
 30
0.0000005875452676
 11
106724.1740571304
 21
98008.09344949644
 31
0.0000005875452676
  0
LINE
  5
511C7
330
1F
100
AcDbEntity
  8
freecads.com
100
AcDbLine
 10
106724.1749554876
 20
98008.11592359965
 30
0.0000005875452676
 11
106724.1740571304
 21
98008.10513603011
 31
0.0000005875452676
  0
LINE
  5
511C8
330
1F
100
AcDbEntity
  8
freecads.com
100
AcDbLine
 10
106724.1758538447
 20
98008.12401427679
 30
0.0000005875452676
 11
106724.1749554876
 21
98008.11592359965
 31
0.0000005875452676
  0
LINE
  5
511C9
330
1F
100
AcDbEntity
  8
freecads.com
100
AcDbLine
 10
106724.1803456307
 20
98008.12940806157
 30
0.0000005875452676
 11
106724.1758538447
 21
98008.12401427679
 31
0.0000005875452676
  0
LINE
  5
511CA
330
1F
100
AcDbEntity
  8
freecads.com
100
AcDbLine
 10
106724.1830407023
 20
98008.13749873872
 30
0.0000005875452676
 11
106724.1803456307
 21
98008.12940806157
 31
0.0000005875452676
  0
LINE
  5
511CB
330
1F
100
AcDbEntity
  8
freecads.com
100
AcDbLine
 10
106724.1920242742
 20
98008.14648837999
 30
0.0000005875452676
 11
106724.1830407023
 21
98008.13749873872
 31
0.0000005875452676
  0
LINE
  5
511CC
330
1F
100
AcDbEntity
  8
freecads.com
100
AcDbLine
 10
106724.1983127745
 20
98008.1527811289
 30
0.0000005875452676
 11
106724.1920242742
 21
98008.14648837999
 31
0.0000005875452676
  0
LINE
  5
511CD
330
1F
100
AcDbEntity
  8
freecads.com
100
AcDbLine
 10
106724.2629944923
 20
98008.16356869844
 30
0.0000005875452676
 11
106724.2594010635
 21
98008.16266973431
 31
0.0000005875452676
  0
LINE
  5
511CE
330
1F
100
AcDbEntity
  8
freecads.com
100
AcDbLine
 10
106724.2692829926
 20
98008.16446766257
 30
0.0000005875452676
 11
106724.2629944923
 21
98008.16356869844
 31
0.0000005875452676
  0
LINE
  5
511CF
330
1F
100
AcDbEntity
  8
freecads.com
100
AcDbLine
 10
106724.2746731358
 20
98008.16356869844
 30
0.0000005875452676
 11
106724.2692829926
 21
98008.16446766257
 31
0.0000005875452676
  0
LINE
  5
511D0
330
1F
100
AcDbEntity
  8
freecads.com
100
AcDbLine
 10
106724.2764698501
 20
98008.16356869844
 30
0.0000005875452676
 11
106724.2746731358
 21
98008.16356869844
 31
0.0000005875452676
  0
LINE
  5
511D1
330
1F
100
AcDbEntity
  8
freecads.com
100
AcDbLine
 10
106724.2764698501
 20
98008.15907387779
 30
0.0000005875452676
 11
106724.2764698501
 21
98008.16356869844
 31
0.0000005875452676
  0
LINE
  5
511D2
330
1F
100
AcDbEntity
  8
freecads.com
100
AcDbLine
 10
106724.2010078461
 20
98008.1527811289
 30
0.0000005875452676
 11
106724.1974144173
 21
98008.15817491367
 31
0.0000005875452676
  0
LINE
  5
511D3
330
1F
100
AcDbEntity
  8
freecads.com
100
AcDbLine
 10
106724.2072963464
 20
98008.15368009303
 30
0.0000005875452676
 11
106724.2010078461
 21
98008.1527811289
 31
0.0000005875452676
  0
LINE
  5
511D4
330
1F
100
AcDbEntity
  8
freecads.com
100
AcDbLine
 10
106724.214483204
 20
98008.14918527239
 30
0.0000005875452676
 11
106724.2072963464
 21
98008.15368009303
 31
0.0000005875452676
  0
LINE
  5
511D5
330
1F
100
AcDbEntity
  8
freecads.com
100
AcDbLine
 10
106724.2198733471
 20
98008.14738734413
 30
0.0000005875452676
 11
106724.214483204
 21
98008.14918527239
 31
0.0000005875452676
  0
LINE
  5
511D6
330
1F
100
AcDbEntity
  8
freecads.com
100
AcDbLine
 10
106724.2252634903
 20
98008.14379148761
 30
0.0000005875452676
 11
106724.2198733471
 21
98008.14738734413
 31
0.0000005875452676
  0
LINE
  5
511D7
330
1F
100
AcDbEntity
  8
freecads.com
100
AcDbLine
 10
106724.2306536334
 20
98008.14019563111
 30
0.0000005875452676
 11
106724.2252634903
 21
98008.14379148761
 31
0.0000005875452676
  0
LINE
  5
511D8
330
1F
100
AcDbEntity
  8
freecads.com
100
AcDbLine
 10
106724.2360437765
 20
98008.13659977459
 30
0.0000005875452676
 11
106724.2306536334
 21
98008.14019563111
 31
0.0000005875452676
  0
LINE
  5
511D9
330
1F
100
AcDbEntity
  8
freecads.com
100
AcDbLine
 10
106724.2441289913
 20
98008.13480184633
 30
0.0000005875452676
 11
106724.2360437765
 21
98008.13659977459
 31
0.0000005875452676
  0
LINE
  5
511DA
330
1F
100
AcDbEntity
  8
freecads.com
100
AcDbLine
 10
106724.2504174916
 20
98008.12850909744
 30
0.0000005875452676
 11
106724.2441289913
 21
98008.13480184633
 31
0.0000005875452676
  0
LINE
  5
511DB
330
1F
100
AcDbEntity
  8
freecads.com
100
AcDbLine
 10
106724.2638928495
 20
98008.12671116919
 30
0.0000005875452676
 11
106724.2504174916
 21
98008.12850909744
 31
0.0000005875452676
  0
LINE
  5
511DC
330
1F
100
AcDbEntity
  8
freecads.com
100
AcDbLine
 10
106724.2701813498
 20
98008.13570081047
 30
0.0000005875452676
 11
106724.2674862782
 21
98008.1303070257
 31
0.0000005875452676
  0
LINE
  5
511DD
330
1F
100
AcDbEntity
  8
freecads.com
100
AcDbLine
 10
106724.271079707
 20
98008.14109459524
 30
0.0000005875452676
 11
106724.2701813498
 21
98008.13570081047
 31
0.0000005875452676
  0
LINE
  5
511DE
330
1F
100
AcDbEntity
  8
freecads.com
100
AcDbLine
 10
106724.2701813498
 20
98008.14558941587
 30
0.0000005875452676
 11
106724.271079707
 21
98008.14109459524
 31
0.0000005875452676
  0
LINE
  5
511DF
330
1F
100
AcDbEntity
  8
freecads.com
100
AcDbLine
 10
106724.2719780642
 20
98008.15098320065
 30
0.0000005875452676
 11
106724.2701813498
 21
98008.14558941587
 31
0.0000005875452676
  0
LINE
  5
511E0
330
1F
100
AcDbEntity
  8
freecads.com
100
AcDbLine
 10
106724.2746731358
 20
98008.15637698541
 30
0.0000005875452676
 11
106724.2719780642
 21
98008.15098320065
 31
0.0000005875452676
  0
LINE
  5
511E1
330
1F
100
AcDbEntity
  8
freecads.com
100
AcDbLine
 10
106724.2046012749
 20
98008.16716455495
 30
0.0000005875452676
 11
106724.2081947036
 21
98008.16536662669
 31
0.0000005875452676
  0
LINE
  5
511E2
330
1F
100
AcDbEntity
  8
freecads.com
100
AcDbLine
 10
106724.2037029177
 20
98008.17165937559
 30
0.0000005875452676
 11
106724.2046012749
 21
98008.16716455495
 31
0.0000005875452676
  0
LINE
  5
511E3
330
1F
100
AcDbEntity
  8
freecads.com
100
AcDbLine
 10
106724.2063979892
 20
98008.17615419623
 30
0.0000005875452676
 11
106724.2037029177
 21
98008.17165937559
 31
0.0000005875452676
  0
LINE
  5
511E4
330
1F
100
AcDbEntity
  8
freecads.com
100
AcDbLine
 10
106724.209991418
 20
98008.18154798099
 30
0.0000005875452676
 11
106724.2063979892
 21
98008.17615419623
 31
0.0000005875452676
  0
LINE
  5
511E5
330
1F
100
AcDbEntity
  8
freecads.com
100
AcDbLine
 10
106724.2153815612
 20
98008.18604280165
 30
0.0000005875452676
 11
106724.209991418
 21
98008.18154798099
 31
0.0000005875452676
  0
LINE
  5
511E6
330
1F
100
AcDbEntity
  8
freecads.com
100
AcDbLine
 10
106724.2198733471
 20
98008.19143658641
 30
0.0000005875452676
 11
106724.2153815612
 21
98008.18604280165
 31
0.0000005875452676
  0
LINE
  5
511E7
330
1F
100
AcDbEntity
  8
freecads.com
100
AcDbLine
 10
106724.2495191344
 20
98008.19053762227
 30
0.0000005875452676
 11
106724.2531125632
 21
98008.19413347879
 31
0.0000005875452676
  0
LINE
  5
511E8
330
1F
100
AcDbEntity
  8
freecads.com
100
AcDbLine
 10
106724.2495191344
 20
98008.18424487339
 30
0.0000005875452676
 11
106724.2495191344
 21
98008.19053762227
 31
0.0000005875452676
  0
LINE
  5
511E9
330
1F
100
AcDbEntity
  8
freecads.com
100
AcDbLine
 10
106724.2405355625
 20
98008.17885108861
 30
0.0000005875452676
 11
106724.2315519906
 21
98008.17435626798
 31
0.0000005875452676
  0
LINE
  5
511EA
330
1F
100
AcDbEntity
  8
freecads.com
100
AcDbLine
 10
106724.2459257057
 20
98008.18334590925
 30
0.0000005875452676
 11
106724.2405355625
 21
98008.17885108861
 31
0.0000005875452676
  0
LINE
  5
511EB
330
1F
100
AcDbEntity
  8
freecads.com
100
AcDbLine
 10
106724.2558076348
 20
98008.18424487339
 30
0.0000005875452676
 11
106724.2459257057
 21
98008.18334590925
 31
0.0000005875452676
  0
LINE
  5
511EC
330
1F
100
AcDbEntity
  8
freecads.com
100
AcDbLine
 10
106724.2620961351
 20
98008.18604280165
 30
0.0000005875452676
 11
106724.2558076348
 21
98008.18424487339
 31
0.0000005875452676
  0
LINE
  5
511ED
330
1F
100
AcDbEntity
  8
freecads.com
100
AcDbLine
 10
106724.2701813498
 20
98008.18244694513
 30
0.0000005875452676
 11
106724.2620961351
 21
98008.18604280165
 31
0.0000005875452676
  0
LINE
  5
511EE
330
1F
100
AcDbEntity
  8
freecads.com
100
AcDbLine
 10
106724.2755714929
 20
98008.17795212449
 30
0.0000005875452676
 11
106724.2701813498
 21
98008.18244694513
 31
0.0000005875452676
  0
LINE
  5
511EF
330
1F
100
AcDbEntity
  8
freecads.com
100
AcDbLine
 10
106724.2728764214
 20
98008.17345730385
 30
0.0000005875452676
 11
106724.2755714929
 21
98008.17795212449
 31
0.0000005875452676
  0
LINE
  5
511F0
330
1F
100
AcDbEntity
  8
freecads.com
100
AcDbLine
 10
106724.2486207772
 20
98008.15547802129
 30
0.0000005875452676
 11
106724.2468240628
 21
98008.15008423651
 31
0.0000005875452676
  0
LINE
  5
511F1
330
1F
100
AcDbEntity
  8
freecads.com
100
AcDbLine
 10
106724.2540109204
 20
98008.15997284193
 30
0.0000005875452676
 11
106724.2486207772
 21
98008.15547802129
 31
0.0000005875452676
  0
LINE
  5
511F2
330
1F
100
AcDbEntity
  8
freecads.com
100
AcDbLine
 10
106724.2576043491
 20
98008.16356869844
 30
0.0000005875452676
 11
106724.2540109204
 21
98008.15997284193
 31
0.0000005875452676
  0
LINE
  5
511F3
330
1F
100
AcDbEntity
  8
freecads.com
100
AcDbLine
 10
106724.2620961351
 20
98008.16896248321
 30
0.0000005875452676
 11
106724.2576043491
 21
98008.16356869844
 31
0.0000005875452676
  0
LINE
  5
511F4
330
1F
100
AcDbEntity
  8
freecads.com
100
AcDbLine
 10
106724.2656895639
 20
98008.17255833973
 30
0.0000005875452676
 11
106724.2620961351
 21
98008.16896248321
 31
0.0000005875452676
  0
LINE
  5
511F5
330
1F
100
AcDbEntity
  8
freecads.com
100
AcDbLine
 10
106724.2701813498
 20
98008.17345730385
 30
0.0000005875452676
 11
106724.2656895639
 21
98008.17255833973
 31
0.0000005875452676
  0
LINE
  5
511F6
330
1F
100
AcDbEntity
  8
freecads.com
100
AcDbLine
 10
106724.2054996321
 20
98008.09614638883
 30
0.0000005875452676
 11
106724.2054996321
 21
98008.10154017359
 31
0.0000005875452676
  0
LINE
  5
511F7
330
1F
100
AcDbEntity
  8
freecads.com
100
AcDbLine
 10
106724.2081947036
 20
98008.09255053231
 30
0.0000005875452676
 11
106724.2054996321
 21
98008.09614638883
 31
0.0000005875452676
  0
LINE
  5
511F8
330
1F
100
AcDbEntity
  8
freecads.com
100
AcDbLine
 10
106724.2090930608
 20
98008.08805571168
 30
0.0000005875452676
 11
106724.2081947036
 21
98008.09255053231
 31
0.0000005875452676
  0
LINE
  5
511F9
330
1F
100
AcDbEntity
  8
freecads.com
100
AcDbLine
 10
106724.2126864896
 20
98008.08445985516
 30
0.0000005875452676
 11
106724.2090930608
 21
98008.08805571168
 31
0.0000005875452676
  0
LINE
  5
511FA
330
1F
100
AcDbEntity
  8
freecads.com
100
AcDbLine
 10
106724.2162799183
 20
98008.07906607039
 30
0.0000005875452676
 11
106724.2126864896
 21
98008.08445985516
 31
0.0000005875452676
  0
LINE
  5
511FB
330
1F
100
AcDbEntity
  8
freecads.com
100
AcDbLine
 10
106724.2252634903
 20
98008.07367228562
 30
0.0000005875452676
 11
106724.2162799183
 21
98008.07906607039
 31
0.0000005875452676
  0
LINE
  5
511FC
330
1F
100
AcDbEntity
  8
freecads.com
100
AcDbLine
 10
106724.228856919
 20
98008.07457124975
 30
0.0000005875452676
 11
106724.2252634903
 21
98008.07367228562
 31
0.0000005875452676
  0
LINE
  5
511FD
330
1F
100
AcDbEntity
  8
freecads.com
100
AcDbLine
 10
106724.2369421337
 20
98008.07097539324
 30
0.0000005875452676
 11
106724.228856919
 21
98008.07457124975
 31
0.0000005875452676
  0
LINE
  5
511FE
330
1F
100
AcDbEntity
  8
freecads.com
100
AcDbLine
 10
106724.2441289913
 20
98008.07007642911
 30
0.0000005875452676
 11
106724.2369421337
 21
98008.07097539324
 31
0.0000005875452676
  0
LINE
  5
511FF
330
1F
100
AcDbEntity
  8
freecads.com
100
AcDbLine
 10
106724.2513158488
 20
98008.07007642911
 30
0.0000005875452676
 11
106724.2441289913
 21
98008.07007642911
 31
0.0000005875452676
  0
LINE
  5
51200
330
1F
100
AcDbEntity
  8
freecads.com
100
AcDbLine
 10
106724.2567059919
 20
98008.07097539324
 30
0.0000005875452676
 11
106724.2513158488
 21
98008.07007642911
 31
0.0000005875452676
  0
LINE
  5
51201
330
1F
100
AcDbEntity
  8
freecads.com
100
AcDbLine
 10
106724.2585027063
 20
98008.076369178
 30
0.0000005875452676
 11
106724.2567059919
 21
98008.07097539324
 31
0.0000005875452676
  0
LINE
  5
51202
330
1F
100
AcDbEntity
  8
freecads.com
100
AcDbLine
 10
106724.2585027063
 20
98008.08356089103
 30
0.0000005875452676
 11
106724.2585027063
 21
98008.076369178
 31
0.0000005875452676
  0
LINE
  5
51203
330
1F
100
AcDbEntity
  8
freecads.com
100
AcDbLine
 10
106724.2117881324
 20
98008.13839770285
 30
0.0000005875452676
 11
106724.2171782756
 21
98008.14379148761
 31
0.0000005875452676
  0
LINE
  5
51204
330
1F
100
AcDbEntity
  8
freecads.com
100
AcDbLine
 10
106724.2108897752
 20
98008.1303070257
 30
0.0000005875452676
 11
106724.2117881324
 21
98008.13839770285
 31
0.0000005875452676
  0
LINE
  5
51205
330
1F
100
AcDbEntity
  8
freecads.com
100
AcDbLine
 10
106724.2090930608
 20
98008.12131738441
 30
0.0000005875452676
 11
106724.2108897752
 21
98008.1303070257
 31
0.0000005875452676
  0
LINE
  5
51206
330
1F
100
AcDbEntity
  8
freecads.com
100
AcDbLine
 10
106724.2081947036
 20
98008.11052981488
 30
0.0000005875452676
 11
106724.2090930608
 21
98008.12131738441
 31
0.0000005875452676
  0
LINE
  5
51207
330
1F
100
AcDbEntity
  8
freecads.com
100
AcDbLine
 10
106724.2090930608
 20
98008.10064120947
 30
0.0000005875452676
 11
106724.2081947036
 21
98008.11052981488
 31
0.0000005875452676
  0
LINE
  5
51208
330
1F
100
AcDbEntity
  8
freecads.com
100
AcDbLine
 10
106724.2153815612
 20
98008.09344949644
 30
0.0000005875452676
 11
106724.2090930608
 21
98008.10064120947
 31
0.0000005875452676
  0
LINE
  5
51209
330
1F
100
AcDbEntity
  8
freecads.com
100
AcDbLine
 10
106724.2180766327
 20
98008.09075260405
 30
0.0000005875452676
 11
106724.2153815612
 21
98008.09344949644
 31
0.0000005875452676
  0
LINE
  5
5120A
330
1F
100
AcDbEntity
  8
freecads.com
100
AcDbLine
 10
106724.2252634903
 20
98008.08715674754
 30
0.0000005875452676
 11
106724.2180766327
 21
98008.09075260405
 31
0.0000005875452676
  0
LINE
  5
5120B
330
1F
100
AcDbEntity
  8
freecads.com
100
AcDbLine
 10
106724.228856919
 20
98008.08805571168
 30
0.0000005875452676
 11
106724.2252634903
 21
98008.08715674754
 31
0.0000005875452676
  0
LINE
  5
5120C
330
1F
100
AcDbEntity
  8
freecads.com
100
AcDbLine
 10
106724.2306536334
 20
98008.09434846057
 30
0.0000005875452676
 11
106724.228856919
 21
98008.08805571168
 31
0.0000005875452676
  0
LINE
  5
5120D
330
1F
100
AcDbEntity
  8
freecads.com
100
AcDbLine
 10
106724.233348705
 20
98008.09974224534
 30
0.0000005875452676
 11
106724.2306536334
 21
98008.09434846057
 31
0.0000005875452676
  0
LINE
  5
5120E
330
1F
100
AcDbEntity
  8
freecads.com
100
AcDbLine
 10
106724.2324503478
 20
98008.10603499423
 30
0.0000005875452676
 11
106724.233348705
 21
98008.09974224534
 31
0.0000005875452676
  0
LINE
  5
5120F
330
1F
100
AcDbEntity
  8
freecads.com
100
AcDbLine
 10
106724.2342470622
 20
98008.10693395836
 30
0.0000005875452676
 11
106724.228856919
 21
98008.10963085076
 31
0.0000005875452676
  0
LINE
  5
51210
330
1F
100
AcDbEntity
  8
freecads.com
100
AcDbLine
 10
106724.2405355625
 20
98008.09794431708
 30
0.0000005875452676
 11
106724.2342470622
 21
98008.10693395836
 31
0.0000005875452676
  0
LINE
  5
51211
330
1F
100
AcDbEntity
  8
freecads.com
100
AcDbLine
 10
106724.2468240628
 20
98008.09075260405
 30
0.0000005875452676
 11
106724.2405355625
 21
98008.09794431708
 31
0.0000005875452676
  0
LINE
  5
51212
330
1F
100
AcDbEntity
  8
freecads.com
100
AcDbLine
 10
106724.2540109204
 20
98008.08715674754
 30
0.0000005875452676
 11
106724.2468240628
 21
98008.09075260405
 31
0.0000005875452676
  0
LINE
  5
51213
330
1F
100
AcDbEntity
  8
freecads.com
100
AcDbLine
 10
106724.2647912067
 20
98008.08356089103
 30
0.0000005875452676
 11
106724.2540109204
 21
98008.08715674754
 31
0.0000005875452676
  0
LINE
  5
51214
330
1F
100
AcDbEntity
  8
freecads.com
100
AcDbLine
 10
106724.2755714929
 20
98008.08445985516
 30
0.0000005875452676
 11
106724.2647912067
 21
98008.08356089103
 31
0.0000005875452676
  0
LINE
  5
51215
330
1F
100
AcDbEntity
  8
freecads.com
100
AcDbLine
 10
106724.2674862782
 20
98008.12131738441
 30
0.0000005875452676
 11
106724.2674862782
 21
98008.12850909744
 31
0.0000005875452676
  0
LINE
  5
51216
330
1F
100
AcDbEntity
  8
freecads.com
100
AcDbLine
 10
106724.2674862782
 20
98008.10963085076
 30
0.0000005875452676
 11
106724.2674862782
 21
98008.12131738441
 31
0.0000005875452676
  0
LINE
  5
51217
330
1F
100
AcDbEntity
  8
freecads.com
100
AcDbLine
 10
106724.2683846354
 20
98008.10243913772
 30
0.0000005875452676
 11
106724.2674862782
 21
98008.10963085076
 31
0.0000005875452676
  0
LINE
  5
51218
330
1F
100
AcDbEntity
  8
freecads.com
100
AcDbLine
 10
106724.271079707
 20
98008.09344949644
 30
0.0000005875452676
 11
106724.2683846354
 21
98008.10243913772
 31
0.0000005875452676
  0
LINE
  5
51219
330
1F
100
AcDbEntity
  8
freecads.com
100
AcDbLine
 10
106724.2755714929
 20
98008.08715674754
 30
0.0000005875452676
 11
106724.271079707
 21
98008.09344949644
 31
0.0000005875452676
  0
LINE
  5
5121A
330
1F
100
AcDbEntity
  8
freecads.com
100
AcDbLine
 10
106724.2836567077
 20
98008.0826619269
 30
0.0000005875452676
 11
106724.2755714929
 21
98008.08715674754
 31
0.0000005875452676
  0
LINE
  5
5121B
330
1F
100
AcDbEntity
  8
freecads.com
100
AcDbLine
 10
106724.2908435652
 20
98008.07816710626
 30
0.0000005875452676
 11
106724.2836567077
 21
98008.0826619269
 31
0.0000005875452676
  0
LINE
  5
5121C
330
1F
100
AcDbEntity
  8
freecads.com
100
AcDbLine
 10
106724.2998271371
 20
98008.076369178
 30
0.0000005875452676
 11
106724.2908435652
 21
98008.07816710626
 31
0.0000005875452676
  0
LINE
  5
5121D
330
1F
100
AcDbEntity
  8
freecads.com
100
AcDbLine
 10
106724.3097090662
 20
98008.07367228562
 30
0.0000005875452676
 11
106724.2998271371
 21
98008.076369178
 31
0.0000005875452676
  0
LINE
  5
5121E
330
1F
100
AcDbEntity
  8
freecads.com
100
AcDbLine
 10
106724.294436994
 20
98008.09704535296
 30
0.0000005875452676
 11
106724.2935386368
 21
98008.10603499423
 31
0.0000005875452676
  0
LINE
  5
5121F
330
1F
100
AcDbEntity
  8
freecads.com
100
AcDbLine
 10
106724.2989287799
 20
98008.09165156818
 30
0.0000005875452676
 11
106724.294436994
 21
98008.09704535296
 31
0.0000005875452676
  0
LINE
  5
51220
330
1F
100
AcDbEntity
  8
freecads.com
100
AcDbLine
 10
106724.3043189231
 20
98008.08445985516
 30
0.0000005875452676
 11
106724.2989287799
 21
98008.09165156818
 31
0.0000005875452676
  0
LINE
  5
51221
330
1F
100
AcDbEntity
  8
freecads.com
100
AcDbLine
 10
106724.3079123518
 20
98008.08176296278
 30
0.0000005875452676
 11
106724.3043189231
 21
98008.08445985516
 31
0.0000005875452676
  0
LINE
  5
51222
330
1F
100
AcDbEntity
  8
freecads.com
100
AcDbLine
 10
106724.313302495
 20
98008.07726814214
 30
0.0000005875452676
 11
106724.3079123518
 21
98008.08176296278
 31
0.0000005875452676
  0
LINE
  5
51223
330
1F
100
AcDbEntity
  8
freecads.com
100
AcDbLine
 10
106724.3222860669
 20
98008.07187435736
 30
0.0000005875452676
 11
106724.313302495
 21
98008.07726814214
 31
0.0000005875452676
  0
LINE
  5
51224
330
1F
100
AcDbEntity
  8
freecads.com
100
AcDbLine
 10
106724.3339647104
 20
98008.07007642911
 30
0.0000005875452676
 11
106724.3222860669
 21
98008.07187435736
 31
0.0000005875452676
  0
LINE
  5
51225
330
1F
100
AcDbEntity
  8
freecads.com
100
AcDbLine
 10
106724.3411515679
 20
98008.0664805726
 30
0.0000005875452676
 11
106724.3339647104
 21
98008.07007642911
 31
0.0000005875452676
  0
LINE
  5
51226
330
1F
100
AcDbEntity
  8
freecads.com
100
AcDbLine
 10
106724.332167996
 20
98008.08805571168
 30
0.0000005875452676
 11
106724.3348630676
 21
98008.08176296278
 31
0.0000005875452676
  0
LINE
  5
51227
330
1F
100
AcDbEntity
  8
freecads.com
100
AcDbLine
 10
106724.3285745672
 20
98008.09344949644
 30
0.0000005875452676
 11
106724.332167996
 21
98008.08805571168
 31
0.0000005875452676
  0
LINE
  5
51228
330
1F
100
AcDbEntity
  8
freecads.com
100
AcDbLine
 10
106724.3537285686
 20
98008.06737953672
 30
0.0000005875452676
 11
106724.351033497
 21
98008.06917746498
 31
0.0000005875452676
  0
LINE
  5
51229
330
1F
100
AcDbEntity
  8
freecads.com
100
AcDbLine
 10
106724.3725940696
 20
98008.07547021388
 30
0.0000005875452676
 11
106724.374390784
 21
98008.06737953672
 31
0.0000005875452676
  0
LINE
  5
5122A
330
1F
100
AcDbEntity
  8
freecads.com
100
AcDbLine
 10
106724.3492367826
 20
98008.07277332149
 30
0.0000005875452676
 11
106724.3519318542
 21
98008.06737953672
 31
0.0000005875452676
  0
LINE
  5
5122B
330
1F
100
AcDbEntity
  8
freecads.com
100
AcDbLine
 10
106724.3429482823
 20
98008.08086399865
 30
0.0000005875452676
 11
106724.3492367826
 21
98008.07277332149
 31
0.0000005875452676
  0
LINE
  5
5122C
330
1F
100
AcDbEntity
  8
freecads.com
100
AcDbLine
 10
106724.3384564963
 20
98008.08625778342
 30
0.0000005875452676
 11
106724.3429482823
 21
98008.08086399865
 31
0.0000005875452676
  0
LINE
  5
5122D
330
1F
100
AcDbEntity
  8
freecads.com
100
AcDbLine
 10
106724.3348630676
 20
98008.09165156818
 30
0.0000005875452676
 11
106724.3384564963
 21
98008.08625778342
 31
0.0000005875452676
  0
LINE
  5
5122E
330
1F
100
AcDbEntity
  8
freecads.com
100
AcDbLine
 10
106724.3294729244
 20
98008.0952474247
 30
0.0000005875452676
 11
106724.3348630676
 21
98008.09165156818
 31
0.0000005875452676
  0
LINE
  5
5122F
330
1F
100
AcDbEntity
  8
freecads.com
100
AcDbLine
 10
106724.3393548535
 20
98008.09614638883
 30
0.0000005875452676
 11
106724.3348630676
 21
98008.09794431708
 31
0.0000005875452676
  0
LINE
  5
51230
330
1F
100
AcDbEntity
  8
freecads.com
100
AcDbLine
 10
106724.3438466395
 20
98008.09255053231
 30
0.0000005875452676
 11
106724.3393548535
 21
98008.09614638883
 31
0.0000005875452676
  0
LINE
  5
51231
330
1F
100
AcDbEntity
  8
freecads.com
100
AcDbLine
 10
106724.3519318542
 20
98008.08715674754
 30
0.0000005875452676
 11
106724.3438466395
 21
98008.09255053231
 31
0.0000005875452676
  0
LINE
  5
51232
330
1F
100
AcDbEntity
  8
freecads.com
100
AcDbLine
 10
106724.3582203545
 20
98008.08535881929
 30
0.0000005875452676
 11
106724.3519318542
 21
98008.08715674754
 31
0.0000005875452676
  0
LINE
  5
51233
330
1F
100
AcDbEntity
  8
freecads.com
100
AcDbLine
 10
106724.3681022836
 20
98008.08086399865
 30
0.0000005875452676
 11
106724.3582203545
 21
98008.08535881929
 31
0.0000005875452676
  0
LINE
  5
51234
330
1F
100
AcDbEntity
  8
freecads.com
100
AcDbLine
 10
106724.3734924268
 20
98008.07816710626
 30
0.0000005875452676
 11
106724.3681022836
 21
98008.08086399865
 31
0.0000005875452676
  0
LINE
  5
51235
330
1F
100
AcDbEntity
  8
freecads.com
100
AcDbLine
 10
106724.3806792843
 20
98008.07816710626
 30
0.0000005875452676
 11
106724.3734924268
 21
98008.07816710626
 31
0.0000005875452676
  0
LINE
  5
51236
330
1F
100
AcDbEntity
  8
freecads.com
100
AcDbLine
 10
106724.3851710703
 20
98008.08086399865
 30
0.0000005875452676
 11
106724.3806792843
 21
98008.07816710626
 31
0.0000005875452676
  0
LINE
  5
51237
330
1F
100
AcDbEntity
  8
freecads.com
100
AcDbLine
 10
106724.3851710703
 20
98008.08805571168
 30
0.0000005875452676
 11
106724.3851710703
 21
98008.08086399865
 31
0.0000005875452676
  0
LINE
  5
51238
330
1F
100
AcDbEntity
  8
freecads.com
100
AcDbLine
 10
106724.3824759987
 20
98008.09344949644
 30
0.0000005875452676
 11
106724.3851710703
 21
98008.08805571168
 31
0.0000005875452676
  0
LINE
  5
51239
330
1F
100
AcDbEntity
  8
freecads.com
100
AcDbLine
 10
106724.3797809271
 20
98008.09884328122
 30
0.0000005875452676
 11
106724.3824759987
 21
98008.09344949644
 31
0.0000005875452676
  0
LINE
  5
5123A
330
1F
100
AcDbEntity
  8
freecads.com
100
AcDbLine
 10
106724.3734924268
 20
98008.10333810185
 30
0.0000005875452676
 11
106724.3797809271
 21
98008.09884328122
 31
0.0000005875452676
  0
LINE
  5
5123B
330
1F
100
AcDbEntity
  8
freecads.com
100
AcDbLine
 10
106724.3330663532
 20
98008.12221634853
 30
0.0000005875452676
 11
106724.3312696388
 21
98008.12221634853
 31
0.0000005875452676
  0
LINE
  5
5123C
330
1F
100
AcDbEntity
  8
freecads.com
100
AcDbLine
 10
106724.3375581391
 20
98008.12131738441
 30
0.0000005875452676
 11
106724.3330663532
 21
98008.12221634853
 31
0.0000005875452676
  0
LINE
  5
5123D
330
1F
100
AcDbEntity
  8
freecads.com
100
AcDbLine
 10
106724.3429482823
 20
98008.11951945616
 30
0.0000005875452676
 11
106724.3375581391
 21
98008.12131738441
 31
0.0000005875452676
  0
LINE
  5
5123E
330
1F
100
AcDbEntity
  8
freecads.com
100
AcDbLine
 10
106724.351033497
 20
98008.11592359965
 30
0.0000005875452676
 11
106724.3429482823
 21
98008.11951945616
 31
0.0000005875452676
  0
LINE
  5
5123F
330
1F
100
AcDbEntity
  8
freecads.com
100
AcDbLine
 10
106724.3591187117
 20
98008.11412567139
 30
0.0000005875452676
 11
106724.351033497
 21
98008.11592359965
 31
0.0000005875452676
  0
LINE
  5
51240
330
1F
100
AcDbEntity
  8
freecads.com
100
AcDbLine
 10
106724.3672039264
 20
98008.10873188662
 30
0.0000005875452676
 11
106724.3591187117
 21
98008.11412567139
 31
0.0000005875452676
  0
LINE
  5
51241
330
1F
100
AcDbEntity
  8
freecads.com
100
AcDbLine
 10
106724.3797809271
 20
98008.10333810185
 30
0.0000005875452676
 11
106724.3672039264
 21
98008.10873188662
 31
0.0000005875452676
  0
LINE
  5
51242
330
1F
100
AcDbEntity
  8
freecads.com
100
AcDbLine
 10
106724.3788825699
 20
98008.10963085076
 30
0.0000005875452676
 11
106724.3797809271
 21
98008.10333810185
 31
0.0000005875452676
  0
LINE
  5
51243
330
1F
100
AcDbEntity
  8
freecads.com
100
AcDbLine
 10
106724.3797809271
 20
98008.11592359965
 30
0.0000005875452676
 11
106724.3788825699
 21
98008.10963085076
 31
0.0000005875452676
  0
LINE
  5
51244
330
1F
100
AcDbEntity
  8
freecads.com
100
AcDbLine
 10
106724.3779842127
 20
98008.12131738441
 30
0.0000005875452676
 11
106724.3797809271
 21
98008.11592359965
 31
0.0000005875452676
  0
LINE
  5
51245
330
1F
100
AcDbEntity
  8
freecads.com
100
AcDbLine
 10
106724.3734924268
 20
98008.12671116919
 30
0.0000005875452676
 11
106724.3779842127
 21
98008.12131738441
 31
0.0000005875452676
  0
LINE
  5
51246
330
1F
100
AcDbEntity
  8
freecads.com
100
AcDbLine
 10
106724.3681022836
 20
98008.1303070257
 30
0.0000005875452676
 11
106724.3734924268
 21
98008.12671116919
 31
0.0000005875452676
  0
LINE
  5
51247
330
1F
100
AcDbEntity
  8
freecads.com
100
AcDbLine
 10
106724.3357614248
 20
98008.13839770285
 30
0.0000005875452676
 11
106724.3294729244
 21
98008.13929666698
 31
0.0000005875452676
  0
LINE
  5
51248
330
1F
100
AcDbEntity
  8
freecads.com
100
AcDbLine
 10
106724.346541711
 20
98008.13749873872
 30
0.0000005875452676
 11
106724.3357614248
 21
98008.13839770285
 31
0.0000005875452676
  0
LINE
  5
51249
330
1F
100
AcDbEntity
  8
freecads.com
100
AcDbLine
 10
106724.3546269257
 20
98008.13570081047
 30
0.0000005875452676
 11
106724.346541711
 21
98008.13749873872
 31
0.0000005875452676
  0
LINE
  5
5124A
330
1F
100
AcDbEntity
  8
freecads.com
100
AcDbLine
 10
106724.3618137833
 20
98008.13210495395
 30
0.0000005875452676
 11
106724.3546269257
 21
98008.13570081047
 31
0.0000005875452676
  0
LINE
  5
5124B
330
1F
100
AcDbEntity
  8
freecads.com
100
AcDbLine
 10
106724.3779842127
 20
98008.12940806157
 30
0.0000005875452676
 11
106724.3618137833
 21
98008.13210495395
 31
0.0000005875452676
  0
LINE
  5
5124C
330
1F
100
AcDbEntity
  8
freecads.com
100
AcDbLine
 10
106724.3752891412
 20
98008.13480184633
 30
0.0000005875452676
 11
106724.3779842127
 21
98008.12940806157
 31
0.0000005875452676
  0
LINE
  5
5124D
330
1F
100
AcDbEntity
  8
freecads.com
100
AcDbLine
 10
106724.3725940696
 20
98008.14469045175
 30
0.0000005875452676
 11
106724.3752891412
 21
98008.13480184633
 31
0.0000005875452676
  0
LINE
  5
5124E
330
1F
100
AcDbEntity
  8
freecads.com
100
AcDbLine
 10
106724.3645088549
 20
98008.14828630825
 30
0.0000005875452676
 11
106724.3725940696
 21
98008.14469045175
 31
0.0000005875452676
  0
LINE
  5
5124F
330
1F
100
AcDbEntity
  8
freecads.com
100
AcDbLine
 10
106724.3537285686
 20
98008.15457905715
 30
0.0000005875452676
 11
106724.3645088549
 21
98008.14828630825
 31
0.0000005875452676
  0
LINE
  5
51250
330
1F
100
AcDbEntity
  8
freecads.com
100
AcDbLine
 10
106724.3447449967
 20
98008.15817491367
 30
0.0000005875452676
 11
106724.3537285686
 21
98008.15457905715
 31
0.0000005875452676
  0
LINE
  5
51251
330
1F
100
AcDbEntity
  8
freecads.com
100
AcDbLine
 10
106724.3357614248
 20
98008.16266973431
 30
0.0000005875452676
 11
106724.3447449967
 21
98008.15817491367
 31
0.0000005875452676
  0
LINE
  5
51252
330
1F
100
AcDbEntity
  8
freecads.com
100
AcDbLine
 10
106724.3231844241
 20
98008.16446766257
 30
0.0000005875452676
 11
106724.3357614248
 21
98008.16266973431
 31
0.0000005875452676
  0
LINE
  5
51253
330
1F
100
AcDbEntity
  8
freecads.com
100
AcDbLine
 10
106724.308810709
 20
98008.16446766257
 30
0.0000005875452676
 11
106724.3231844241
 21
98008.16446766257
 31
0.0000005875452676
  0
LINE
  5
51254
330
1F
100
AcDbEntity
  8
freecads.com
100
AcDbLine
 10
106724.2962337084
 20
98008.16356869844
 30
0.0000005875452676
 11
106724.308810709
 21
98008.16446766257
 31
0.0000005875452676
  0
LINE
  5
51255
330
1F
100
AcDbEntity
  8
freecads.com
100
AcDbLine
 10
106724.2818599933
 20
98008.15907387779
 30
0.0000005875452676
 11
106724.2962337084
 21
98008.16356869844
 31
0.0000005875452676
  0
LINE
  5
51256
330
1F
100
AcDbEntity
  8
freecads.com
100
AcDbLine
 10
106724.38379622
 20
98008.11302912194
 30
0.0000005875452676
 11
106724.3917102005
 21
98008.11302912194
 31
0.0000005875452676
  0
LINE
  5
51257
330
1F
100
AcDbEntity
  8
freecads.com
100
AcDbLine
 10
106724.3185845651
 20
98008.11144155815
 30
0.0000005875452676
 11
106724.3301753992
 21
98008.09597681933
 31
0.0000005875452676
  0
LINE
  5
51258
330
1F
100
AcDbEntity
  8
freecads.com
100
AcDbLine
 10
106724.3031301196
 20
98008.1307724817
 30
0.0000005875452676
 11
106724.3185845651
 21
98008.11144155815
 31
0.0000005875452676
  0
LINE
  5
51259
330
1F
100
AcDbEntity
  8
freecads.com
100
AcDbLine
 10
106724.3031301196
 20
98008.13850485111
 30
0.0000005875452676
 11
106724.3031301196
 21
98008.1307724817
 31
0.0000005875452676
  0
LINE
  5
5125A
330
1F
100
AcDbEntity
  8
freecads.com
100
AcDbLine
 10
106724.2915392854
 20
98008.15010340523
 30
0.0000005875452676
 11
106724.3031301196
 21
98008.13850485111
 31
0.0000005875452676
  0
LINE
  5
5125B
330
1F
100
AcDbEntity
  8
freecads.com
100
AcDbLine
 10
106723.6368964539
 20
98007.82586972472
 30
0.0000006466627627
 11
106724.3953807756
 21
98007.82586972472
 31
0.0000006466627627
  0
LINE
  5
5125C
330
1F
100
AcDbEntity
  8
freecads.com
100
AcDbLine
 10
106724.3953807756
 20
98007.82586972472
 30
0.0000006466627627
 11
106724.3953807756
 21
98008.04950466124
 31
0.0000006466627627
  0
LINE
  5
5125D
330
1F
100
AcDbEntity
  8
freecads.com
100
AcDbLine
 10
106724.3953807756
 20
98008.04950466124
 30
0.0000006466627627
 11
106723.6368964539
 21
98008.04950466124
 31
0.0000006466627627
  0
LINE
  5
5125E
330
1F
100
AcDbEntity
  8
freecads.com
100
AcDbLine
 10
106723.6368964539
 20
98008.04950466124
 30
0.0000006466627627
 11
106723.6368964539
 21
98007.82586972472
 31
0.0000006466627627
  0
ENDSEC
  0
SECTION
  2
OBJECTS
  0
DICTIONARY
  5
C
330
0
100
AcDbDictionary
281
     1
  3
ACAD_ASSOCPERSSUBENTMANAGER
350
2C1D4
  3
ACAD_CIP_PREVIOUS_PRODUCT_INFO
350
1A5
  3
ACAD_COLOR
350
73
  3
ACAD_DETAILVIEWSTYLE
350
1AB
  3
ACAD_GROUP
350
D
  3
ACAD_LAYOUT
350
1A
  3
ACAD_MATERIAL
350
72
  3
ACAD_MLEADERSTYLE
350
D7
  3
ACAD_MLINESTYLE
350
17
  3
ACAD_PLOTSETTINGS
350
19
  3
ACAD_PLOTSTYLENAME
350
E
  3
ACAD_SCALELIST
350
B6
  3
ACAD_SECTIONVIEWSTYLE
350
1A8
  3
ACAD_TABLESTYLE
350
86
  3
ACAD_VISUALSTYLE
350
99
  3
ACDB_RECOMPOSE_DATA
350
5126F
  3
ACDBVARIABLEDICTIONARY
350
4A0D5
  3
AEC_PROPERTY_SET_DEFS
350
22D1
  0
DICTIONARY
  5
18E
330
2
100
AcDbDictionary
280
     1
281
     1
  3
ACAD_LAYERSTATES
360
18F
  0
DICTIONARY
  5
E6
330
10
100
AcDbDictionary
280
     1
281
     1
  0
DICTIONARY
  5
15D
330
1F
100
AcDbDictionary
280
     1
281
     1
  3
ACAD_SORTENTS
360
28E
  0
ACDBASSOCPERSSUBENTMANAGER
  5
2C1D4
102
{ACAD_REACTORS
330
C
102
}
330
C
100
AcDbAssocPersSubentManager
 90
        2
 90
        3
 90
        0
 90
        2
 90
     1260
 90
        0
 90
     1260
 90
        1
 90
        2
 90
        3
 90
        4
 90
        5
 90
        6
 90
        7
 90
        8
 90
        9
 90
       10
 90
       11
 90
       12
 90
       13
 90
       14
 90
       15
 90
       16
 90
       17
 90
       18
 90
       19
 90
       20
 90
       21
 90
       22
 90
       23
 90
       24
 90
       25
 90
       26
 90
       27
 90
       28
 90
       29
 90
       30
 90
       31
 90
       32
 90
       33
 90
       34
 90
       35
 90
       36
 90
       37
 90
       38
 90
       39
 90
       40
 90
       41
 90
       42
 90
       43
 90
       44
 90
       45
 90
       46
 90
       47
 90
       48
 90
       49
 90
       50
 90
       51
 90
       52
 90
       53
 90
       54
 90
       55
 90
       56
 90
       57
 90
       58
 90
       59
 90
       60
 90
       61
 90
       62
 90
       63
 90
       64
 90
       65
 90
       66
 90
       67
 90
       68
 90
       69
 90
       70
 90
       71
 90
       72
 90
       73
 90
       74
 90
       75
 90
       76
 90
       77
 90
       78
 90
       79
 90
       80
 90
       81
 90
       82
 90
       83
 90
       84
 90
       85
 90
       86
 90
       87
 90
       88
 90
       89
 90
       90
 90
       91
 90
       92
 90
       93
 90
       94
 90
       95
 90
       96
 90
       97
 90
       98
 90
       99
 90
      100
 90
      101
 90
      102
 90
      103
 90
      104
 90
      105
 90
      106
 90
      107
 90
      108
 90
      109
 90
      110
 90
      111
 90
      112
 90
      113
 90
      114
 90
      115
 90
      116
 90
      117
 90
      118
 90
      119
 90
      120
 90
      121
 90
      122
 90
      123
 90
      124
 90
      125
 90
      126
 90
      127
 90
      128
 90
      129
 90
      130
 90
      131
 90
      132
 90
      133
 90
      134
 90
      135
 90
      136
 90
      137
 90
      138
 90
      139
 90
      140
 90
      141
 90
      142
 90
      143
 90
      144
 90
      145
 90
      146
 90
      147
 90
      148
 90
      149
 90
      150
 90
      151
 90
      152
 90
      153
 90
      154
 90
      155
 90
      156
 90
      157
 90
      158
 90
      159
 90
      160
 90
      161
 90
      162
 90
      163
 90
      164
 90
      165
 90
      166
 90
      167
 90
      168
 90
      169
 90
      170
 90
      171
 90
      172
 90
      173
 90
      174
 90
      175
 90
      176
 90
      177
 90
      178
 90
      179
 90
      180
 90
      181
 90
      182
 90
      183
 90
      184
 90
      185
 90
      186
 90
      187
 90
      188
 90
      189
 90
      190
 90
      191
 90
      192
 90
      193
 90
      194
 90
      195
 90
      196
 90
      197
 90
      198
 90
      199
 90
      200
 90
      201
 90
      202
 90
      203
 90
      204
 90
      205
 90
      206
 90
      207
 90
      208
 90
      209
 90
      210
 90
      211
 90
      212
 90
      213
 90
      214
 90
      215
 90
      216
 90
      217
 90
      218
 90
      219
 90
      220
 90
      221
 90
      222
 90
      223
 90
      224
 90
      225
 90
      226
 90
      227
 90
      228
 90
      229
 90
      230
 90
      231
 90
      232
 90
      233
 90
      234
 90
      235
 90
      236
 90
      237
 90
      238
 90
      239
 90
      240
 90
      241
 90
      242
 90
      243
 90
      244
 90
      245
 90
      246
 90
      247
 90
      248
 90
      249
 90
      250
 90
      251
 90
      252
 90
      253
 90
      254
 90
      255
 90
      256
 90
      257
 90
      258
 90
      259
 90
      260
 90
      261
 90
      262
 90
      263
 90
      264
 90
      265
 90
      266
 90
      267
 90
      268
 90
      269
 90
      270
 90
      271
 90
      272
 90
      273
 90
      274
 90
      275
 90
      276
 90
      277
 90
      278
 90
      279
 90
      280
 90
      281
 90
      282
 90
      283
 90
      284
 90
      285
 90
      286
 90
      287
 90
      288
 90
      289
 90
      290
 90
      291
 90
      292
 90
      293
 90
      294
 90
      295
 90
      296
 90
      297
 90
      298
 90
      299
 90
      300
 90
      301
 90
      302
 90
      303
 90
      304
 90
      305
 90
      306
 90
      307
 90
      308
 90
      309
 90
      310
 90
      311
 90
      312
 90
      313
 90
      314
 90
      315
 90
      316
 90
      317
 90
      318
 90
      319
 90
      320
 90
      321
 90
      322
 90
      323
 90
      324
 90
      325
 90
      326
 90
      327
 90
      328
 90
      329
 90
      330
 90
      331
 90
      332
 90
      333
 90
      334
 90
      335
 90
      336
 90
      337
 90
      338
 90
      339
 90
      340
 90
      341
 90
      342
 90
      343
 90
      344
 90
      345
 90
      346
 90
      347
 90
      348
 90
      349
 90
      350
 90
      351
 90
      352
 90
      353
 90
      354
 90
      355
 90
      356
 90
      357
 90
      358
 90
      359
 90
      360
 90
      361
 90
      362
 90
      363
 90
      364
 90
      365
 90
      366
 90
      367
 90
      368
 90
      369
 90
      370
 90
      371
 90
      372
 90
      373
 90
      374
 90
      375
 90
      376
 90
      377
 90
      378
 90
      379
 90
      380
 90
      381
 90
      382
 90
      383
 90
      384
 90
      385
 90
      386
 90
      387
 90
      388
 90
      389
 90
      390
 90
      391
 90
      392
 90
      393
 90
      394
 90
      395
 90
      396
 90
      397
 90
      398
 90
      399
 90
      400
 90
      401
 90
      402
 90
      403
 90
      404
 90
      405
 90
      406
 90
      407
 90
      408
 90
      409
 90
      410
 90
      411
 90
      412
 90
      413
 90
      414
 90
      415
 90
      416
 90
      417
 90
      418
 90
      419
 90
      420
 90
      421
 90
      422
 90
      423
 90
      424
 90
      425
 90
      426
 90
      427
 90
      428
 90
      429
 90
      430
 90
      431
 90
      432
 90
      433
 90
      434
 90
      435
 90
      436
 90
      437
 90
      438
 90
      439
 90
      440
 90
      441
 90
      442
 90
      443
 90
      444
 90
      445
 90
      446
 90
      447
 90
      448
 90
      449
 90
      450
 90
      451
 90
      452
 90
      453
 90
      454
 90
      455
 90
      456
 90
      457
 90
      458
 90
      459
 90
      460
 90
      461
 90
      462
 90
      463
 90
      464
 90
      465
 90
      466
 90
      467
 90
      468
 90
      469
 90
      470
 90
      471
 90
      472
 90
      473
 90
      474
 90
      475
 90
      476
 90
      477
 90
      478
 90
      479
 90
      480
 90
      481
 90
      482
 90
      483
 90
      484
 90
      485
 90
      486
 90
      487
 90
      488
 90
      489
 90
      490
 90
      491
 90
      492
 90
      493
 90
      494
 90
      495
 90
      496
 90
      497
 90
      498
 90
      499
 90
      500
 90
      501
 90
      502
 90
      503
 90
      504
 90
      505
 90
      506
 90
      507
 90
      508
 90
      509
 90
      510
 90
      511
 90
      512
 90
      513
 90
      514
 90
      515
 90
      516
 90
      517
 90
      518
 90
      519
 90
      520
 90
      521
 90
      522
 90
      523
 90
      524
 90
      525
 90
      526
 90
      527
 90
      528
 90
      529
 90
      530
 90
      531
 90
      532
 90
      533
 90
      534
 90
      535
 90
      536
 90
      537
 90
      538
 90
      539
 90
      540
 90
      541
 90
      542
 90
      543
 90
      544
 90
      545
 90
      546
 90
      547
 90
      548
 90
      549
 90
      550
 90
      551
 90
      552
 90
      553
 90
      554
 90
      555
 90
      556
 90
      557
 90
      558
 90
      559
 90
      560
 90
      561
 90
      562
 90
      563
 90
      564
 90
      565
 90
      566
 90
      567
 90
      568
 90
      569
 90
      570
 90
      571
 90
      572
 90
      573
 90
      574
 90
      575
 90
      576
 90
      577
 90
      578
 90
      579
 90
      580
 90
      581
 90
      582
 90
      583
 90
      584
 90
      585
 90
      586
 90
      587
 90
      588
 90
      589
 90
      590
 90
      591
 90
      592
 90
      593
 90
      594
 90
      595
 90
      596
 90
      597
 90
      598
 90
      599
 90
      600
 90
      601
 90
      602
 90
      603
 90
      604
 90
      605
 90
      606
 90
      607
 90
      608
 90
      609
 90
      610
 90
      611
 90
      612
 90
      613
 90
      614
 90
      615
 90
      616
 90
      617
 90
      618
 90
      619
 90
      620
 90
      621
 90
      622
 90
      623
 90
      624
 90
      625
 90
      626
 90
      627
 90
      628
 90
      629
 90
      630
 90
      631
 90
      632
 90
      633
 90
      634
 90
      635
 90
      636
 90
      637
 90
      638
 90
      639
 90
      640
 90
      641
 90
      642
 90
      643
 90
      644
 90
      645
 90
      646
 90
      647
 90
      648
 90
      649
 90
      650
 90
      651
 90
      652
 90
      653
 90
      654
 90
      655
 90
      656
 90
      657
 90
      658
 90
      659
 90
      660
 90
      661
 90
      662
 90
      663
 90
      664
 90
      665
 90
      666
 90
      667
 90
      668
 90
      669
 90
      670
 90
      671
 90
      672
 90
      673
 90
      674
 90
      675
 90
      676
 90
      677
 90
      678
 90
      679
 90
      680
 90
      681
 90
      682
 90
      683
 90
      684
 90
      685
 90
      686
 90
      687
 90
      688
 90
      689
 90
      690
 90
      691
 90
      692
 90
      693
 90
      694
 90
      695
 90
      696
 90
      697
 90
      698
 90
      699
 90
      700
 90
      701
 90
      702
 90
      703
 90
      704
 90
      705
 90
      706
 90
      707
 90
      708
 90
      709
 90
      710
 90
      711
 90
      712
 90
      713
 90
      714
 90
      715
 90
      716
 90
      717
 90
      718
 90
      719
 90
      720
 90
      721
 90
      722
 90
      723
 90
      724
 90
      725
 90
      726
 90
      727
 90
      728
 90
      729
 90
      730
 90
      731
 90
      732
 90
      733
 90
      734
 90
      735
 90
      736
 90
      737
 90
      738
 90
      739
 90
      740
 90
      741
 90
      742
 90
      743
 90
      744
 90
      745
 90
      746
 90
      747
 90
      748
 90
      749
 90
      750
 90
      751
 90
      752
 90
      753
 90
      754
 90
      755
 90
      756
 90
      757
 90
      758
 90
      759
 90
      760
 90
      761
 90
      762
 90
      763
 90
      764
 90
      765
 90
      766
 90
      767
 90
      768
 90
      769
 90
      770
 90
      771
 90
      772
 90
      773
 90
      774
 90
      775
 90
      776
 90
      777
 90
      778
 90
      779
 90
      780
 90
      781
 90
      782
 90
      783
 90
      784
 90
      785
 90
      786
 90
      787
 90
      788
 90
      789
 90
      790
 90
      791
 90
      792
 90
      793
 90
      794
 90
      795
 90
      796
 90
      797
 90
      798
 90
      799
 90
      800
 90
      801
 90
      802
 90
      803
 90
      804
 90
      805
 90
      806
 90
      807
 90
      808
 90
      809
 90
      810
 90
      811
 90
      812
 90
      813
 90
      814
 90
      815
 90
      816
 90
      817
 90
      818
 90
      819
 90
      820
 90
      821
 90
      822
 90
      823
 90
      824
 90
      825
 90
      826
 90
      827
 90
      828
 90
      829
 90
      830
 90
      831
 90
      832
 90
      833
 90
      834
 90
      835
 90
      836
 90
      837
 90
      838
 90
      839
 90
      840
 90
      841
 90
      842
 90
      843
 90
      844
 90
      845
 90
      846
 90
      847
 90
      848
 90
      849
 90
      850
 90
      851
 90
      852
 90
      853
 90
      854
 90
      855
 90
      856
 90
      857
 90
      858
 90
      859
 90
      860
 90
      861
 90
      862
 90
      863
 90
      864
 90
      865
 90
      866
 90
      867
 90
      868
 90
      869
 90
      870
 90
      871
 90
      872
 90
      873
 90
      874
 90
      875
 90
      876
 90
      877
 90
      878
 90
      879
 90
      880
 90
      881
 90
      882
 90
      883
 90
      884
 90
      885
 90
      886
 90
      887
 90
      888
 90
      889
 90
      890
 90
      891
 90
      892
 90
      893
 90
      894
 90
      895
 90
      896
 90
      897
 90
      898
 90
      899
 90
      900
 90
      901
 90
      902
 90
      903
 90
      904
 90
      905
 90
      906
 90
      907
 90
      908
 90
      909
 90
      910
 90
      911
 90
      912
 90
      913
 90
      914
 90
      915
 90
      916
 90
      917
 90
      918
 90
      919
 90
      920
 90
      921
 90
      922
 90
      923
 90
      924
 90
      925
 90
      926
 90
      927
 90
      928
 90
      929
 90
      930
 90
      931
 90
      932
 90
      933
 90
      934
 90
      935
 90
      936
 90
      937
 90
      938
 90
      939
 90
      940
 90
      941
 90
      942
 90
      943
 90
      944
 90
      945
 90
      946
 90
      947
 90
      948
 90
      949
 90
      950
 90
      951
 90
      952
 90
      953
 90
      954
 90
      955
 90
      956
 90
      957
 90
      958
 90
      959
 90
      960
 90
      961
 90
      962
 90
      963
 90
      964
 90
      965
 90
      966
 90
      967
 90
      968
 90
      969
 90
      970
 90
      971
 90
      972
 90
      973
 90
      974
 90
      975
 90
      976
 90
      977
 90
      978
 90
      979
 90
      980
 90
      981
 90
      982
 90
      983
 90
      984
 90
      985
 90
      986
 90
      987
 90
      988
 90
      989
 90
      990
 90
      991
 90
      992
 90
      993
 90
      994
 90
      995
 90
      996
 90
      997
 90
      998
 90
      999
 90
     1000
 90
     1001
 90
     1002
 90
     1003
 90
     1004
 90
     1005
 90
     1006
 90
     1007
 90
     1008
 90
     1009
 90
     1010
 90
     1011
 90
     1012
 90
     1013
 90
     1014
 90
     1015
 90
     1016
 90
     1017
 90
     1018
 90
     1019
 90
     1020
 90
     1021
 90
     1022
 90
     1023
 90
     1024
 90
     1025
 90
     1026
 90
     1027
 90
     1028
 90
     1029
 90
     1030
 90
     1031
 90
     1032
 90
     1033
 90
     1034
 90
     1035
 90
     1036
 90
     1037
 90
     1038
 90
     1039
 90
     1040
 90
     1041
 90
     1042
 90
     1043
 90
     1044
 90
     1045
 90
     1046
 90
     1047
 90
     1048
 90
     1049
 90
     1050
 90
     1051
 90
     1052
 90
     1053
 90
     1054
 90
     1055
 90
     1056
 90
     1057
 90
     1058
 90
     1059
 90
     1060
 90
     1061
 90
     1062
 90
     1063
 90
     1064
 90
     1065
 90
     1066
 90
     1067
 90
     1068
 90
     1069
 90
     1070
 90
     1071
 90
     1072
 90
     1073
 90
     1074
 90
     1075
 90
     1076
 90
     1077
 90
     1078
 90
     1079
 90
     1080
 90
     1081
 90
     1082
 90
     1083
 90
     1084
 90
     1085
 90
     1086
 90
     1087
 90
     1088
 90
     1089
 90
     1090
 90
     1091
 90
     1092
 90
     1093
 90
     1094
 90
     1095
 90
     1096
 90
     1097
 90
     1098
 90
     1099
 90
     1100
 90
     1101
 90
     1102
 90
     1103
 90
     1104
 90
     1105
 90
     1106
 90
     1107
 90
     1108
 90
     1109
 90
     1110
 90
     1111
 90
     1112
 90
     1113
 90
     1114
 90
     1115
 90
     1116
 90
     1117
 90
     1118
 90
     1119
 90
     1120
 90
     1121
 90
     1122
 90
     1123
 90
     1124
 90
     1125
 90
     1126
 90
     1127
 90
     1128
 90
     1129
 90
     1130
 90
     1131
 90
     1132
 90
     1133
 90
     1134
 90
     1135
 90
     1136
 90
     1137
 90
     1138
 90
     1139
 90
     1140
 90
     1141
 90
     1142
 90
     1143
 90
     1144
 90
     1145
 90
     1146
 90
     1147
 90
     1148
 90
     1149
 90
     1150
 90
     1151
 90
     1152
 90
     1153
 90
     1154
 90
     1155
 90
     1156
 90
     1157
 90
     1158
 90
     1159
 90
     1160
 90
     1161
 90
     1162
 90
     1163
 90
     1164
 90
     1165
 90
     1166
 90
     1167
 90
     1168
 90
     1169
 90
     1170
 90
     1171
 90
     1172
 90
     1173
 90
     1174
 90
     1175
 90
     1176
 90
     1177
 90
     1178
 90
     1179
 90
     1180
 90
     1181
 90
     1182
 90
     1183
 90
     1184
 90
     1185
 90
     1186
 90
     1187
 90
     1188
 90
     1189
 90
     1190
 90
     1191
 90
     1192
 90
     1193
 90
     1194
 90
     1195
 90
     1196
 90
     1197
 90
     1198
 90
     1199
 90
     1200
 90
     1201
 90
     1202
 90
     1203
 90
     1204
 90
     1205
 90
     1206
 90
     1207
 90
     1208
 90
     1209
 90
     1210
 90
     1211
 90
     1212
 90
     1213
 90
     1214
 90
     1215
 90
     1216
 90
     1217
 90
     1218
 90
     1219
 90
     1220
 90
     1221
 90
     1222
 90
     1223
 90
     1224
 90
     1225
 90
     1226
 90
     1227
 90
     1228
 90
     1229
 90
     1230
 90
     1231
 90
     1232
 90
     1233
 90
     1234
 90
     1235
 90
     1236
 90
     1237
 90
     1238
 90
     1239
 90
     1240
 90
     1241
 90
     1242
 90
     1243
 90
     1244
 90
     1245
 90
     1246
 90
     1247
 90
     1248
 90
     1249
 90
     1250
 90
     1251
 90
     1252
 90
     1253
 90
     1254
 90
     1255
 90
     1256
 90
     1257
 90
     1258
 90
     1259
 90
     1260
 90
        0
 90
        0
290
     0
  0
XRECORD
  5
1A5
102
{ACAD_REACTORS
330
C
102
}
330
C
100
AcDbXrecord
280
     1
300
ACD
300
2022
300

  0
DICTIONARY
  5
73
102
{ACAD_REACTORS
330
C
102
}
330
C
100
AcDbDictionary
281
     1
  0
DICTIONARY
  5
1AB
102
{ACAD_REACTORS
330
C
102
}
330
C
100
AcDbDictionary
281
     1
  3
Imperial24
350
1AC
  3
Metric50
350
224
  0
DICTIONARY
  5
D
102
{ACAD_REACTORS
330
C
102
}
330
C
100
AcDbDictionary
281
     1
  0
DICTIONARY
  5
1A
102
{ACAD_REACTORS
330
C
102
}
330
C
100
AcDbDictionary
281
     1
  3
Layout1
350
59
  3
Layout2
350
5E
  3
Model
350
22
  0
DICTIONARY
  5
72
102
{ACAD_REACTORS
330
C
102
}
330
C
100
AcDbDictionary
281
     1
  3
ByBlock
350
97
  3
ByLayer
350
96
  3
Global
350
98
  0
DICTIONARY
  5
D7
102
{ACAD_REACTORS
330
C
102
}
330
C
100
AcDbDictionary
281
     1
  3
Standard
350
D8
  0
DICTIONARY
  5
17
102
{ACAD_REACTORS
330
C
102
}
330
C
100
AcDbDictionary
281
     1
  3
Standard
350
18
  0
DICTIONARY
  5
19
102
{ACAD_REACTORS
330
C
102
}
330
C
100
AcDbDictionary
281
     1
  0
ACDBDICTIONARYWDFLT
  5
E
102
{ACAD_REACTORS
330
C
102
}
330
C
100
AcDbDictionary
281
     1
  3
Normal
350
F
100
AcDbDictionaryWithDefault
340
F
  0
DICTIONARY
  5
B6
102
{ACAD_REACTORS
330
C
102
}
330
C
100
AcDbDictionary
281
     1
  3
*A1
350
2283
  3
A0
350
B7
  3
A1
350
124
  3
A2
350
125
  3
A3
350
126
  3
A4
350
127
  3
A5
350
128
  3
A6
350
129
  3
A7
350
12A
  3
A8
350
12B
  3
A9
350
12C
  3
B0
350
12D
  3
B1
350
12E
  3
B2
350
12F
  3
B3
350
130
  3
B4
350
131
  3
B5
350
132
  3
B6
350
133
  3
B7
350
134
  3
B8
350
135
  3
B9
350
136
  3
C0
350
137
  3
C1
350
138
  3
C2
350
139
  3
C3
350
13A
  3
C4
350
13B
  3
C5
350
13C
  3
C6
350
13D
  3
C7
350
13E
  3
C8
350
13F
  3
C9
350
140
  3
D0
350
141
  3
D1
350
142
  3
D2
350
143
  0
DICTIONARY
  5
1A8
102
{ACAD_REACTORS
330
C
102
}
330
C
100
AcDbDictionary
281
     1
  3
Imperial24
350
1AA
  3
Metric50
350
223
  0
DICTIONARY
  5
86
102
{ACAD_REACTORS
330
C
102
}
330
C
100
AcDbDictionary
281
     1
  3
Standard
350
87
  0
DICTIONARY
  5
99
102
{ACAD_REACTORS
330
C
102
}
330
C
100
AcDbDictionary
281
     1
  3
2dWireframe
350
9F
  3
3dWireframe
350
22946
  3
Basic
350
9E
  3
Brighten
350
A5
  3
ColorChange
350
A9
  3
Conceptual
350
A2
  3
Dim
350
A4
  3
EdgeColorOff
350
175
  3
Facepattern
350
A8
  3
Flat
350
9A
  3
FlatWithEdges
350
9B
  3
Gouraud
350
9C
  3
GouraudWithEdges
350
9D
  3
Hidden
350
A1
  3
JitterOff
350
173
  3
Linepattern
350
A7
  3
OverhangOff
350
174
  3
Realistic
350
A3
  3
Shaded
350
182
  3
Shaded with edges
350
181
  3
Shades of Gray
350
17E
  3
Sketchy
350
17F
  3
Thicken
350
A6
  3
Wireframe
350
A0
  3
X-Ray
350
180
  0
XRECORD
  5
5126F
102
{ACAD_REACTORS
330
C
102
}
330
C
100
AcDbXrecord
280
     1
 90
        1
330
87
  0
DICTIONARY
  5
4A0D5
102
{ACAD_REACTORS
330
C
102
}
330
C
100
AcDbDictionary
281
     2
  3
#COMPAREDIFFTOTAL
350
4A0D6
  3
#REVCLOUDAPPROXARCLEN
350
4A0D7
  3
ANNOALLVISIBLE
350
4A0D8
  3
CANNOSCALE
350
4A0D9
  3
CMLEADERSTYLE
350
4A0DA
  3
CTABLESTYLE
350
4A0DB
  3
CVIEWDETAILSTYLE
350
4A0DC
  3
CVIEWSECTIONSTYLE
350
4A0DD
  3
DIMADEC
350
4A0DE
  3
DIMASSOC
350
4A0DF
  3
DWFFRAME
350
4A0E0
  3
HIDETEXT
350
4A0E1
  3
HPCOLOR
350
4A0E2
  3
HPLAYER
350
4A0E3
  3
HPTRANSPARENCY
350
4A0E4
  3
INDEXCTL
350
4A0E5
  3
LAYEREVAL
350
4A0E6
  3
LAYERNOTIFY
350
4A0E7
  3
LIGHTINGUNITS
350
4A0E8
  3
MLEADERSCALE
350
4A0E9
  3
MSLTSCALE
350
4A0EA
  3
MSOLESCALE
350
4A0EB
  3
PDFFRAME
350
4A0EC
  3
POINTCLOUDCLIPFRAME
350
4A0ED
  3
PROJECTNAME
350
4A0EE
  3
SOLIDHIST
350
4A0EF
  3
SORTENTS
350
4A0F0
  0
DICTIONARY
  5
22D1
102
{ACAD_REACTORS
330
C
102
}
330
C
100
AcDbDictionary
281
     1
  0
DICTIONARY
  5
18F
102
{ACAD_REACTORS
330
18E
102
}
330
18E
100
AcDbDictionary
281
     1
  0
SORTENTSTABLE
  5
28E
102
{ACAD_REACTORS
330
15D
102
}
330
15D
100
AcDbSortentsTable
330
1F
  0
ACDBDETAILVIEWSTYLE
  5
1AC
102
{ACAD_REACTORS
330
1AB
102
}
330
1AB
100
AcDbModelDocViewStyle
 70
     0
  3
Imperial24
290
     0
300
Imperial24
 90
        0
100
AcDbDetailViewStyle
 70
     0
 71
     0
 90
        3
 71
     1
340
11
 62
   256
 40
0.24
340
0
 62
   256
 40
0.24
300

 40
0.36
280
     3
 71
     2
340
16
 90
       25
 62
   256
 71
     3
340
11
 62
   256
 40
0.24
 90
        1
 40
0.75
 90
        1
300
%<\AcVar ViewType \f "%tc1">% %<\AcVar ViewDetailId>%\PSCALE %<\AcVar ViewScale \f "%sn">%
 71
     4
340
16
 90
       25
 62
   256
340
16
 90
       25
 62
   256
280
     0
  0
ACDBDETAILVIEWSTYLE
  5
224
102
{ACAD_REACTORS
330
1AB
102
}
330
1AB
100
AcDbModelDocViewStyle
 70
     0
  3
Metric50
290
     0
300
Metric50
 90
        0
100
AcDbDetailViewStyle
 70
     0
 71
     0
 90
        3
 71
     1
340
11
 62
   256
 40
5.0
340
0
 62
   256
 40
5.0
300

 40
0.0
280
     1
 71
     2
340
16
 90
       25
 62
   256
 71
     3
340
11
 62
   256
 40
5.0
 90
        0
 40
15.0
 90
        1
300
%<\AcVar ViewDetailId>% (%<\AcVar ViewScale \f "%sn">%)
 71
     4
340
16
 90
       25
 62
   256
340
16
 90
       25
 62
   256
280
     0
  0
LAYOUT
  5
59
102
{ACAD_REACTORS
330
1A
102
}
330
1A
100
AcDbPlotSettings
  1

  2
None
  4

  6

 40
0.0
 41
0.0
 42
0.0
 43
0.0
 44
0.0
 45
0.0
 46
0.0
 47
0.0
 48
0.0
 49
0.0
140
0.0
141
0.0
142
1.0
143
1.0
 70
   688
 72
     0
 73
     0
 74
     5
  7

 75
    16
147
1.0
 76
     0
 77
     2
 78
   300
148
0.0
149
0.0
100
AcDbLayout
  1
Layout1
 70
     1
 71
     1
 10
0.0
 20
0.0
 11
12.0
 21
9.0
 12
0.0
 22
0.0
 32
0.0
 14
0.0
 24
0.0
 34
0.0
 15
0.0
 25
0.0
 35
0.0
146
0.0
 13
0.0
 23
0.0
 33
0.0
 16
1.0
 26
0.0
 36
0.0
 17
0.0
 27
1.0
 37
0.0
 76
     0
330
58
  0
LAYOUT
  5
5E
102
{ACAD_REACTORS
330
1A
102
}
330
1A
100
AcDbPlotSettings
  1

  2
None
  4

  6

 40
0.0
 41
0.0
 42
0.0
 43
0.0
 44
0.0
 45
0.0
 46
0.0
 47
0.0
 48
0.0
 49
0.0
140
0.0
141
0.0
142
1.0
143
1.0
 70
   688
 72
     0
 73
     0
 74
     5
  7

 75
    16
147
1.0
 76
     0
 77
     2
 78
   300
148
0.0
149
0.0
100
AcDbLayout
  1
Layout2
 70
     1
 71
     2
 10
0.0
 20
0.0
 11
12.0
 21
9.0
 12
0.0
 22
0.0
 32
0.0
 14
0.0
 24
0.0
 34
0.0
 15
0.0
 25
0.0
 35
0.0
146
0.0
 13
0.0
 23
0.0
 33
0.0
 16
1.0
 26
0.0
 36
0.0
 17
0.0
 27
1.0
 37
0.0
 76
     0
330
5D
  0
LAYOUT
  5
22
102
{ACAD_XDICTIONARY
360
194
102
}
102
{ACAD_REACTORS
330
1A
102
}
330
1A
100
AcDbPlotSettings
  1

  2
none_device
  4
ANSI_A_(8.50_x_11.00_Inches)
  6

 40
6.349999904632568
 41
19.04999923706055
 42
6.350006103515625
 43
19.04998779296875
 44
215.8999938964844
 45
279.3999938964844
 46
0.0
 47
0.0
 48
0.0
 49
0.0
140
0.0
141
0.0
142
1.0
143
2.584895464708373
 70
 11952
 72
     0
 73
     1
 74
     0
  7

 75
     0
147
0.3868628397755418
 76
     0
 77
     2
 78
   300
148
0.0
149
0.0
100
AcDbLayout
  1
Model
 70
     1
 71
     0
 10
0.0
 20
0.0
 11
12.0
 21
9.0
 12
0.0
 22
0.0
 32
0.0
 14
0.0
 24
0.0
 34
0.0
 15
0.0
 25
0.0
 35
0.0
146
0.0
 13
0.0
 23
0.0
 33
0.0
 16
1.0
 26
0.0
 36
0.0
 17
0.0
 27
1.0
 37
0.0
 76
     0
330
1F
331
94
  0
MATERIAL
  5
97
102
{ACAD_XDICTIONARY
360
188
102
}
102
{ACAD_REACTORS
330
72
102
}
330
72
100
AcDbMaterial
  1
ByBlock
 94
       63
  0
MATERIAL
  5
96
102
{ACAD_XDICTIONARY
360
186
102
}
102
{ACAD_REACTORS
330
72
102
}
330
72
100
AcDbMaterial
  1
ByLayer
 94
       63
  0
MATERIAL
  5
98
102
{ACAD_XDICTIONARY
360
110
102
}
102
{ACAD_REACTORS
330
72
102
}
330
72
100
AcDbMaterial
  1
Global
 43
0.0208000000566244
 43
0.0
 43
0.0
 43
0.0
 43
0.0
 43
0.0208000000566244
 43
0.0
 43
0.0
 43
0.0
 43
0.0
 43
1.0
 43
0.0
 43
0.0
 43
0.0
 43
0.0
 43
1.0
 49
0.0208000000566244
 49
0.0
 49
0.0
 49
0.0
 49
0.0
 49
0.0208000000566244
 49
0.0
 49
0.0
 49
0.0
 49
0.0
 49
1.0
 49
0.0
 49
0.0
 49
0.0
 49
0.0
 49
1.0
142
0.0208000000566244
142
0.0
142
0.0
142
0.0
142
0.0
142
0.0208000000566244
142
0.0
142
0.0
142
0.0
142
0.0
142
1.0
142
0.0
142
0.0
142
0.0
142
0.0
142
1.0
144
0.0208000000566244
144
0.0
144
0.0
144
0.0
144
0.0
144
0.0208000000566244
144
0.0
144
0.0
144
0.0
144
0.0
144
1.0
144
0.0
144
0.0
144
0.0
144
0.0
144
1.0
 94
       63
1001
ACAD
1070
    -1
1070
     3
1070
     0
1000

1071
        0
1070
     0
  0
MLEADERSTYLE
  5
D8
102
{ACAD_REACTORS
330
D7
102
}
330
D7
100
AcDbMLeaderStyle
179
     2
170
     2
171
     1
172
     0
 90
        2
 40
0.0
 41
0.0
173
     1
 91
-1056964608
340
14
 92
       -2
290
     1
 42
0.09
291
     1
 43
0.36
  3
Standard
 44
0.18
300

342
11
174
     1
178
     1
175
     1
176
     0
 93
-1056964608
 45
0.18
292
     0
297
     0
 46
0.18
 94
-1056964608
 47
1.0
 49
1.0
140
1.0
293
     1
141
0.0
294
     1
177
     0
142
1.0
295
     0
296
     0
143
0.125
271
     0
272
     9
273
     9
298
     0
  0
MLINESTYLE
  5
18
102
{ACAD_REACTORS
330
17
102
}
330
17
100
AcDbMlineStyle
  2
STANDARD
 70
     0
  3

 62
   256
 51
90.0
 52
90.0
 71
     2
 49
0.5
 62
   256
  6
BYLAYER
 49
-0.5
 62
   256
  6
BYLAYER
  0
ACDBPLACEHOLDER
  5
F
102
{ACAD_REACTORS
330
E
102
}
330
E
  0
SCALE
  5
2283
102
{ACAD_REACTORS
330
B6
102
}
330
B6
100
AcDbScale
 70
     0
300
1:75
140
1.0
141
75.0
290
     0
  0
SCALE
  5
B7
102
{ACAD_REACTORS
330
B6
102
}
330
B6
100
AcDbScale
 70
     0
300
1:1
140
1.0
141
1.0
290
     1
  0
SCALE
  5
124
102
{ACAD_REACTORS
330
B6
102
}
330
B6
100
AcDbScale
 70
     0
300
1:2
140
1.0
141
2.0
290
     0
  0
SCALE
  5
125
102
{ACAD_REACTORS
330
B6
102
}
330
B6
100
AcDbScale
 70
     0
300
1:4
140
1.0
141
4.0
290
     0
  0
SCALE
  5
126
102
{ACAD_REACTORS
330
B6
102
}
330
B6
100
AcDbScale
 70
     0
300
1:5
140
1.0
141
5.0
290
     0
  0
SCALE
  5
127
102
{ACAD_REACTORS
330
B6
102
}
330
B6
100
AcDbScale
 70
     0
300
1:8
140
1.0
141
8.0
290
     0
  0
SCALE
  5
128
102
{ACAD_REACTORS
330
B6
102
}
330
B6
100
AcDbScale
 70
     0
300
1:10
140
1.0
141
10.0
290
     0
  0
SCALE
  5
129
102
{ACAD_REACTORS
330
B6
102
}
330
B6
100
AcDbScale
 70
     0
300
1:16
140
1.0
141
16.0
290
     0
  0
SCALE
  5
12A
102
{ACAD_REACTORS
330
B6
102
}
330
B6
100
AcDbScale
 70
     0
300
1:20
140
1.0
141
20.0
290
     0
  0
SCALE
  5
12B
102
{ACAD_REACTORS
330
B6
102
}
330
B6
100
AcDbScale
 70
     0
300
1:30
140
1.0
141
30.0
290
     0
  0
SCALE
  5
12C
102
{ACAD_REACTORS
330
B6
102
}
330
B6
100
AcDbScale
 70
     0
300
1:40
140
1.0
141
40.0
290
     0
  0
SCALE
  5
12D
102
{ACAD_REACTORS
330
B6
102
}
330
B6
100
AcDbScale
 70
     0
300
1:50
140
1.0
141
50.0
290
     0
  0
SCALE
  5
12E
102
{ACAD_REACTORS
330
B6
102
}
330
B6
100
AcDbScale
 70
     0
300
1:100
140
1.0
141
100.0
290
     0
  0
SCALE
  5
12F
102
{ACAD_REACTORS
330
B6
102
}
330
B6
100
AcDbScale
 70
     0
300
2:1
140
2.0
141
1.0
290
     0
  0
SCALE
  5
130
102
{ACAD_REACTORS
330
B6
102
}
330
B6
100
AcDbScale
 70
     0
300
4:1
140
4.0
141
1.0
290
     0
  0
SCALE
  5
131
102
{ACAD_REACTORS
330
B6
102
}
330
B6
100
AcDbScale
 70
     0
300
8:1
140
8.0
141
1.0
290
     0
  0
SCALE
  5
132
102
{ACAD_REACTORS
330
B6
102
}
330
B6
100
AcDbScale
 70
     0
300
10:1
140
10.0
141
1.0
290
     0
  0
SCALE
  5
133
102
{ACAD_REACTORS
330
B6
102
}
330
B6
100
AcDbScale
 70
     0
300
100:1
140
100.0
141
1.0
290
     0
  0
SCALE
  5
134
102
{ACAD_REACTORS
330
B6
102
}
330
B6
100
AcDbScale
 70
     0
300
1/128" = 1'-0"
140
0.0078125
141
12.0
290
     0
  0
SCALE
  5
135
102
{ACAD_REACTORS
330
B6
102
}
330
B6
100
AcDbScale
 70
     0
300
1/64" = 1'-0"
140
0.015625
141
12.0
290
     0
  0
SCALE
  5
136
102
{ACAD_REACTORS
330
B6
102
}
330
B6
100
AcDbScale
 70
     0
300
1/32" = 1'-0"
140
0.03125
141
12.0
290
     0
  0
SCALE
  5
137
102
{ACAD_REACTORS
330
B6
102
}
330
B6
100
AcDbScale
 70
     0
300
1/16" = 1'-0"
140
0.0625
141
12.0
290
     0
  0
SCALE
  5
138
102
{ACAD_REACTORS
330
B6
102
}
330
B6
100
AcDbScale
 70
     0
300
3/32" = 1'-0"
140
0.09375
141
12.0
290
     0
  0
SCALE
  5
139
102
{ACAD_REACTORS
330
B6
102
}
330
B6
100
AcDbScale
 70
     0
300
1/8" = 1'-0"
140
0.125
141
12.0
290
     0
  0
SCALE
  5
13A
102
{ACAD_REACTORS
330
B6
102
}
330
B6
100
AcDbScale
 70
     0
300
3/16" = 1'-0"
140
0.1875
141
12.0
290
     0
  0
SCALE
  5
13B
102
{ACAD_REACTORS
330
B6
102
}
330
B6
100
AcDbScale
 70
     0
300
1/4" = 1'-0"
140
0.25
141
12.0
290
     0
  0
SCALE
  5
13C
102
{ACAD_REACTORS
330
B6
102
}
330
B6
100
AcDbScale
 70
     0
300
3/8" = 1'-0"
140
0.375
141
12.0
290
     0
  0
SCALE
  5
13D
102
{ACAD_REACTORS
330
B6
102
}
330
B6
100
AcDbScale
 70
     0
300
1/2" = 1'-0"
140
0.5
141
12.0
290
     0
  0
SCALE
  5
13E
102
{ACAD_REACTORS
330
B6
102
}
330
B6
100
AcDbScale
 70
     0
300
3/4" = 1'-0"
140
0.75
141
12.0
290
     0
  0
SCALE
  5
13F
102
{ACAD_REACTORS
330
B6
102
}
330
B6
100
AcDbScale
 70
     0
300
1" = 1'-0"
140
1.0
141
12.0
290
     0
  0
SCALE
  5
140
102
{ACAD_REACTORS
330
B6
102
}
330
B6
100
AcDbScale
 70
     0
300
1-1/2" = 1'-0"
140
1.5
141
12.0
290
     0
  0
SCALE
  5
141
102
{ACAD_REACTORS
330
B6
102
}
330
B6
100
AcDbScale
 70
     0
300
3" = 1'-0"
140
3.0
141
12.0
290
     0
  0
SCALE
  5
142
102
{ACAD_REACTORS
330
B6
102
}
330
B6
100
AcDbScale
 70
     0
300
6" = 1'-0"
140
6.0
141
12.0
290
     0
  0
SCALE
  5
143
102
{ACAD_REACTORS
330
B6
102
}
330
B6
100
AcDbScale
 70
     0
300
1'-0" = 1'-0"
140
12.0
141
12.0
290
     0
  0
ACDBSECTIONVIEWSTYLE
  5
1AA
102
{ACAD_REACTORS
330
1A8
102
}
330
1A8
100
AcDbModelDocViewStyle
 70
     0
  3
Imperial24
290
     0
300
Imperial24
 90
        0
100
AcDbSectionViewStyle
 70
     0
 71
     0
 90
       78
 71
     1
340
11
 62
   256
 40
0.24
340
0
340
0
 62
   256
 40
0.24
300
I, O, Q, S, X, Z
 40
0.48
 90
        3
 40
0.18
 90
        1
 71
     2
340
16
 90
       25
 62
   256
340
16
 90
       50
 62
   256
 40
0.24
 40
0.0
 40
0.24
 71
     3
340
11
 62
   256
 40
0.24
 90
        1
 40
0.75
 90
        1
300
%<\AcVar ViewType \f "%tc1">% %<\AcVar ViewSectionStartId>%-%<\AcVar ViewSectionEndId>%\PSCALE %<\AcVar ViewScale \f "%sn">%
 71
     4
 62
   256
 62
   257
300
ANSI31
 40
1.0
 90
        0
290
     0
290
     0
 90
        6
 40
0.0
 40
1.570796326794896
 40
0.2617993877991494
 40
1.308996938995747
 40
-0.2617993877991494
 40
1.832595714594046
  0
ACDBSECTIONVIEWSTYLE
  5
223
102
{ACAD_REACTORS
330
1A8
102
}
330
1A8
100
AcDbModelDocViewStyle
 70
     0
  3
Metric50
290
     0
300
Metric50
 90
        0
100
AcDbSectionViewStyle
 70
     0
 71
     0
 90
      102
 71
     1
340
11
 62
   256
 40
5.0
340
0
340
0
 62
   256
 40
5.0
300
I, O, Q, S, X, Z
 40
10.0
 90
        0
 40
2.5
 90
        0
 71
     2
340
16
 90
       25
 62
   256
340
16
 90
       50
 62
   256
 40
5.0
 40
2.5
 40
5.0
 71
     3
340
11
 62
   256
 40
5.0
 90
        0
 40
15.0
 90
        1
300
%<\AcVar ViewSectionStartId>%-%<\AcVar ViewSectionEndId>% (%<\AcVar ViewScale \f "%sn">%)
 71
     4
 62
   256
 62
   257
300
ANSI31
 40
1.0
 90
        0
290
     0
290
     0
 90
        6
 40
0.0
 40
1.570796326794896
 40
0.2617993877991494
 40
1.308996938995747
 40
-0.2617993877991494
 40
1.832595714594046
  0
TABLESTYLE
  5
87
102
{ACAD_XDICTIONARY
360
104
102
}
102
{ACAD_REACTORS
330
86
102
}
330
86
100
AcDbTableStyle
280
     0
  3
Standard
 70
     0
 71
     0
 40
0.06
 41
0.06
280
     0
281
     0
  7
Standard
140
0.18
170
     2
 62
     0
 63
     7
283
     0
 90
      512
 91
        0
  1

274
    -2
284
     1
 64
     0
275
    -2
285
     1
 65
     0
276
    -2
286
     1
 66
     0
277
    -2
287
     1
 67
     0
278
    -2
288
     1
 68
     0
279
    -2
289
     1
 69
     0
  7
Standard
140
0.25
170
     5
 62
     0
 63
     7
283
     0
 90
      512
 91
        0
  1

274
    -2
284
     1
 64
     0
275
    -2
285
     1
 65
     0
276
    -2
286
     1
 66
     0
277
    -2
287
     1
 67
     0
278
    -2
288
     1
 68
     0
279
    -2
289
     1
 69
     0
  7
Standard
140
0.18
170
     5
 62
     0
 63
     7
283
     0
 90
      512
 91
        0
  1

274
    -2
284
     1
 64
     0
275
    -2
285
     1
 65
     0
276
    -2
286
     1
 66
     0
277
    -2
287
     1
 67
     0
278
    -2
288
     1
 68
     0
279
    -2
289
     1
 69
     0
  0
VISUALSTYLE
  5
9F
102
{ACAD_REACTORS
330
99
102
}
330
99
100
AcDbVisualStyle
  2
2dWireframe
 70
     4
177
     3
291
     0
 70
    58
 90
        0
176
     1
 90
        2
176
     1
 90
        1
176
     1
 90
        0
176
     1
 40
0.6
176
     1
 40
30.0
176
     1
 62
     7
420
 16777215
176
     1
 90
        1
176
     1
 90
        4
176
     1
 62
     7
176
     1
 62
   257
176
     1
 90
        1
176
     1
 90
        1
176
     1
 40
1.0
176
     1
 90
        0
176
     1
 62
   257
176
     1
 40
1.0
176
     1
 90
        1
176
     1
 90
        6
176
     1
 90
        2
176
     1
 62
     7
176
     1
 90
        5
176
     1
 90
        0
176
     1
 90
        0
176
     1
290
     0
176
     1
 90
        1
176
     1
 40
0.0
176
     1
 90
        0
176
     1
290
     1
176
     1
290
     1
176
     1
290
     0
176
     1
290
     0
176
     1
290
     0
176
     1
290
     0
176
     1
290
     0
176
     1
290
     0
176
     1
290
     0
176
     1
 90
       50
176
     1
 40
0.0
176
     1
 40
1.0
176
     1
 90
        0
176
     1
 62
    18
420
        0
176
     1
 90
       50
176
     1
 90
        3
176
     1
 62
     5
420
      255
176
     1
290
     0
176
     1
 90
       50
176
     1
 90
       50
176
     1
 90
       50
176
     1
290
     0
176
     1
 90
       50
176
     1
 62
   256
176
     0
 40
1.0
176
     0
 90
        2
176
     1
  1
strokes_ogs.tif
176
     1
290
     0
176
     1
 40
1.0
176
     1
 40
1.0
176
     1
  0
VISUALSTYLE
  5
22946
102
{ACAD_REACTORS
330
99
102
}
330
99
100
AcDbVisualStyle
  2
3dWireframe
 70
     5
177
     3
291
     0
 70
    58
 90
        0
176
     1
 90
        2
176
     1
 90
        0
176
     1
 90
        0
176
     1
 40
0.6
176
     1
 40
30.0
176
     1
 62
     7
176
     1
 90
        1
176
     1
 90
        4
176
     1
 62
     7
176
     1
 62
   257
176
     1
 90
        1
176
     1
 90
        1
176
     1
 40
1.0
176
     1
 90
        0
176
     1
 62
   257
176
     1
 40
1.0
176
     1
 90
        1
176
     1
 90
        6
176
     1
 90
        2
176
     1
 62
     7
176
     1
 90
        5
176
     1
 90
        0
176
     1
 90
        0
176
     1
290
     0
176
     1
 90
        1
176
     1
 40
0.0
176
     1
 90
        0
176
     1
290
     0
176
     1
290
     1
176
     1
290
     1
176
     1
290
     0
176
     1
290
     0
176
     1
290
     0
176
     1
290
     0
176
     1
290
     0
176
     1
290
     0
176
     1
 90
       50
176
     1
 40
0.0
176
     1
 40
1.0
176
     1
 90
        0
176
     1
 62
    18
420
        0
176
     1
 90
       50
176
     1
 90
        3
176
     1
 62
     5
420
      255
176
     1
290
     0
176
     1
 90
       50
176
     1
 90
       50
176
     1
 90
       50
176
     1
290
     0
176
     1
 90
       50
176
     1
 62
   256
176
     0
 40
1.0
176
     0
 90
        2
176
     1
  1
strokes_ogs.tif
176
     1
290
     0
176
     1
 40
1.0
176
     1
 40
1.0
176
     1
  0
VISUALSTYLE
  5
9E
102
{ACAD_REACTORS
330
99
102
}
330
99
100
AcDbVisualStyle
  2
Basic
 70
     7
177
     3
291
     1
 70
    58
 90
        1
176
     1
 90
        0
176
     1
 90
        1
176
     1
 90
        0
176
     1
 40
0.6
176
     1
 40
30.0
176
     1
 62
     7
420
 16777215
176
     1
 90
        0
176
     1
 90
        4
176
     1
 62
     7
176
     1
 62
   257
176
     1
 90
        1
176
     1
 90
        1
176
     1
 40
1.0
176
     1
 90
        8
176
     1
 62
     7
176
     1
 40
1.0
176
     1
 90
        1
176
     1
 90
        6
176
     1
 90
        2
176
     1
 62
     7
176
     1
 90
        5
176
     1
 90
        0
176
     1
 90
        0
176
     1
290
     0
176
     1
 90
        1
176
     1
 40
0.0
176
     1
 90
        0
176
     1
290
     0
176
     1
290
     1
176
     1
290
     1
176
     1
290
     0
176
     1
290
     0
176
     1
290
     0
176
     1
290
     0
176
     1
290
     0
176
     1
290
     0
176
     1
 90
       50
176
     1
 40
0.0
176
     1
 40
1.0
176
     1
 90
        0
176
     1
 62
    18
420
        0
176
     1
 90
       50
176
     1
 90
        3
176
     1
 62
     5
420
      255
176
     1
290
     0
176
     1
 90
       50
176
     1
 90
       50
176
     1
 90
       50
176
     1
290
     0
176
     1
 90
       50
176
     1
 62
   256
176
     0
 40
1.0
176
     0
 90
        2
176
     1
  1
strokes_ogs.tif
176
     1
290
     0
176
     1
 40
1.0
176
     1
 40
1.0
176
     1
  0
VISUALSTYLE
  5
A5
102
{ACAD_REACTORS
330
99
102
}
330
99
100
AcDbVisualStyle
  2
Brighten
 70
    12
177
     3
291
     1
 70
    58
 90
        2
176
     1
 90
        2
176
     1
 90
        1
176
     1
 90
        0
176
     1
 40
0.6
176
     1
 40
30.0
176
     1
 62
     7
420
 16777215
176
     1
 90
        1
176
     1
 90
        4
176
     1
 62
     7
176
     1
 62
   257
176
     1
 90
        1
176
     1
 90
        1
176
     1
 40
1.0
176
     1
 90
        8
176
     1
 62
     7
176
     1
 40
1.0
176
     1
 90
        1
176
     1
 90
        6
176
     1
 90
        2
176
     1
 62
     7
176
     1
 90
        5
176
     1
 90
        0
176
     1
 90
        0
176
     1
290
     0
176
     1
 90
        1
176
     1
 40
50.0
176
     1
 90
        0
176
     1
290
     0
176
     1
290
     1
176
     1
290
     1
176
     1
290
     0
176
     1
290
     0
176
     1
290
     0
176
     1
290
     0
176
     1
290
     0
176
     1
290
     0
176
     1
 90
       50
176
     1
 40
0.0
176
     1
 40
1.0
176
     1
 90
        0
176
     1
 62
    18
420
        0
176
     1
 90
       50
176
     1
 90
        3
176
     1
 62
     5
420
      255
176
     1
290
     0
176
     1
 90
       50
176
     1
 90
       50
176
     1
 90
       50
176
     1
290
     0
176
     1
 90
       50
176
     1
 62
   256
176
     0
 40
1.0
176
     0
 90
        2
176
     1
  1
strokes_ogs.tif
176
     1
290
     0
176
     1
 40
1.0
176
     1
 40
1.0
176
     1
  0
VISUALSTYLE
  5
A9
102
{ACAD_REACTORS
330
99
102
}
330
99
100
AcDbVisualStyle
  2
ColorChange
 70
    16
177
     3
291
     1
 70
    58
 90
        2
176
     1
 90
        2
176
     1
 90
        3
176
     1
 90
        0
176
     1
 40
0.6
176
     1
 40
30.0
176
     1
 62
     8
420
  8421504
176
     1
 90
        1
176
     1
 90
        4
176
     1
 62
     7
176
     1
 62
   257
176
     1
 90
        1
176
     1
 90
        1
176
     1
 40
1.0
176
     1
 90
        8
176
     1
 62
     8
420
  8421504
176
     1
 40
1.0
176
     1
 90
        1
176
     1
 90
        6
176
     1
 90
        2
176
     1
 62
     7
176
     1
 90
        5
176
     1
 90
        0
176
     1
 90
        0
176
     1
290
     0
176
     1
 90
        1
176
     1
 40
0.0
176
     1
 90
        0
176
     1
290
     0
176
     1
290
     1
176
     1
290
     1
176
     1
290
     0
176
     1
290
     0
176
     1
290
     0
176
     1
290
     0
176
     1
290
     0
176
     1
290
     0
176
     1
 90
       50
176
     1
 40
0.0
176
     1
 40
1.0
176
     1
 90
        0
176
     1
 62
    18
420
        0
176
     1
 90
       50
176
     1
 90
        3
176
     1
 62
     5
420
      255
176
     1
290
     0
176
     1
 90
       50
176
     1
 90
       50
176
     1
 90
       50
176
     1
290
     0
176
     1
 90
       50
176
     1
 62
   256
176
     0
 40
1.0
176
     0
 90
        2
176
     1
  1
strokes_ogs.tif
176
     1
290
     0
176
     1
 40
1.0
176
     1
 40
1.0
176
     1
  0
VISUALSTYLE
  5
A2
102
{ACAD_REACTORS
330
99
102
}
330
99
100
AcDbVisualStyle
  2
Conceptual
 70
     9
177
     3
291
     0
 70
    58
 90
        3
176
     1
 90
        2
176
     1
 90
        1
176
     1
 90
        0
176
     1
 40
0.6
176
     1
 40
30.0
176
     1
 62
     7
420
 16777215
176
     1
 90
        2
176
     1
 90
        2
176
     1
 62
     7
176
     1
 62
   257
176
     1
 90
        1
176
     1
 90
        1
176
     1
 40
40.0
176
     1
 90
        8
176
     1
 62
     7
176
     1
 40
1.0
176
     1
 90
        1
176
     1
 90
        6
176
     1
 90
        2
176
     1
 62
     7
176
     1
 90
        3
176
     1
 90
        0
176
     1
 90
        0
176
     1
290
     0
176
     1
 90
        1
176
     1
 40
0.0
176
     1
 90
        0
176
     1
290
     0
176
     1
290
     1
176
     1
290
     1
176
     1
290
     0
176
     1
290
     0
176
     1
290
     0
176
     1
290
     0
176
     1
290
     0
176
     1
290
     0
176
     1
 90
       50
176
     1
 40
0.0
176
     1
 40
1.0
176
     1
 90
        0
176
     1
 62
    18
420
        0
176
     1
 90
       50
176
     1
 90
        3
176
     1
 62
     5
420
      255
176
     1
290
     0
176
     1
 90
       50
176
     1
 90
       50
176
     1
 90
       50
176
     1
290
     0
176
     1
 90
       50
176
     1
 62
   256
176
     0
 40
1.0
176
     0
 90
        2
176
     1
  1
strokes_ogs.tif
176
     1
290
     0
176
     1
 40
1.0
176
     1
 40
1.0
176
     1
  0
VISUALSTYLE
  5
A4
102
{ACAD_REACTORS
330
99
102
}
330
99
100
AcDbVisualStyle
  2
Dim
 70
    11
177
     3
291
     1
 70
    58
 90
        2
176
     1
 90
        2
176
     1
 90
        1
176
     1
 90
        0
176
     1
 40
0.6
176
     1
 40
30.0
176
     1
 62
     7
420
 16777215
176
     1
 90
        1
176
     1
 90
        4
176
     1
 62
     7
176
     1
 62
   257
176
     1
 90
        1
176
     1
 90
        1
176
     1
 40
1.0
176
     1
 90
        8
176
     1
 62
     7
176
     1
 40
1.0
176
     1
 90
        1
176
     1
 90
        6
176
     1
 90
        2
176
     1
 62
     7
176
     1
 90
        5
176
     1
 90
        0
176
     1
 90
        0
176
     1
290
     0
176
     1
 90
        1
176
     1
 40
-50.0
176
     1
 90
        0
176
     1
290
     0
176
     1
290
     1
176
     1
290
     1
176
     1
290
     0
176
     1
290
     0
176
     1
290
     0
176
     1
290
     0
176
     1
290
     0
176
     1
290
     0
176
     1
 90
       50
176
     1
 40
0.0
176
     1
 40
1.0
176
     1
 90
        0
176
     1
 62
    18
420
        0
176
     1
 90
       50
176
     1
 90
        3
176
     1
 62
     5
420
      255
176
     1
290
     0
176
     1
 90
       50
176
     1
 90
       50
176
     1
 90
       50
176
     1
290
     0
176
     1
 90
       50
176
     1
 62
   256
176
     0
 40
1.0
176
     0
 90
        2
176
     1
  1
strokes_ogs.tif
176
     1
290
     0
176
     1
 40
1.0
176
     1
 40
1.0
176
     1
  0
VISUALSTYLE
  5
175
102
{ACAD_REACTORS
330
99
102
}
330
99
100
AcDbVisualStyle
  2
EdgeColorOff
 70
    22
177
     3
291
     1
 70
    58
 90
        2
176
     0
 90
        2
176
     0
 90
        0
176
     0
 90
        0
176
     0
 40
0.6
176
     0
 40
30.0
176
     0
 62
     7
420
 16777215
176
     0
 90
        1
176
     0
 90
        4
176
     0
 62
     7
176
     0
 62
   257
176
     0
 90
        1
176
     0
 90
        1
176
     0
 40
1.0
176
     0
 90
        8
176
     2
 62
     7
176
     0
 40
1.0
176
     0
 90
        1
176
     0
 90
        6
176
     0
 90
        2
176
     0
 62
     7
176
     0
 90
        5
176
     0
 90
        0
176
     0
 90
        0
176
     0
290
     0
176
     0
 90
        1
176
     0
 40
0.0
176
     0
 90
        0
176
     0
290
     0
176
     1
290
     1
176
     1
290
     1
176
     1
290
     0
176
     1
290
     0
176
     1
290
     0
176
     1
290
     0
176
     1
290
     0
176
     1
290
     0
176
     1
 90
       50
176
     1
 40
0.0
176
     1
 40
1.0
176
     1
 90
        0
176
     1
 62
    18
420
        0
176
     1
 90
       50
176
     1
 90
        3
176
     1
 62
     5
420
      255
176
     1
290
     0
176
     1
 90
       50
176
     1
 90
       50
176
     1
 90
       50
176
     1
290
     0
176
     1
 90
       50
176
     1
 62
   256
176
     0
 40
1.0
176
     0
 90
        2
176
     1
  1
strokes_ogs.tif
176
     1
290
     0
176
     1
 40
1.0
176
     1
 40
1.0
176
     1
  0
VISUALSTYLE
  5
A8
102
{ACAD_REACTORS
330
99
102
}
330
99
100
AcDbVisualStyle
  2
Facepattern
 70
    15
177
     3
291
     1
 70
    58
 90
        2
176
     1
 90
        2
176
     1
 90
        1
176
     1
 90
        0
176
     1
 40
0.6
176
     1
 40
30.0
176
     1
 62
     7
420
 16777215
176
     1
 90
        1
176
     1
 90
        4
176
     1
 62
     7
176
     1
 62
   257
176
     1
 90
        1
176
     1
 90
        1
176
     1
 40
1.0
176
     1
 90
        8
176
     1
 62
     7
176
     1
 40
1.0
176
     1
 90
        1
176
     1
 90
        6
176
     1
 90
        2
176
     1
 62
     7
176
     1
 90
        5
176
     1
 90
        0
176
     1
 90
        0
176
     1
290
     0
176
     1
 90
        1
176
     1
 40
0.0
176
     1
 90
        0
176
     1
290
     0
176
     1
290
     1
176
     1
290
     1
176
     1
290
     0
176
     1
290
     0
176
     1
290
     0
176
     1
290
     0
176
     1
290
     0
176
     1
290
     0
176
     1
 90
       50
176
     1
 40
0.0
176
     1
 40
1.0
176
     1
 90
        0
176
     1
 62
    18
420
        0
176
     1
 90
       50
176
     1
 90
        3
176
     1
 62
     5
420
      255
176
     1
290
     0
176
     1
 90
       50
176
     1
 90
       50
176
     1
 90
       50
176
     1
290
     0
176
     1
 90
       50
176
     1
 62
   256
176
     0
 40
1.0
176
     0
 90
        2
176
     1
  1
strokes_ogs.tif
176
     1
290
     0
176
     1
 40
1.0
176
     1
 40
1.0
176
     1
  0
VISUALSTYLE
  5
9A
102
{ACAD_REACTORS
330
99
102
}
330
99
100
AcDbVisualStyle
  2
Flat
 70
     0
177
     3
291
     1
 70
    58
 90
        2
176
     1
 90
        1
176
     1
 90
        1
176
     1
 90
        2
176
     1
 40
0.6
176
     1
 40
30.0
176
     1
 62
     7
420
 16777215
176
     1
 90
        0
176
     1
 90
        0
176
     1
 62
     7
176
     1
 62
   257
176
     1
 90
        1
176
     1
 90
        1
176
     1
 40
1.0
176
     1
 90
        8
176
     1
 62
     7
176
     1
 40
1.0
176
     1
 90
        1
176
     1
 90
        6
176
     1
 90
        2
176
     1
 62
     7
176
     1
 90
        5
176
     1
 90
        0
176
     1
 90
        0
176
     1
290
     0
176
     1
 90
       13
176
     1
 40
0.0
176
     1
 90
        0
176
     1
290
     0
176
     1
290
     1
176
     1
290
     1
176
     1
290
     0
176
     1
290
     0
176
     1
290
     0
176
     1
290
     0
176
     1
290
     0
176
     1
290
     0
176
     1
 90
       50
176
     1
 40
0.0
176
     1
 40
1.0
176
     1
 90
        0
176
     1
 62
    18
420
        0
176
     1
 90
       50
176
     1
 90
        3
176
     1
 62
     5
420
      255
176
     1
290
     0
176
     1
 90
       50
176
     1
 90
       50
176
     1
 90
       50
176
     1
290
     0
176
     1
 90
       50
176
     1
 62
   256
176
     0
 40
1.0
176
     0
 90
        2
176
     1
  1
strokes_ogs.tif
176
     1
290
     0
176
     1
 40
1.0
176
     1
 40
1.0
176
     1
  0
VISUALSTYLE
  5
9B
102
{ACAD_REACTORS
330
99
102
}
330
99
100
AcDbVisualStyle
  2
FlatWithEdges
 70
     1
177
     3
291
     1
 70
    58
 90
        2
176
     1
 90
        1
176
     1
 90
        1
176
     1
 90
        2
176
     1
 40
0.6
176
     1
 40
30.0
176
     1
 62
     7
420
 16777215
176
     1
 90
        1
176
     1
 90
        0
176
     1
 62
     7
176
     1
 62
   257
176
     1
 90
        1
176
     1
 90
        1
176
     1
 40
1.0
176
     1
 90
        0
176
     1
 62
   257
176
     1
 40
1.0
176
     1
 90
        1
176
     1
 90
        6
176
     1
 90
        2
176
     1
 62
     7
176
     1
 90
        5
176
     1
 90
        0
176
     1
 90
        0
176
     1
290
     0
176
     1
 90
       13
176
     1
 40
0.0
176
     1
 90
        0
176
     1
290
     0
176
     1
290
     1
176
     1
290
     1
176
     1
290
     0
176
     1
290
     0
176
     1
290
     0
176
     1
290
     0
176
     1
290
     0
176
     1
290
     0
176
     1
 90
       50
176
     1
 40
0.0
176
     1
 40
1.0
176
     1
 90
        0
176
     1
 62
    18
420
        0
176
     1
 90
       50
176
     1
 90
        3
176
     1
 62
     5
420
      255
176
     1
290
     0
176
     1
 90
       50
176
     1
 90
       50
176
     1
 90
       50
176
     1
290
     0
176
     1
 90
       50
176
     1
 62
   256
176
     0
 40
1.0
176
     0
 90
        2
176
     1
  1
strokes_ogs.tif
176
     1
290
     0
176
     1
 40
1.0
176
     1
 40
1.0
176
     1
  0
VISUALSTYLE
  5
9C
102
{ACAD_REACTORS
330
99
102
}
330
99
100
AcDbVisualStyle
  2
Gouraud
 70
     2
177
     3
291
     1
 70
    58
 90
        2
176
     1
 90
        2
176
     1
 90
        1
176
     1
 90
        2
176
     1
 40
0.6
176
     1
 40
30.0
176
     1
 62
     7
420
 16777215
176
     1
 90
        0
176
     1
 90
        0
176
     1
 62
     7
176
     1
 62
   257
176
     1
 90
        1
176
     1
 90
        1
176
     1
 40
1.0
176
     1
 90
        0
176
     1
 62
     7
176
     1
 40
1.0
176
     1
 90
        1
176
     1
 90
        6
176
     1
 90
        2
176
     1
 62
     7
176
     1
 90
        5
176
     1
 90
        0
176
     1
 90
        0
176
     1
290
     0
176
     1
 90
       13
176
     1
 40
0.0
176
     1
 90
        0
176
     1
290
     0
176
     1
290
     1
176
     1
290
     1
176
     1
290
     0
176
     1
290
     0
176
     1
290
     0
176
     1
290
     0
176
     1
290
     0
176
     1
290
     0
176
     1
 90
       50
176
     1
 40
0.0
176
     1
 40
1.0
176
     1
 90
        0
176
     1
 62
    18
420
        0
176
     1
 90
       50
176
     1
 90
        3
176
     1
 62
     5
420
      255
176
     1
290
     0
176
     1
 90
       50
176
     1
 90
       50
176
     1
 90
       50
176
     1
290
     0
176
     1
 90
       50
176
     1
 62
   256
176
     0
 40
1.0
176
     0
 90
        2
176
     1
  1
strokes_ogs.tif
176
     1
290
     0
176
     1
 40
1.0
176
     1
 40
1.0
176
     1
  0
VISUALSTYLE
  5
9D
102
{ACAD_REACTORS
330
99
102
}
330
99
100
AcDbVisualStyle
  2
GouraudWithEdges
 70
     3
177
     3
291
     1
 70
    58
 90
        2
176
     1
 90
        2
176
     1
 90
        1
176
     1
 90
        2
176
     1
 40
0.6
176
     1
 40
30.0
176
     1
 62
     7
420
 16777215
176
     1
 90
        1
176
     1
 90
        0
176
     1
 62
     7
176
     1
 62
   257
176
     1
 90
        1
176
     1
 90
        1
176
     1
 40
1.0
176
     1
 90
        0
176
     1
 62
   257
176
     1
 40
1.0
176
     1
 90
        1
176
     1
 90
        6
176
     1
 90
        2
176
     1
 62
     7
176
     1
 90
        5
176
     1
 90
        0
176
     1
 90
        0
176
     1
290
     0
176
     1
 90
       13
176
     1
 40
0.0
176
     1
 90
        0
176
     1
290
     0
176
     1
290
     1
176
     1
290
     1
176
     1
290
     0
176
     1
290
     0
176
     1
290
     0
176
     1
290
     0
176
     1
290
     0
176
     1
290
     0
176
     1
 90
       50
176
     1
 40
0.0
176
     1
 40
1.0
176
     1
 90
        0
176
     1
 62
    18
420
        0
176
     1
 90
       50
176
     1
 90
        3
176
     1
 62
     5
420
      255
176
     1
290
     0
176
     1
 90
       50
176
     1
 90
       50
176
     1
 90
       50
176
     1
290
     0
176
     1
 90
       50
176
     1
 62
   256
176
     0
 40
1.0
176
     0
 90
        2
176
     1
  1
strokes_ogs.tif
176
     1
290
     0
176
     1
 40
1.0
176
     1
 40
1.0
176
     1
  0
VISUALSTYLE
  5
A1
102
{ACAD_REACTORS
330
99
102
}
330
99
100
AcDbVisualStyle
  2
Hidden
 70
     6
177
     3
291
     0
 70
    58
 90
        1
176
     1
 90
        2
176
     1
 90
        2
176
     1
 90
        0
176
     1
 40
0.6
176
     1
 40
30.0
176
     1
 62
     7
420
 16777215
176
     1
 90
        2
176
     1
 90
        2
176
     1
 62
     7
176
     1
 62
   257
176
     1
 90
        2
176
     1
 90
        1
176
     1
 40
40.0
176
     1
 90
        0
176
     1
 62
   257
176
     1
 40
1.0
176
     1
 90
        1
176
     1
 90
        6
176
     1
 90
        2
176
     1
 62
     7
176
     1
 90
        3
176
     1
 90
        0
176
     1
 90
        0
176
     1
290
     0
176
     1
 90
        1
176
     1
 40
0.0
176
     1
 90
        0
176
     1
290
     0
176
     1
290
     1
176
     1
290
     1
176
     1
290
     0
176
     1
290
     0
176
     1
290
     0
176
     1
290
     0
176
     1
290
     0
176
     1
290
     0
176
     1
 90
       50
176
     1
 40
0.0
176
     1
 40
1.0
176
     1
 90
        0
176
     1
 62
    18
420
        0
176
     1
 90
       50
176
     1
 90
        3
176
     1
 62
     5
420
      255
176
     1
290
     0
176
     1
 90
       50
176
     1
 90
       50
176
     1
 90
       50
176
     1
290
     0
176
     1
 90
       50
176
     1
 62
   256
176
     0
 40
1.0
176
     0
 90
        2
176
     1
  1
strokes_ogs.tif
176
     1
290
     0
176
     1
 40
1.0
176
     1
 40
1.0
176
     1
  0
VISUALSTYLE
  5
173
102
{ACAD_REACTORS
330
99
102
}
330
99
100
AcDbVisualStyle
  2
JitterOff
 70
    20
177
     3
291
     1
 70
    58
 90
        2
176
     0
 90
        2
176
     0
 90
        0
176
     0
 90
        0
176
     0
 40
0.6
176
     0
 40
30.0
176
     0
 62
     7
420
 16777215
176
     0
 90
        1
176
     0
 90
        4
176
     0
 62
     7
176
     0
 62
   257
176
     0
 90
        1
176
     0
 90
        1
176
     0
 40
1.0
176
     0
 90
       10
176
     2
 62
     7
176
     0
 40
1.0
176
     0
 90
        1
176
     0
 90
        6
176
     0
 90
        2
176
     0
 62
     7
176
     0
 90
        5
176
     0
 90
        0
176
     0
 90
        0
176
     0
290
     0
176
     0
 90
        1
176
     0
 40
0.0
176
     0
 90
        0
176
     0
290
     0
176
     1
290
     1
176
     1
290
     1
176
     1
290
     0
176
     1
290
     0
176
     1
290
     0
176
     1
290
     0
176
     1
290
     0
176
     1
290
     0
176
     1
 90
       50
176
     1
 40
0.0
176
     1
 40
1.0
176
     1
 90
        0
176
     1
 62
    18
420
        0
176
     1
 90
       50
176
     1
 90
        3
176
     1
 62
     5
420
      255
176
     1
290
     0
176
     1
 90
       50
176
     1
 90
       50
176
     1
 90
       50
176
     1
290
     0
176
     1
 90
       50
176
     1
 62
   256
176
     0
 40
1.0
176
     0
 90
        2
176
     1
  1
strokes_ogs.tif
176
     1
290
     0
176
     1
 40
1.0
176
     1
 40
1.0
176
     1
  0
VISUALSTYLE
  5
A7
102
{ACAD_REACTORS
330
99
102
}
330
99
100
AcDbVisualStyle
  2
Linepattern
 70
    14
177
     3
291
     1
 70
    58
 90
        2
176
     1
 90
        2
176
     1
 90
        1
176
     1
 90
        0
176
     1
 40
0.6
176
     1
 40
30.0
176
     1
 62
     7
420
 16777215
176
     1
 90
        1
176
     1
 90
        4
176
     1
 62
     7
176
     1
 62
   257
176
     1
 90
        7
176
     1
 90
        7
176
     1
 40
1.0
176
     1
 90
        8
176
     1
 62
     7
176
     1
 40
1.0
176
     1
 90
        1
176
     1
 90
        6
176
     1
 90
        2
176
     1
 62
     7
176
     1
 90
        5
176
     1
 90
        0
176
     1
 90
        0
176
     1
290
     0
176
     1
 90
        1
176
     1
 40
0.0
176
     1
 90
        0
176
     1
290
     0
176
     1
290
     1
176
     1
290
     1
176
     1
290
     0
176
     1
290
     0
176
     1
290
     0
176
     1
290
     0
176
     1
290
     0
176
     1
290
     0
176
     1
 90
       50
176
     1
 40
0.0
176
     1
 40
1.0
176
     1
 90
        0
176
     1
 62
    18
420
        0
176
     1
 90
       50
176
     1
 90
        3
176
     1
 62
     5
420
      255
176
     1
290
     0
176
     1
 90
       50
176
     1
 90
       50
176
     1
 90
       50
176
     1
290
     0
176
     1
 90
       50
176
     1
 62
   256
176
     0
 40
1.0
176
     0
 90
        2
176
     1
  1
strokes_ogs.tif
176
     1
290
     0
176
     1
 40
1.0
176
     1
 40
1.0
176
     1
  0
VISUALSTYLE
  5
174
102
{ACAD_REACTORS
330
99
102
}
330
99
100
AcDbVisualStyle
  2
OverhangOff
 70
    21
177
     3
291
     1
 70
    58
 90
        2
176
     0
 90
        2
176
     0
 90
        0
176
     0
 90
        0
176
     0
 40
0.6
176
     0
 40
30.0
176
     0
 62
     7
420
 16777215
176
     0
 90
        1
176
     0
 90
        4
176
     0
 62
     7
176
     0
 62
   257
176
     0
 90
        1
176
     0
 90
        1
176
     0
 40
1.0
176
     0
 90
        9
176
     2
 62
     7
176
     0
 40
1.0
176
     0
 90
        1
176
     0
 90
        6
176
     0
 90
        2
176
     0
 62
     7
176
     0
 90
        5
176
     0
 90
        0
176
     0
 90
        0
176
     0
290
     0
176
     0
 90
        1
176
     0
 40
0.0
176
     0
 90
        0
176
     0
290
     0
176
     1
290
     1
176
     1
290
     1
176
     1
290
     0
176
     1
290
     0
176
     1
290
     0
176
     1
290
     0
176
     1
290
     0
176
     1
290
     0
176
     1
 90
       50
176
     1
 40
0.0
176
     1
 40
1.0
176
     1
 90
        0
176
     1
 62
    18
420
        0
176
     1
 90
       50
176
     1
 90
        3
176
     1
 62
     5
420
      255
176
     1
290
     0
176
     1
 90
       50
176
     1
 90
       50
176
     1
 90
       50
176
     1
290
     0
176
     1
 90
       50
176
     1
 62
   256
176
     0
 40
1.0
176
     0
 90
        2
176
     1
  1
strokes_ogs.tif
176
     1
290
     0
176
     1
 40
1.0
176
     1
 40
1.0
176
     1
  0
VISUALSTYLE
  5
A3
102
{ACAD_REACTORS
330
99
102
}
330
99
100
AcDbVisualStyle
  2
Realistic
 70
     8
177
     3
291
     0
 70
    58
 90
        2
176
     1
 90
        2
176
     1
 90
        0
176
     1
 90
        2
176
     1
 40
0.6
176
     1
 40
30.0
176
     1
 62
     7
420
 16777215
176
     1
 90
        0
176
     1
 90
        0
176
     1
 62
     7
176
     1
 62
   257
176
     1
 90
        1
176
     1
 90
        1
176
     1
 40
1.0
176
     1
 90
        8
176
     1
 62
   257
176
     1
 40
1.0
176
     1
 90
        1
176
     1
 90
        6
176
     1
 90
        2
176
     1
 62
     7
176
     1
 90
        3
176
     1
 90
        0
176
     1
 90
        0
176
     1
290
     0
176
     1
 90
       13
176
     1
 40
0.0
176
     1
 90
        0
176
     1
290
     0
176
     1
290
     1
176
     1
290
     1
176
     1
290
     0
176
     1
290
     0
176
     1
290
     0
176
     1
290
     0
176
     1
290
     0
176
     1
290
     0
176
     1
 90
       50
176
     1
 40
0.0
176
     1
 40
1.0
176
     1
 90
        0
176
     1
 62
    18
420
        0
176
     1
 90
       50
176
     1
 90
        3
176
     1
 62
     5
420
      255
176
     1
290
     0
176
     1
 90
       50
176
     1
 90
       50
176
     1
 90
       50
176
     1
290
     0
176
     1
 90
       50
176
     1
 62
   256
176
     0
 40
1.0
176
     0
 90
        2
176
     1
  1
strokes_ogs.tif
176
     1
290
     0
176
     1
 40
1.0
176
     1
 40
1.0
176
     1
  0
VISUALSTYLE
  5
182
102
{ACAD_REACTORS
330
99
102
}
330
99
100
AcDbVisualStyle
  2
Shaded
 70
    27
177
     3
291
     0
 70
    58
 90
        2
176
     1
 90
        2
176
     1
 90
        1
176
     1
 90
        2
176
     1
 40
0.6
176
     1
 40
30.0
176
     1
 62
     7
420
 16777215
176
     1
 90
        0
176
     1
 90
        4
176
     1
 62
     7
176
     1
 62
   257
176
     1
 90
        1
176
     1
 90
        1
176
     1
 40
1.0
176
     1
 90
        8
176
     1
 62
   257
176
     1
 40
1.0
176
     1
 90
        1
176
     1
 90
        6
176
     1
 90
        2
176
     1
 62
     8
420
  7895160
176
     1
 90
        3
176
     1
 90
        0
176
     1
 90
        0
176
     1
290
     0
176
     1
 90
        5
176
     1
 40
0.0
176
     1
 90
        0
176
     1
290
     0
176
     1
290
     1
176
     1
290
     1
176
     1
290
     0
176
     1
290
     0
176
     1
290
     0
176
     1
290
     0
176
     1
290
     0
176
     1
290
     0
176
     1
 90
       50
176
     1
 40
0.0
176
     1
 40
1.0
176
     1
 90
        0
176
     1
 62
    18
420
        0
176
     1
 90
       50
176
     1
 90
        3
176
     1
 62
     5
420
      255
176
     1
290
     0
176
     1
 90
       50
176
     1
 90
       50
176
     1
 90
       50
176
     1
290
     0
176
     1
 90
       50
176
     1
 62
   256
176
     0
 40
1.0
176
     0
 90
        2
176
     1
  1
strokes_ogs.tif
176
     1
290
     0
176
     1
 40
1.0
176
     1
 40
1.0
176
     1
  0
VISUALSTYLE
  5
181
102
{ACAD_REACTORS
330
99
102
}
330
99
100
AcDbVisualStyle
  2
Shaded with edges
 70
    26
177
     3
291
     0
 70
    58
 90
        2
176
     1
 90
        2
176
     1
 90
        1
176
     1
 90
        2
176
     1
 40
0.6
176
     1
 40
30.0
176
     1
 62
     7
420
 16777215
176
     1
 90
        1
176
     1
 90
        2
176
     1
 62
     7
176
     1
 62
   257
176
     1
 90
        2
176
     1
 90
        1
176
     1
 40
1.0
176
     1
 90
        8
176
     1
 62
   257
176
     1
 40
1.0
176
     1
 90
        1
176
     1
 90
        6
176
     1
 90
        2
176
     1
 62
     7
176
     1
 90
        3
176
     1
 90
        0
176
     1
 90
        0
176
     1
290
     0
176
     1
 90
        5
176
     1
 40
0.0
176
     1
 90
        0
176
     1
290
     0
176
     1
290
     1
176
     1
290
     1
176
     1
290
     0
176
     1
290
     0
176
     1
290
     0
176
     1
290
     0
176
     1
290
     0
176
     1
290
     0
176
     1
 90
       50
176
     1
 40
0.0
176
     1
 40
1.0
176
     1
 90
        0
176
     1
 62
    18
420
        0
176
     1
 90
       50
176
     1
 90
        3
176
     1
 62
     5
420
      255
176
     1
290
     0
176
     1
 90
       50
176
     1
 90
       50
176
     1
 90
       50
176
     1
290
     0
176
     1
 90
       50
176
     1
 62
   256
176
     0
 40
1.0
176
     0
 90
        2
176
     1
  1
strokes_ogs.tif
176
     1
290
     0
176
     1
 40
1.0
176
     1
 40
1.0
176
     1
  0
VISUALSTYLE
  5
17E
102
{ACAD_REACTORS
330
99
102
}
330
99
100
AcDbVisualStyle
  2
Shades of Gray
 70
    23
177
     3
291
     0
 70
    58
 90
        2
176
     1
 90
        2
176
     1
 90
        3
176
     1
 90
        0
176
     1
 40
0.6
176
     1
 40
30.0
176
     1
 62
     7
420
 16777215
176
     1
 90
        2
176
     1
 90
        2
176
     1
 62
     7
176
     1
 62
     7
176
     1
 90
        1
176
     1
 90
        1
176
     1
 40
40.0
176
     1
 90
        8
176
     1
 62
     7
176
     1
 40
1.0
176
     1
 90
        1
176
     1
 90
        6
176
     1
 90
        2
176
     1
 62
     7
176
     1
 90
        3
176
     1
 90
        0
176
     1
 90
        0
176
     1
290
     0
176
     1
 90
        1
176
     1
 40
0.0
176
     1
 90
        0
176
     1
290
     0
176
     1
290
     1
176
     1
290
     1
176
     1
290
     0
176
     1
290
     0
176
     1
290
     0
176
     1
290
     0
176
     1
290
     0
176
     1
290
     0
176
     1
 90
       50
176
     1
 40
0.0
176
     1
 40
1.0
176
     1
 90
        0
176
     1
 62
    18
420
        0
176
     1
 90
       50
176
     1
 90
        3
176
     1
 62
     5
420
      255
176
     1
290
     0
176
     1
 90
       50
176
     1
 90
       50
176
     1
 90
       50
176
     1
290
     0
176
     1
 90
       50
176
     1
 62
   256
176
     0
 40
1.0
176
     0
 90
        2
176
     1
  1
strokes_ogs.tif
176
     1
290
     0
176
     1
 40
1.0
176
     1
 40
1.0
176
     1
  0
VISUALSTYLE
  5
17F
102
{ACAD_REACTORS
330
99
102
}
330
99
100
AcDbVisualStyle
  2
Sketchy
 70
    24
177
     3
291
     0
 70
    58
 90
        1
176
     1
 90
        2
176
     1
 90
        2
176
     1
 90
        0
176
     1
 40
0.6
176
     1
 40
30.0
176
     1
 62
     7
420
 16777215
176
     1
 90
        2
176
     1
 90
        2
176
     1
 62
     7
176
     1
 62
     7
176
     1
 90
        1
176
     1
 90
        1
176
     1
 40
40.0
176
     1
 90
       11
176
     1
 62
     7
176
     1
 40
1.0
176
     1
 90
        1
176
     1
 90
        6
176
     1
 90
        2
176
     1
 62
     7
176
     1
 90
        6
176
     1
 90
        0
176
     1
 90
        0
176
     1
290
     0
176
     1
 90
        1
176
     1
 40
0.0
176
     1
 90
        0
176
     1
290
     0
176
     1
290
     1
176
     1
290
     1
176
     1
290
     0
176
     1
290
     0
176
     1
290
     0
176
     1
290
     0
176
     1
290
     0
176
     1
290
     0
176
     1
 90
       50
176
     1
 40
0.0
176
     1
 40
1.0
176
     1
 90
        0
176
     1
 62
    18
420
        0
176
     1
 90
       50
176
     1
 90
        3
176
     1
 62
     5
420
      255
176
     1
290
     0
176
     1
 90
       50
176
     1
 90
       50
176
     1
 90
       50
176
     1
290
     0
176
     1
 90
       50
176
     1
 62
   256
176
     0
 40
1.0
176
     0
 90
        2
176
     1
  1
strokes_ogs.tif
176
     1
290
     0
176
     1
 40
1.0
176
     1
 40
1.0
176
     1
  0
VISUALSTYLE
  5
A6
102
{ACAD_REACTORS
330
99
102
}
330
99
100
AcDbVisualStyle
  2
Thicken
 70
    13
177
     3
291
     1
 70
    58
 90
        2
176
     1
 90
        2
176
     1
 90
        1
176
     1
 90
        0
176
     1
 40
0.6
176
     1
 40
30.0
176
     1
 62
     7
420
 16777215
176
     1
 90
        1
176
     1
 90
        4
176
     1
 62
     7
176
     1
 62
   257
176
     1
 90
        1
176
     1
 90
        1
176
     1
 40
1.0
176
     1
 90
       12
176
     1
 62
     7
176
     1
 40
1.0
176
     1
 90
        1
176
     1
 90
        6
176
     1
 90
        2
176
     1
 62
     7
176
     1
 90
        5
176
     1
 90
        0
176
     1
 90
        0
176
     1
290
     0
176
     1
 90
        1
176
     1
 40
0.0
176
     1
 90
        0
176
     1
290
     0
176
     1
290
     1
176
     1
290
     1
176
     1
290
     0
176
     1
290
     0
176
     1
290
     0
176
     1
290
     0
176
     1
290
     0
176
     1
290
     0
176
     1
 90
       50
176
     1
 40
0.0
176
     1
 40
1.0
176
     1
 90
        0
176
     1
 62
    18
420
        0
176
     1
 90
       50
176
     1
 90
        3
176
     1
 62
     5
420
      255
176
     1
290
     0
176
     1
 90
       50
176
     1
 90
       50
176
     1
 90
       50
176
     1
290
     0
176
     1
 90
       50
176
     1
 62
   256
176
     0
 40
1.0
176
     0
 90
        2
176
     1
  1
strokes_ogs.tif
176
     1
290
     0
176
     1
 40
1.0
176
     1
 40
1.0
176
     1
  0
VISUALSTYLE
  5
A0
102
{ACAD_REACTORS
330
99
102
}
330
99
100
AcDbVisualStyle
  2
Wireframe
 70
     5
177
     3
291
     0
 70
    58
 90
        0
176
     1
 90
        2
176
     1
 90
        0
176
     1
 90
        0
176
     1
 40
0.6
176
     1
 40
30.0
176
     1
 62
     7
420
 16777215
176
     1
 90
        1
176
     1
 90
        4
176
     1
 62
     7
176
     1
 62
   257
176
     1
 90
        1
176
     1
 90
        1
176
     1
 40
1.0
176
     1
 90
        0
176
     1
 62
   257
176
     1
 40
1.0
176
     1
 90
        1
176
     1
 90
        6
176
     1
 90
        2
176
     1
 62
     7
176
     1
 90
        3
176
     1
 90
        0
176
     1
 90
        0
176
     1
290
     0
176
     1
 90
        1
176
     1
 40
0.0
176
     1
 90
        0
176
     1
290
     0
176
     1
290
     1
176
     1
290
     1
176
     1
290
     0
176
     1
290
     0
176
     1
290
     0
176
     1
290
     0
176
     1
290
     0
176
     1
290
     0
176
     1
 90
       50
176
     1
 40
0.0
176
     1
 40
1.0
176
     1
 90
        0
176
     1
 62
    18
420
        0
176
     1
 90
       50
176
     1
 90
        3
176
     1
 62
     5
420
      255
176
     1
290
     0
176
     1
 90
       50
176
     1
 90
       50
176
     1
 90
       50
176
     1
290
     0
176
     1
 90
       50
176
     1
 62
   256
176
     0
 40
1.0
176
     0
 90
        2
176
     1
  1
strokes_ogs.tif
176
     1
290
     0
176
     1
 40
1.0
176
     1
 40
1.0
176
     1
  0
VISUALSTYLE
  5
180
102
{ACAD_REACTORS
330
99
102
}
330
99
100
AcDbVisualStyle
  2
X-Ray
 70
    25
177
     3
291
     0
 70
    58
 90
        2
176
     1
 90
        2
176
     1
 90
        1
176
     1
 90
        1
176
     1
 40
0.5
176
     1
 40
30.0
176
     1
 62
     7
420
 16777215
176
     1
 90
        1
176
     1
 90
        0
176
     1
 62
     7
176
     1
 62
   257
176
     1
 90
        1
176
     1
 90
        1
176
     1
 40
1.0
176
     1
 90
        8
176
     1
 62
     7
176
     1
 40
1.0
176
     1
 90
        1
176
     1
 90
        6
176
     1
 90
        2
176
     1
 62
     7
176
     1
 90
        3
176
     1
 90
        0
176
     1
 90
        0
176
     1
290
     0
176
     1
 90
       13
176
     1
 40
0.0
176
     1
 90
        0
176
     1
290
     0
176
     1
290
     1
176
     1
290
     1
176
     1
290
     0
176
     1
290
     0
176
     1
290
     0
176
     1
290
     0
176
     1
290
     0
176
     1
290
     0
176
     1
 90
       50
176
     1
 40
0.0
176
     1
 40
1.0
176
     1
 90
        0
176
     1
 62
    18
420
        0
176
     1
 90
       50
176
     1
 90
        3
176
     1
 62
     5
420
      255
176
     1
290
     0
176
     1
 90
       50
176
     1
 90
       50
176
     1
 90
       50
176
     1
290
     0
176
     1
 90
       50
176
     1
 62
   256
176
     0
 40
1.0
176
     0
 90
        2
176
     1
  1
strokes_ogs.tif
176
     1
290
     0
176
     1
 40
1.0
176
     1
 40
1.0
176
     1
  0
DICTIONARYVAR
  5
4A0D6
102
{ACAD_REACTORS
330
4A0D5
102
}
330
4A0D5
100
DictionaryVariables
280
     0
  1
2
  0
DICTIONARYVAR
  5
4A0D7
102
{ACAD_REACTORS
330
4A0D5
102
}
330
4A0D5
100
DictionaryVariables
280
     0
  1
400.000000
  0
DICTIONARYVAR
  5
4A0D8
102
{ACAD_REACTORS
330
4A0D5
102
}
330
4A0D5
100
DictionaryVariables
280
     0
  1
1
  0
DICTIONARYVAR
  5
4A0D9
102
{ACAD_REACTORS
330
4A0D5
102
}
330
4A0D5
100
DictionaryVariables
280
     0
  1
1:1
  0
DICTIONARYVAR
  5
4A0DA
102
{ACAD_REACTORS
330
4A0D5
102
}
330
4A0D5
100
DictionaryVariables
280
     0
  1
STANDARD
  0
DICTIONARYVAR
  5
4A0DB
102
{ACAD_REACTORS
330
4A0D5
102
}
330
4A0D5
100
DictionaryVariables
280
     0
  1
STANDARD
  0
DICTIONARYVAR
  5
4A0DC
102
{ACAD_REACTORS
330
4A0D5
102
}
330
4A0D5
100
DictionaryVariables
280
     0
  1
Imperial24
  0
DICTIONARYVAR
  5
4A0DD
102
{ACAD_REACTORS
330
4A0D5
102
}
330
4A0D5
100
DictionaryVariables
280
     0
  1
Imperial24
  0
DICTIONARYVAR
  5
4A0DE
102
{ACAD_REACTORS
330
4A0D5
102
}
330
4A0D5
100
DictionaryVariables
280
     0
  1
-1
  0
DICTIONARYVAR
  5
4A0DF
102
{ACAD_REACTORS
330
4A0D5
102
}
330
4A0D5
100
DictionaryVariables
280
     0
  1
1
  0
DICTIONARYVAR
  5
4A0E0
102
{ACAD_REACTORS
330
4A0D5
102
}
330
4A0D5
100
DictionaryVariables
280
     0
  1
2
  0
DICTIONARYVAR
  5
4A0E1
102
{ACAD_REACTORS
330
4A0D5
102
}
330
4A0D5
100
DictionaryVariables
280
     0
  1
0
  0
DICTIONARYVAR
  5
4A0E2
102
{ACAD_REACTORS
330
4A0D5
102
}
330
4A0D5
100
DictionaryVariables
280
     0
  1
4
  0
DICTIONARYVAR
  5
4A0E3
102
{ACAD_REACTORS
330
4A0D5
102
}
330
4A0D5
100
DictionaryVariables
280
     0
  1
V-Construction
  0
DICTIONARYVAR
  5
4A0E4
102
{ACAD_REACTORS
330
4A0D5
102
}
330
4A0D5
100
DictionaryVariables
280
     0
  1
ByLayer
  0
DICTIONARYVAR
  5
4A0E5
102
{ACAD_REACTORS
330
4A0D5
102
}
330
4A0D5
100
DictionaryVariables
280
     0
  1
0
  0
DICTIONARYVAR
  5
4A0E6
102
{ACAD_REACTORS
330
4A0D5
102
}
330
4A0D5
100
DictionaryVariables
280
     0
  1
0
  0
DICTIONARYVAR
  5
4A0E7
102
{ACAD_REACTORS
330
4A0D5
102
}
330
4A0D5
100
DictionaryVariables
280
     0
  1
0
  0
DICTIONARYVAR
  5
4A0E8
102
{ACAD_REACTORS
330
4A0D5
102
}
330
4A0D5
100
DictionaryVariables
280
     0
  1
2
  0
DICTIONARYVAR
  5
4A0E9
102
{ACAD_REACTORS
330
4A0D5
102
}
330
4A0D5
100
DictionaryVariables
280
     0
  1
1.000000
  0
DICTIONARYVAR
  5
4A0EA
102
{ACAD_REACTORS
330
4A0D5
102
}
330
4A0D5
100
DictionaryVariables
280
     0
  1
1
  0
DICTIONARYVAR
  5
4A0EB
102
{ACAD_REACTORS
330
4A0D5
102
}
330
4A0D5
100
DictionaryVariables
280
     0
  1
1.000000
  0
DICTIONARYVAR
  5
4A0EC
102
{ACAD_REACTORS
330
4A0D5
102
}
330
4A0D5
100
DictionaryVariables
280
     0
  1
1
  0
DICTIONARYVAR
  5
4A0ED
102
{ACAD_REACTORS
330
4A0D5
102
}
330
4A0D5
100
DictionaryVariables
280
     0
  1
0
  0
DICTIONARYVAR
  5
4A0EE
102
{ACAD_REACTORS
330
4A0D5
102
}
330
4A0D5
100
DictionaryVariables
280
     0
  1

  0
DICTIONARYVAR
  5
4A0EF
102
{ACAD_REACTORS
330
4A0D5
102
}
330
4A0D5
100
DictionaryVariables
280
     0
  1
0
  0
DICTIONARYVAR
  5
4A0F0
102
{ACAD_REACTORS
330
4A0D5
102
}
330
4A0D5
100
DictionaryVariables
280
     0
  1
127
  0
DICTIONARY
  5
194
330
22
100
AcDbDictionary
280
     1
281
     1
  0
DICTIONARY
  5
188
330
97
100
AcDbDictionary
280
     1
281
     1
  3
FBXASSET
360
189
  0
DICTIONARY
  5
186
330
96
100
AcDbDictionary
280
     1
281
     1
  3
FBXASSET
360
187
  0
DICTIONARY
  5
110
330
98
100
AcDbDictionary
280
     1
281
     1
  3
BUMPTILE
360
112
  3
DIFFUSETILE
360
111
  3
FBXASSET
360
18A
  3
OPACITYTILE
360
113
  3
REFLECTIONTILE
360
114
  0
DICTIONARY
  5
104
330
87
100
AcDbDictionary
280
     1
281
     1
  3
ACAD_ROUNDTRIP_2008_TABLESTYLE_CELLSTYLEMAP
360
5126E
  0
XRECORD
  5
189
102
{ACAD_REACTORS
330
188
102
}
330
188
100
AcDbXrecord
280
     1
 70
     1
 90
429727718
  1
508B35C9-AEE7-456F-BE74-D52651303AC6
310
504B03040A0000080000B670623B3DEE336E79000000790000001B0000006175746F6465736B2D64657369676E2D7061636B6167652E786D6C3C3F786D6C2076657273696F6E3D22312E302220656E636F64696E673D227574662D3822203F3E3C666F726D6174733E3C666F726D61743E687474703A2F2F736368656D612E
310
6175746F6465736B2E636F6D2F64657369676E2D7061636B6167652F323030393C2F666F726D61743E3C2F666F726D6174733E504B0304140006080800B670623BD486FD9CA0000000F4000000130000005B436F6E74656E745F54797065735D2E786D6C7D8EC10E82300C865F65E91D8A1E8C310C0EEA1BF002731658846E
310
D98AC1B77784ABF1D8FE5FBFBF75BBCE937A534CCEB38643598122B6FEE978D0B0485F9C41B54DDD7D022595594E1A469170414C76A4D9A4D207E29CF43ECE46F218070CC6BECC4078ACAA135ACF422C856C0E68EA1BF5669944DDD7BCDE7B1F8E415D77AECB980613C2E4AC91FC167A2B244592486606FC29C8FD7F045B9A
310
EF7053A7E60B504B0304140006080800B670623B28ED286BEB0000007C01000008000000636F72652E786D6C8D90416EC3201045AF82665B6183218D6D61A254764FD00B204C5C94182C03558F5F9C3852BBEB6A467FFE9B197D71FA9E6FE8CBACC17AD7012D0820E3B41FAD9B3A48F1826B40272956EFE32F1B20A766D3C1
310
268314D3EAD3B24BDABB685CCCAAF3A3D94515828980F42D371D04FD696655A814B3235C8B45E9AB9A4C419F5D8653B2237A1CB163DE672FD6AC209BF3C08E0D1B30EB19C3FC9D72FCC6EB231EFA33EDE96BDD341517E5064B11EDFCBCAF57A3A2194156843498524CAA0FCA5B7268F9E185D42D21A2DCEC7FA0B48CFF8492
310
759155FBBB0F2C80A4F991FB408A72CB22977B50B96EB9C91F504B0304140006080800B670623B55019EA25F0000007C00000007000000636E782E786D6C4DCB3B0E80201045D1AD90E915ED2CF8AC45050C11660C8261F98AB1B07AC9C97D42D718D865D3E909258CFD00CCE24AC6E326A164D74DC0B4128928FF32603847
310
2BA13128B1252AC747C6BAB984FC68F0B87FE8960A5C09FE86CFB69FBA01504B0304140006080800B670623B7BC41AC871010000D40300000C0000006662782F636F72652E786D6CC553ED6E8320147D15C2DF4501B56B6D90A64BBB27D80B50A5CE54C120983EFEAE1F4DD7A56BBA5FF3879273EEE59E7310BE393735EA95
310
ED2AA333CC428A91D2B9292A5D66D8BB63B0C26823B835C67D2BC348CB46657880B1E0A535BE9DA1DC68A7B403549B42CDA0EC3AE530CA6B5864B8CB3F552343E91D5474A7B095F949962A6421D0502778E72C0840D390E18DC5F170E664C205F7BE2A66B62A605A75AC94C522DDEEE3651AEF837817C741F2CE92E02D592D
310
83FD6ECB76EC7595A651C2C9D02CB8AB9A8BBADC2AE954814544691A3016D0E883256BBA58278B17BA5A53CAC9507ED3E4DBE2C9265F691747B3DCA9ADC382819091F8E1162272A8933DE82182932144F88C09DF060D8140C84E1EEA8B8F1340BDCA9DB1093085F157AA97B557309586747CD0EF0B4EA64E983A6E0EAEEFCE
310
889E9EF17847386AA94B30211D2C0FDE0D3AF9A4610EAD5536E8DD1969631B593F67E381C33F5157F17725E5A636F6BF1491F980C8FC7B90E13E8A2F504B0304140006080800B670623B70102A487D0000009D0000000B0000006662782F636E782E786D6C4DCCD10A83201886E15B91FFDC95A5C30335ACCDFB886521330D
310
A76397BF1A1DECE883878F57749FD5A3B74D2F17830472A901D9F088930B8B849267CC01754AA418F3DF0D5018572BE160506249B16C274D761E8BCFBB7A179E27F65CB39A0F14D396184C9921B81F34C3ACA1B4B99ABB6E6F062A25AA5F69DF23ACBE504B0304140006080800B670623B3610CA3329010000120200003100
310
00006662782F42384135303843342D343331462D343546312D424341352D3532343432364645413344462F636F72652E786D6C8D515B6EC32010BC0AE22B55850D0E446E848992B43E412FE000495162B07854397EA176A4F62F3F2C9A9D991D58BEBB8F37F0AD7D30CE76905418026DA553C65E3A98E219B510EC04F7CEC5
310
3F3408EC30EA0E16180A7EF12E4D0B249D8DDAC68C5AA7F4020E21E80881BCE54B0783FCD2E3500D296646B856D320AFC34557A4CAEDCC133C449F0380794839A138B47B86DB2345744D7A44594FD0E1B867883594369BFE63BF7EEF793D0B054FC9A8456E548E63CE46FB674D8A58F068C6477CE9F510B582A2C1F80D1182
310
70F349E816B32D65AFB8DD62CCEB42FF274A937A52948C8DEB66893BCB021484D7734370E5D2E9F608A3EF93F3119479ABA0E50B14B8C298119A43CCC4FCFCECB8A18B6388CEE7EF5D5D4F994BD86CBBA182D76543B9FCAE2FD7B24DF103504B0304140006080800B670623B1B8617914E0100003303000030000000666278
310
2F42384135303843342D343331462D343546312D424341352D3532343432364645413344462F636E782E786D6CD593C16EC32010447F0571AD6CE3D489D20813A9877E410FBD62D82434182CC055F3F75D1292E692438FBD206B7698593D61BEFD1E2DF982108D773D6D6B460938E5B571FB9ECE6957AD29D90A1EBC4F7736
310
4A9C1CA1A759A682EF839FA72269D8C9D92654AD71C72206887E0E0A22CAF926B15E498B01E0AA19451807D01A34B919F16B070157417138917400F2F6FA41FCF0092A45DEE414C19BDC21783E4BD39D891265658C3D8DEA00A3ACE59CBC8678ACB54CB26EEB6BD7839D7E9348BE70AD9C8321B9BCA7F9A4A26C542347DEE0
310
50F09802D22BA6749A800A394DD62899107273365E3C82CFC6A55557BC06C10774B7ABE7AEC3B0F34CF06446280E154026D0542C187BA9DAB6628BF7B6DBB0E5A65B3EB1F58631DE64BBE083F7B65CC218087E22CABB042E51D1F2268F1FE12B3EA24D40D63E9CFE00120194D60B9D5BC67FE6D39CDF37E20AF817881F504B
310
0304140006080800B670623BBFEF2E3B690500003C100000340000006662782F42384135303843342D343331462D343546312D424341352D3532343432364645413344462F6F626A656374732E786D6CAD575D739B3814FD2B0CFB0C98D84E931D4227B6938EA793B6534F3BFB90198F0099B001899144EAECAFDF231018B0
310
D37A3FFC609090EEE7B94757C1FB7D915B2F54C88CB31BDB7727B64559CC938CA53776A576CE956DBD0F03C1B9EA2DB32D460A7A63EB693B0C52C1ABD24C257447AA5C8D66EF177F5832A68CDA569C13296F6C193FD182B8A4523CA1F2D94D88226EBADBBBBEDB2C1C8A4D05299F46424B222853B014F30C52ACC6287F389C
310
D85E1878FA7B18E87FB36AFAF62AAFF667A83F635211161F291B8999FAB3D5DDC5FCDA99CF6653677679E13B8BFBC5CAF1DF4D27CBCBE5F2FAF6EE1A8AA51290642C117467871F101B91C581D77CEA2C36869F3229E68CD1B8F61F1ED6361B89092D294B90C78C4A68EB793D190E7D1D9BDEE7A91E1B95FDE9F3BCEAEFE809
310
6A6D6F9F7D4B79F4275C90E7A04248AA51D5C4C738DAE06F72885AC4796EBE65D22A88A22223B995679120E2D50EB1542F098381188D4EA111AE3DB043FF20AF6F2B4AE3D7D83D65E5AECA730D4D3BAC91BD05FEA992B565D95F549CD6069B90AB2A63EACA38A45E4B6A87D781574F86817E4C2FCCC72690D62E2729520E37
310
9BAF234797BAF6D62B3BFC781FED37BA1E4F2B2F052FA9501A3E80569BB8F6A9A364D4FA67654E6F803383981F82F21591FF84F23D9882BC896C3FDBCF8C162508933B2E0AE4C69DD43F6BD2BE38DDDBF10BF86CB4FA784D37F3AF16075E67EC9030DECA1FC0A55373F5DFF3378C591FA9BDF485C10B0A8C8BA909E5262639
310
A8E72163488806A595734C81CB77D1DE0ED7604A303B76913CEC0272F412782FF88EFF4636D8AA56DF7B322474C4B767303F625997056C7B032C473C592B36CEBD15F3F9FF5233B7ABCDC74D257624A60F8658567497B14CE1EC3C80B76FD02011038F9EE9EB0F2E12387A9C844D3F09855125116D1D731DF8B43D2CF4E0A0
310
79A020C6BE946BCE0B7EA1E1219331CD73C228AF5A2DDD31A4B1DA918CE91350854D40A71723140BFA92E94E62B0626016CEFA5864A50E5977E8753CEDBEE1CBB7F52780D20E17AF0BA0F5F9B02A3AD07DCC732EB6D1EBB661421BE0C39E21BABF0FE16D22EA6929407C8DE596724C88B749B6DB5512BC7B228ADFD7CB7EA6
310
3A22397E690BA8D5D8D4E40CEC8CDA23C2C0B7D5898640101CEC9C6D331CE328CB93CAFBBAC70A642DF70DF95155945B52F08AA973C23469FD69ADEF84F7BB18F983A8F8C90E37F5D35980B2139A1C523540813E824EF83448CF7C72B598CE97D7CEEDDDDD3B6736BFBC771677EF66CE6A7E7139F7A793E9EDF2B2B3A8B624
310
0CDA13AA5F8388264EC4A0129909F3B7F5A16CEDF08128E97D680ACA4B9BE7B7B58BB638F0B00700EF36AE8B32A705658A68F83EE897FC2B41573190D1CCAF0B92D233A47CFEB019D9809933F67DD1A5467F8CF69AD9A5AE859342D45355448C64F968A371DC2D596ADC6E43D93D1B466F877A64E2893E54F23C4B40388995
310
525E5005DA3983ED45412510D3EFCA13737B3863F74BD30F2A12E5B4B5E489A025CE25500DB855B11ACE5BBFA185D35DD48D8DC3CE7DC69F2944DB42AA6F6CF09BCA622ADD08C7A36E7C6AE18000BAB08E040135C2D21C9D75B3A91B77BB746C403F38018DFE6EC939DD92F16B40BC05294B9CDA035AAD6D330AE27FE4786B
310
8E45145EA34A75BE1C263A676A35A8ACC6297337400BF16C54EF515F3F77CB77EB3583889C754FFA29081AA98E2222ADEF05DA3E63D2EDEA8B8756C05A7FB6CABC4A91CBF325398202CC952E70A008A830324BA200D5E5EF8F5F04C75DB4B0EE3340E071C98B823333B83577596BF3849B69F2085AA0FAFA212F26BEFF5877
310
FDE622B28D88A42E49E43326DA82D31E8CB006401E1DA726059ECEC168F97A6599036306A135688F9AD2E61A6EA178F4CD51974A9F2CCB9F36FE5EBD14601068D9C3BF01504B0304140006080000B670623B000000000000000000000000350000006662782F42384135303843342D343331462D343546312D424341352D35
310
32343432364645413344462F76657274696365732E62696E504B0304140006080800B670623BF270F1330600000004000000360000006662782F42384135303843342D343331462D343546312D424341352D3532343432364645413344462F747269616E676C65732E62696E636660600000504B0304140006080000B67062
310
3B000000000000000000000000370000006662782F42384135303843342D343331462D343546312D424341352D3532343432364645413344462F617474726962757465732E62696E504B0304140006080800B670623B08DA0BD19000000041010000360000006662782F42384135303843342D343331462D343546312D4243
310
41352D3532343432364645413344462F6469726563746F72792E786D6C858F410AC3201045AF22B36F53E9A60B35CBEEBAE80D244E44489C6234F4F835464A48035D0DF398FF9F8AF63D0E6CC63039F212F8F9020C7D47C6792B21C5FE7403D62A1188E2E60C98D7234A5830286103A55745067B9D86B8A3CF9C7F90C11DE6
310
07FB144396D7B6A82D282E9A152AD114D5EF2CB866EEE831B8EEA07A7BB5A8D7D61A2BAAEB7FD5F70921FF497D00504B0304140006080800B670623B3B4606F3FE000000A00100003B0000006662782F42384135303843342D343331462D343546312D424341352D3532343432364645413344462F7265736F75726365732F
310
636F72652E786D6C8D504B6E833010BD0A9A6D65B08134808CA354A427E8052C332156828DFCA97AFC9A40A576D7CDCCE87D344F8F9FBEE647F689CE6B6B7A6039850C8DB2A336530F315C4903D94970676DF82583CCC8197B5861107C72362E3BA4AC096842428D1D7107A5F71820538F74F4E0D50D6799CB1892C2DFF345
310
AABB9C306779A2934E701F5C0A906D4FD609C2A1B7D129F4BCD858C163D4E3AED163FAA9AF1A1D88F67CA98E6D35906AA82A52BFB39ABCD5CD915C86331BD86BD3B665CD8BD52C78D0F34F46E550061C419494B6843142CB0F5677F4D0D58717DA7494F26295FF31C565FCA7296A13AA728FBBD93C0896823C09C18BB5AFB4
310
9E65A6BD762BBE01504B010214000A0000080000B670623B3DEE336E79000000790000001B00000000000000000000000000000000006175746F6465736B2D64657369676E2D7061636B6167652E786D6C504B01021400140006080800B670623BD486FD9CA0000000F40000001300000000000000000000000000B2000000
310
5B436F6E74656E745F54797065735D2E786D6C504B01021400140006080800B670623B28ED286BEB0000007C010000080000000000000000000000000083010000636F72652E786D6C504B01021400140006080800B670623B55019EA25F0000007C000000070000000000000000000000000094020000636E782E786D6C50
310
4B01021400140006080800B670623B7BC41AC871010000D40300000C00000000000000000000000000180300006662782F636F72652E786D6C504B01021400140006080800B670623B70102A487D0000009D0000000B00000000000000000000000000B30400006662782F636E782E786D6C504B01021400140006080800B6
310
70623B3610CA3329010000120200003100000000000000000000000000590500006662782F42384135303843342D343331462D343546312D424341352D3532343432364645413344462F636F72652E786D6C504B01021400140006080800B670623B1B8617914E010000330300003000000000000000000000000000D10600
310
006662782F42384135303843342D343331462D343546312D424341352D3532343432364645413344462F636E782E786D6C504B01021400140006080800B670623BBFEF2E3B690500003C10000034000000000000000000000000006D0800006662782F42384135303843342D343331462D343546312D424341352D35323434
310
32364645413344462F6F626A656374732E786D6C504B01021400140006080000B670623B0000000000000000000000003500000000000000000000000000280E00006662782F42384135303843342D343331462D343546312D424341352D3532343432364645413344462F76657274696365732E62696E504B010214001400
310
06080800B670623BF270F133060000000400000036000000000000000000000000007B0E00006662782F42384135303843342D343331462D343546312D424341352D3532343432364645413344462F747269616E676C65732E62696E504B01021400140006080000B670623B00000000000000000000000037000000000000
310
00000000000000D50E00006662782F42384135303843342D343331462D343546312D424341352D3532343432364645413344462F617474726962757465732E62696E504B01021400140006080800B670623B08DA0BD1900000004101000036000000000000000000000000002A0F00006662782F42384135303843342D3433
310
31462D343546312D424341352D3532343432364645413344462F6469726563746F72792E786D6C504B01021400140006080800B670623B3B4606F3FE000000A00100003B000000000000000000000000000E1000006662782F42384135303843342D343331462D343546312D424341352D3532343432364645413344462F72
310
65736F75726365732F636F72652E786D6C504B0506000000000E000E0080040000651100000000
  0
XRECORD
  5
187
102
{ACAD_REACTORS
330
186
102
}
330
186
100
AcDbXrecord
280
     1
 70
     1
 90
429727718
  1
887D55A9-D0DD-414E-B741-A7DCD4DA2B4C
310
504B03040A0000080000B670623B3DEE336E79000000790000001B0000006175746F6465736B2D64657369676E2D7061636B6167652E786D6C3C3F786D6C2076657273696F6E3D22312E302220656E636F64696E673D227574662D3822203F3E3C666F726D6174733E3C666F726D61743E687474703A2F2F736368656D612E
310
6175746F6465736B2E636F6D2F64657369676E2D7061636B6167652F323030393C2F666F726D61743E3C2F666F726D6174733E504B0304140006080800B670623BD486FD9CA0000000F4000000130000005B436F6E74656E745F54797065735D2E786D6C7D8EC10E82300C865F65E91D8A1E8C310C0EEA1BF002731658846E
310
D98AC1B77784ABF1D8FE5FBFBF75BBCE937A534CCEB38643598122B6FEE978D0B0485F9C41B54DDD7D022595594E1A469170414C76A4D9A4D207E29CF43ECE46F218070CC6BECC4078ACAA135ACF422C856C0E68EA1BF5669944DDD7BCDE7B1F8E415D77AECB980613C2E4AC91FC167A2B244592486606FC29C8FD7F045B9A
310
EF7053A7E60B504B0304140006080800B670623BBC1638F5EC0000007C01000008000000636F72652E786D6C8D90416EC3201045AF82665B61836BE2D8C24471DB9CA01740401C94182C03558F5F9C3852BBEB6A467FFE9B197D7EF89E6EE8CB2CC17AD7032D0820E394D7D68D3DA478C67B4007C117EFE32F1B202727D3C3
310
2A83E0E3E2D3BC49CABB685CCCAAF3DA6CA20CC14440EA969B1E82BA98491632C5EC08D76296EA2A4753D06797E194AC468F2356E77DF66CCD02825543D50CACC62D39ED70FDC68EB8FD68F6F8787A6784342D1DDA1D2F5758F068A7E77DB518198D065111D2624A31A93E69DD11D6D5EC85EC3B4278B9DAFF4069D6FF8492
310
75F1B5DADE7D600104CD8FDC0782976B16B9DC83CA75CD4DFC00504B0304140006080800B670623B55019EA25F0000007C00000007000000636E782E786D6C4DCB3B0E80201045D1AD90E915ED2CF8AC45050C11660C8261F98AB1B07AC9C97D42D718D865D3E909258CFD00CCE24AC6E326A164D74DC0B4128928FF326038
310
472BA13128B1252AC747C6BAB984FC68F0B87FE8960A5C09FE86CFB69FBA01504B0304140006080800B670623B3586FFB671010000D40300000C0000006662782F636F72652E786D6CC553ED6E8320147D15C2DF4541A76D6D90A6DDD627D80B50A4CE54C120983EFEAE1F4DD7A55BBA5FF3879273EEE59E7310B6393735EA
310
95ED2AA3731C851423A5A5292A5DE6D8BB63B0C268C39935C67D29C3488B46E578803167A535BE9D2169B453DA01AA4DA16650749D7218C91A1639EEE4876A4428BC838AEE14B6429E44A9C228041AEA38EB9C0501681A32BC313F1ECE8C4C3867DE57C5CC56054CAB8E95B298A7F12E5EEED224C8E87E11242FE936C8DE96
310
AB60BB7F4D295D66D12E5B30323473E6AAE6A24E5A259C2A308F29CD82280A68FC1E256B9AAE93F489AED694323294DF34F9B678B0C957DA3DC7B3DCA9ADC33C022123F1CD2D44E450277AD04338234388F01913BE0D1A0281909D38D4171F27807A259DB1093085F157AA17B557309586747CD0CF0B46A64E983A6E0EAEEF
310
CE881F9EF1FB8E70D44297604238581EBC1B74B249C31C5AAB6CD0BB33D2C636A27ECCC62F0EFF445DC5DF95244D6DEC7F2922F30191F9F720C37DE49F504B0304140006080800B670623B4220A0FF7D0000009D0000000B0000006662782F636E782E786D6C4DCCD10A83201886E15B91FFDCE542CB0335D0EC3E6259C84A
310
C3E9D8E5AF46073BFAE0E1E315DD675BD1DBA5978F41C2FD4600B9F088930F8B849267CC01754AA418F3DF0D50183727E164506249B1EC174D6E1ECB9A0F5D7D785E68DB8151CD286E5A5363CA6B8A39E90D36D40E96B086F55A43A544F52B1D7B86D517504B0304140006080800B670623B2FA3FEDE290100001202000031
310
0000006662782F45374635344235342D363743322D343832342D383044432D4334454645303536354442422F636F72652E786D6C8D515B6EC32010BC0AE22B55850D2E386E848994D7097A0117488A1283C5A3CAF10BB523B57FF961D1ECCCECC0F2ED7DBC816FED8371B687A4C210682B9D32F6D2C314CFA883602BB8772E
310
FEA141608751F7B0C050F08B77695A20E96CD43666D43AA5177008414708E42D5F7A18E4971E876A483133C2B59A06791D2EBA22556E679EE021FA1C00CC43CA09C5717D6274C7286AD7FB06D1AEA1A8C3873DDAD3E3E98859CB0EBB1DAF67A1E02919B5C88DCA71CCD968FFAC49110B1ECDF8882FBD1EA256503418BF2342
310
106E3E08DD60B6A1EC15771B8C795DE8FF4469524F8A92B1F1AD59E2CEB20005E1F5DC105CB9F4797B84D1F7C9F908CABC55D0F2050A5C61CC1AD2F27A26E6E767C7962E8E213A9FBF7775FDCC5CC266DB960A5E970DE5F2BBBE5CCB36C50F504B0304140006080800B670623B1B8617914E01000033030000300000006662
310
782F45374635344235342D363743322D343832342D383044432D4334454645303536354442422F636E782E786D6CD593C16EC32010447F0571AD6CE3D489D20813A9877E410FBD62D82434182CC055F3F75D1292E692438FBD206B7698593D61BEFD1E2DF982108D773D6D6B460938E5B571FB9ECE6957AD29D90A1EBC4F77
310
364A9C1CA1A759A682EF839FA72269D8C9D92654AD71C72206887E0E0A22CAF926B15E498B01E0AA19451807D01A34B919F16B070157417138917400F2F6FA41FCF0092A45DEE414C19BDC21783E4BD39D891265658C3D8DEA00A3ACE59CBC8678ACB54CB26EEB6BD7839D7E9348BE70AD9C8321B9BCA7F9A4A26C542347DE
310
E050F09802D22BA6749A800A394DD62899107273365E3C82CFC6A55557BC06C10774B7ABE7AEC3B0F34CF06446280E154026D0542C187BA9DAB6628BF7B6DBB0E5A65B3EB1F58631DE64BBE083F7B65CC218087E22CABB042E51D1F2268F1FE12B3EA24D40D63E9CFE00120194D60B9D5BC67FE6D39CDF37E20AF817881F50
310
4B0304140006080800B670623B29652116630500003C100000340000006662782F45374635344235342D363743322D343832342D383044432D4334454645303536354442422F6F626A656374732E786D6CAD575D739B3814FD2B0CFB0C989834C90EA1639B24E3E9A6EDD4D3CE3E64C623834CD8006224913AFDF57B040203
310
B65BEF871F0C12D2FD3CF7E8CA7FBFCB33E3957291B2E2D674ED8969D02262715A24B76625B7D6B569BC0F7CCE98EC2D338D82E4F4D654D366E0279C55A59E8AE99654991CCDDECFFF3444440B6A1A514684B83545F44C7362934AB2988A173B2692D8C97667BB76B3702836E1A47C1E092D09A78584A5982F20C5688C7287
310
C389E904BEA3BE07BEFAD7ABA6A75739B53F43FD69212429A20365233153D70BEF2E2E6FAC4BCF9B5ADEBB0BD79ADFCF43CBBD9A4E16EF168B9BD9DD0D140BC921495BC2E9D60C1E101B9E46BED37CEA2CD6861F3329624541A3DA7F7858DBAC25C6B4A4458C3CA654405BCFEBC970E8AAD8F43E4FD558ABEC4F9FE7557F47
310
4F506B7BFBEC5BCA367FC105710E2AB8A00A554D7CB4A30DFE26FBA86D18CBF4B75418399194A72433B274C3097F33032C554B027F2046A1932B842B0FCCC0DDCBEBDB8AD2F835768F59B9ADB24C41D30C6A64AF817F2A456D59FA83F2E3DA60137255A585BCD60EC9B7929AC18DEFD49381AF1ED30BFDB109A4B1CD488294
310
C3CDE6EBC8D185AABD6568061FEE37BB95AAC7E3CA4BCE4ACAA5820FA0D526AE7DAA2869B5EE5999531BE0CC20E6FBA07C41E43FA27CF7A6206F3CDD793B4F6B919C1462CB788EDCD893FA674CDA17AB7B3B7C019F8D561FAEE966FED562DFE98C1D12C6A9FC015C2A35D7FF3D7FC398F591DA4B5FE0BFA2C0189FEA50AE22
310
92817A1ED3020951A03432862970F976B33383259812CC8E5D240BBA801CBCF8CE2BBEE3BF910DB6AAD5F79E05123AE2DB33981FB1ACCB02B69D00CB014FD68AB573A7627EF9BFD4CC2C5C7D58557C4B22FAA88925A4DBB44825CECE3D78FB060D1231F0E885BE7D673C86A3874958F593906B5502D1563157814FDAC3420D
310
F69A070A22EC4B98E23CFF171A1E5311D12C23056555ABA53B8614563B92D17D02AAB009E8F46284624E5F53D5490C560CCCC2591FF1B45421EB0EBD8EA7ED13BE7C5D7E0428CD60FEF60779EB13E6664FF711CB185F6FDED60D139A001FF60CD1FD6D086F1D51474901E26B2CB794A343BC8ED3EDB612E0DD2351FCB65CF4
310
33D511C9E14B5B40ADC6A6263DB0336A8F700DDF56271A024E70B0B3629DE21847591E55DED73D56206AB927E46FAABC5C939C55853C274C93D69FD6FA4E78BF8B11DF898C9ECD60553FAD39283BA6F18984AA23E8884F83F45C5F5F859797B31B2B9C84A1E5B9DE9D35BFF25C6B76152E422F9C5DCC3D847F5801ED09D5AF
310
41441327A25FF15487F9EB725FB666F048A4701E9A827292E6F97569A32DF61DEC01C0BB8DCBBCCC684E0B49147C1FD54BF685A0AB18C868E6973949E819523E3DAC463660E68C7D9F55A9D1EFA3BD7A76A16AE1A810F95CE59B82A4D968A376DC2E8B44BBDD86B27B368CDE0ED548C7137DA860591A83706223A12CA712B4
310
7306DBF39C0A20A6DF95C7FAF670C6EED7A61F946493D1D6926782963813403548A78AE470DEF80D2D9CEAA26E4D1C76F60BFE74219A06527D6B82DF641A51616F703CAAC6A7160E08A00BEB4810A0274592A1B36E3675E36E978A0DE80727A0D6DF2D39A75BD27E0D8837276589537B40ABB56D5A41F48F1C6FCD3188C4EB
310
A6929D2FFB89CE995A4D00AE813BDD032DC48B56BD437DFDDC2DD7AED70C2272D63DE9A72068A45A92F0A4BE17A8A06B9366E16707AD80B1FC649459952097E74BB23805982B55E0401150A165964402AA8BDF9F3E7386BB686EDCA780C0D382E5392BF460A6EFB2C6EA1937D3F809B440D5F5435C4C5CF7A9EEFAF54564BD
310
2182DA24162F98680B4E7930C21A0079709CEAEB99A372305ABE0C0D7D6078105A83F6A0296DAEE1068A47DD1C55A9F4C9B2FC69E3EFD44B81028E963DF81B504B0304140006080000B670623B000000000000000000000000350000006662782F45374635344235342D363743322D343832342D383044432D433445464530
310
3536354442422F76657274696365732E62696E504B0304140006080800B670623BF270F1330600000004000000360000006662782F45374635344235342D363743322D343832342D383044432D4334454645303536354442422F747269616E676C65732E62696E636660600000504B0304140006080000B670623B00000000
310
0000000000000000370000006662782F45374635344235342D363743322D343832342D383044432D4334454645303536354442422F617474726962757465732E62696E504B0304140006080800B670623B08DA0BD19000000041010000360000006662782F45374635344235342D363743322D343832342D383044432D4334
310
454645303536354442422F6469726563746F72792E786D6C858F410AC3201045AF22B36F53E9A60B35CBEEBAE80D244E44489C6234F4F835464A48035D0DF398FF9F8AF63D0E6CC63039F212F8F9020C7D47C6792B21C5FE7403D62A1188E2E60C98D7234A5830286103A55745067B9D86B8A3CF9C7F90C11DE607FB144396
310
D7B6A82D282E9A152AD114D5EF2CB866EEE831B8EEA07A7BB5A8D7D61A2BAAEB7FD5F70921FF497D00504B0304140006080800B670623B6378F24DFF000000A00100003B0000006662782F45374635344235342D363743322D343832342D383044432D4334454645303536354442422F7265736F75726365732F636F72652E
310
786D6C8D504B6E833010BD0A9A6D65B0094E42641C85B639412F6099496225D8C89FAAC7AF09546A77DDCC8CDE47F3F4C4F16B7C149FE88371B603565228D06A37187BED20C50BD9437194C23B177FC9A0B06AC40E6618A4B87A97A615D2CE46B431A3D60DB8822A048C50E8473E3A08FA86A32A558A5911EEE5A4F45D5DB1
310
6465A6B34E8A107D0E502C4FE609D26370C96B0CA25A58295232C3AA3143FE692E063D485EF7F5AEE71BD2D2F39634AFFC44DAF7DD9E9CCE6F9CD25DCBFA762BAAD92C4534E34F46ED51451C40D694B6843142EB0FD61C283F34FC85EE0F948A6A96FF31A569F8A729191B37F51A77B105902C0779125254735F793DCBCC7B
310
EE567E03504B010214000A0000080000B670623B3DEE336E79000000790000001B00000000000000000000000000000000006175746F6465736B2D64657369676E2D7061636B6167652E786D6C504B01021400140006080800B670623BD486FD9CA0000000F40000001300000000000000000000000000B20000005B436F6E
310
74656E745F54797065735D2E786D6C504B01021400140006080800B670623BBC1638F5EC0000007C010000080000000000000000000000000083010000636F72652E786D6C504B01021400140006080800B670623B55019EA25F0000007C000000070000000000000000000000000095020000636E782E786D6C504B010214
310
00140006080800B670623B3586FFB671010000D40300000C00000000000000000000000000190300006662782F636F72652E786D6C504B01021400140006080800B670623B4220A0FF7D0000009D0000000B00000000000000000000000000B40400006662782F636E782E786D6C504B01021400140006080800B670623B2F
310
A3FEDE290100001202000031000000000000000000000000005A0500006662782F45374635344235342D363743322D343832342D383044432D4334454645303536354442422F636F72652E786D6C504B01021400140006080800B670623B1B8617914E010000330300003000000000000000000000000000D2060000666278
310
2F45374635344235342D363743322D343832342D383044432D4334454645303536354442422F636E782E786D6C504B01021400140006080800B670623B29652116630500003C10000034000000000000000000000000006E0800006662782F45374635344235342D363743322D343832342D383044432D4334454645303536
310
354442422F6F626A656374732E786D6C504B01021400140006080000B670623B0000000000000000000000003500000000000000000000000000230E00006662782F45374635344235342D363743322D343832342D383044432D4334454645303536354442422F76657274696365732E62696E504B01021400140006080800
310
B670623BF270F13306000000040000003600000000000000000000000000760E00006662782F45374635344235342D363743322D343832342D383044432D4334454645303536354442422F747269616E676C65732E62696E504B01021400140006080000B670623B0000000000000000000000003700000000000000000000
310
000000D00E00006662782F45374635344235342D363743322D343832342D383044432D4334454645303536354442422F617474726962757465732E62696E504B01021400140006080800B670623B08DA0BD190000000410100003600000000000000000000000000250F00006662782F45374635344235342D363743322D34
310
3832342D383044432D4334454645303536354442422F6469726563746F72792E786D6C504B01021400140006080800B670623B6378F24DFF000000A00100003B00000000000000000000000000091000006662782F45374635344235342D363743322D343832342D383044432D4334454645303536354442422F7265736F75
310
726365732F636F72652E786D6C504B0506000000000E000E0080040000611100000000
  0
XRECORD
  5
112
102
{ACAD_REACTORS
330
110
102
}
330
110
100
AcDbXrecord
280
     1
270
     1
271
     1
  0
XRECORD
  5
111
102
{ACAD_REACTORS
330
110
102
}
330
110
100
AcDbXrecord
280
     1
270
     1
271
     1
  0
XRECORD
  5
18A
102
{ACAD_REACTORS
330
110
102
}
330
110
100
AcDbXrecord
280
     1
 70
     0
 90
1778669749
  1
9BF507EE-FAF7-4A99-A33D-4EE51894BC40
310
504B03040A0000080000B670623B3DEE336E79000000790000001B0000006175746F6465736B2D64657369676E2D7061636B6167652E786D6C3C3F786D6C2076657273696F6E3D22312E302220656E636F64696E673D227574662D3822203F3E3C666F726D6174733E3C666F726D61743E687474703A2F2F736368656D612E
310
6175746F6465736B2E636F6D2F64657369676E2D7061636B6167652F323030393C2F666F726D61743E3C2F666F726D6174733E504B0304140006080800B670623BD486FD9CA0000000F4000000130000005B436F6E74656E745F54797065735D2E786D6C7D8EC10E82300C865F65E91D8A1E8C310C0EEA1BF002731658846E
310
D98AC1B77784ABF1D8FE5FBFBF75BBCE937A534CCEB38643598122B6FEE978D0B0485F9C41B54DDD7D022595594E1A469170414C76A4D9A4D207E29CF43ECE46F218070CC6BECC4078ACAA135ACF422C856C0E68EA1BF5669944DDD7BCDE7B1F8E415D77AECB980613C2E4AC91FC167A2B244592486606FC29C8FD7F045B9A
310
EF7053A7E60B504B0304140006080800B670623BCA089DFFEC0000007C01000008000000636F72652E786D6C8D90416E83301045AF62CDB632D8402020E32882F604BD80653BC44AB011B6AB1EBF262152BBEB6A467FFE9B197D76FA9EEFE84BAFDE38DB03CD08206DA553C64E3DC470C1474027CE56E7C22F1B202B66DDC3
310
260367D3EAE2B24BD2D9A06D48AA754AEFA2F05E0740F29E9A1EBCBCEA59642286E4F0B76C11F226269DD15797E0188D42CF2346A57DE662F40ABCAEC77628C6120F654571D50C04B7F5B9C1E3997CD4F550BE3745C3F20DE62C98F9755FAE5A04AD801784B498524C8A4F5A75E4D055873772EC0861F966FF03C545FD138A
310
C686B2D8DF7D621E384D8F3C069CE55B16A93C824A75CB8DFF00504B0304140006080800B670623B55019EA25F0000007C00000007000000636E782E786D6C4DCB3B0E80201045D1AD90E915ED2CF8AC45050C11660C8261F98AB1B07AC9C97D42D718D865D3E909258CFD00CCE24AC6E326A164D74DC0B4128928FF326038
310
472BA13128B1252AC747C6BAB984FC68F0B87FE8960A5C09FE86CFB69FBA01504B0304140006080800B670623B68FC0B7272010000D40300000C0000006662782F636F72652E786D6CC5535B6E833010BC8AE5DF0A6C1E8124328E22D29EA01770C0A128602363A31CBFCB234A53A555FA553EC09AD9F5CE8C31DB5DDA060D
310
D2F4B556190E7C8A9154852E6B5565D8D993B7C668C799D1DA7E29C3488956667884316795D1AE5BA0422B2B950554E9522EA0E87B69312A1A5864B82F3E642B7CE12C54F467BF13C55954D20F7CA0A18EB3DE1A1080E621E31BF3D3F1C2C88C73E65C5D2E6C5DC2B4FA544B8379921C36797888BC3C8A032F4E73EA6D927D
310
EA1DF6F42D49F2E8350D5346C666CE6CDD5ED515460A2B4BCC434A375E1078347C0FE22D5D6DE3D50B5D6F2965642CBF6B725DF96493AB958DC245EEDCD6631E809089F8E61622B2A81703E8219C913144F84C09DF070D8140C8561C9BAB8F3340832CAC363130A576376A108D933095FA747AD0CF0B46E64E983A6D0EAE1F
310
CE089F9EF1FB8E70D44255604258581E9D1D75B259C3125A278D37D80B52DAB4A279CEC62F0EFF44DDC43F9454E8469BFF5244960322CBEF41C6FBC83F01504B0304140006080800B670623B0F71DDB67E0000009D0000000B0000006662782F636E782E786D6C4DCCD10A83201886E15B91FFDCA54DB73F502386BB8F5816
310
32D3703976F9ABD1C18E3E78F87855FB990379BBFCF2296AE02706C4C5471A7C9C349475A408A4352AA7B4FEDD80C47E761A7606A3A69CCA72D0E0C6BE8475D3E0E3F3409428EA6B27A84079A782899AA2EC1A7AE3ECCC2FD858CB2D544655BFD2B67BD87C01504B0304140006080800B670623BE134B4FB28010000120200
310
00310000006662782F38353834323741342D343835462D343034322D383541392D4331303331363839454531452F636F72652E786D6C8D515B6EC32010BC0AE22B55850D0EA424C24451959EA0172086A42831583CAA1CBF503B52FB971F16CDCECC0EACD8DFC71BF836215AEF7A481A0C817183D7D65D7A98D3197108F652
310
04EFD31F1A044E8DA6871586525C82CFD3020DDE25E352419DD76601558C264130DCCAA58771F832A36A544E8511AFCDA486ABBA988634A55D7852C4144A00300FA927949C71DABD1D28A29C7D208A6987383B6CD13BC16BB2E1DBE3911C453B0BA5C8D9EA456E758963CFD684674DAA588A64C747FC2118958C86B2C3788B
310
0841B8FB247487D98EB257CC77188BB6D2FF89F2A49F1465EBD2BA5BE2CEB2082511EDDC9042FB7CBA3DC298FBE4430275DE2A9AE1054ADC60CC08E3A29D89E5F9C5714317C7987C28DFBBBA9E0A97B0D97643A568EB864AF95D5FA9759BF207504B0304140006080800B670623B1B8617914E010000330300003000000066
310
62782F38353834323741342D343835462D343034322D383541392D4331303331363839454531452F636E782E786D6CD593C16EC32010447F0571AD6CE3D489D20813A9877E410FBD62D82434182CC055F3F75D1292E692438FBD206B7698593D61BEFD1E2DF982108D773D6D6B460938E5B571FB9ECE6957AD29D90A1EBC4F
310
77364A9C1CA1A759A682EF839FA72269D8C9D92654AD71C72206887E0E0A22CAF926B15E498B01E0AA19451807D01A34B919F16B070157417138917400F2F6FA41FCF0092A45DEE414C19BDC21783E4BD39D891265658C3D8DEA00A3ACE59CBC8678ACB54CB26EEB6BD7839D7E9348BE70AD9C8321B9BCA7F9A4A26C542347
310
DEE050F09802D22BA6749A800A394DD62899107273365E3C82CFC6A55557BC06C10774B7ABE7AEC3B0F34CF06446280E154026D0542C187BA9DAB6628BF7B6DBB0E5A65B3EB1F58631DE64BBE083F7B65CC218087E22CABB042E51D1F2268F1FE12B3EA24D40D63E9CFE00120194D60B9D5BC67FE6D39CDF37E20AF817881F
310
504B0304140006080800B670623B5933D422630500003B100000340000006662782F38353834323741342D343835462D343034322D383541392D4331303331363839454531452F6F626A656374732E786D6CAD575B6FA33814FE2B887D0642934E9B156594264D158D3A534DD4D13E548A0C38942D60649B4EBABF7E3F8321
310
40924EF6928780CDF1B97EE762EFF32E4B8D37CA45C2F21BD3B547A641F39045491EDF98A5DC5AD7A6F1D9F73863B243661A39C9E88DA9B64DDF8B392B0BBD15D12D295339D85DDEFE618890E6D434C2940871638AF08566C426A5641115AF764424B1E3EDCE76ED9AB0CF36E6A47819302D08A7B984A6D8CFC1C5A89572FB
310
CB91E9F89EA3BEFB9EFAD754E3D3544E654F5F7E920B49F2F040D880CDD89D2CEE2E2EA7D6E56432B6269F2E5CEB7679BBB0DCABF168FE693E9FCEEEA6102C240727AD09A75BD3BF876F78127A4EFDA9D5582B7E4CA590E5390D2BFB6161A5B3E618D182E611E2985001691DAB47FDA5AB7CD3F93C566B2DB2BB7D9E55DD13
310
1D468DEECDB3AB290BFE8409E21C54704115AA6AFF68436BFC8DF65E0B184BF5B74418199194272435D224E084BF9B3E481589EFF5D828747285706581E9BB7B7E5D5D911ABFC6EE312DB7659A2A689A7E85EC0DF04FA5A8344BFEA2FCB834E8845895492EAFB541F2BDA0A63FF59C6AD3F7D4637CA13FD68E34B629891172
310
98597F1D183A57B9B75A98FE9765B05BAB7C3C2EBCE0ACA05C2AF8005A4DE09AA7F29216EB9E15397500C6F47CBE77CA7778FE2BD277AF0AE2C693DD6437D1522427B9D8329E2136F6A8FA19A3E6C56ADF0E5F50CF06D48734EDCEBF22F69C56D97EC138153F804B85E6FABFC7AFEFB32E523BE1F3BD372418E363EDCA7548
310
52949E8724474014288D94610BB57C1BEC4C7F854A89CA8E5324F55B871CBC78CE1BBEE3BFE68D6A5589EF3C730474506FCFA8FCF0659516D0ED04580EEA6425581B77CAE797FF4BCECC16EB2FEB926F49481F746159D06D922712BD730FDEAE42BD40F42C7AA5EF3F198F60E86110D6DD20645A9480B795CF95E3E3A659A8
310
C55E724F408873315335CFFB8584874484344D494E59D94869DB90C26A5B64F49C802CAC1D3ABE18A098D3B7444D123D8A9E5AE8F5214F0AE5B2B6E9B575DA3E61CBD3EA2B4009FA940524DD1305FB6A1FB294F14DF0BEA90BA109ECE1481FDC3FFAE8D60E75141700BE82725371B4873751B2DD960265F788137FACE6DD40
310
B575E4F0A5C99F46629D92131467A41EE11ABD8D4CCC039CA0AFB37C93A08B232B8F0AEFCA1E0A1015DF13FC83322B362463652ECF71D3A8B1A7D1BE65DE1D62C44F22C317D35F574FEB16153BA2D13E543D10A80E74C4A65E78A6B7CBCBD1D5DD9DB59C2DAFACC96C3AB566E3F1C29ADCDD5DBAD7D3C9ED7C822ED74F80A6
310
41755310DE4443F44A9E68373FADF6596BFA0F440AE7BECE2727AE9F4F2B1B53B1E7E00CF0DD1E5C65454A339A4BA2D0FBA05ED2EF0443458F47BDBFCA484CCFE0F2ED7E3DD0013B679C7B5499467F0ECEEADDB9CA85A34CE44B99053949D2C1416DB85DE4B136BB7165FBAC0B7AB3542BED4F8CA182A549847A1319316519
310
95A83A67147B9E5101C47487F2485F1ECE38FD568F839204296D3479219888530154036E6528FBFBC66F98E0D4107563A2D7D9AFF8D389681A08F58D89F22693900A3B407754734FC51C10C010D6D640809EE4718AC1BA3ED4AEDB53CA37283F68805A7E4B72CEB0A4EDEAD5DD8C14059A76AFAA56BA6901E13F32BC51C720
310
12AF41295B5BF61BAD3195181FB506E6B40F4C10AF5AF40EF9F5B159AE5DD1F43C72D635E94310D45C2D49785C5D0B94D3B54AB3C5A38349C0587D338AB48C11CBF339599C02CCA54A70A008A8D03C0B2201D5F9EFCF8F9CE12A9A19CB0410789EB32C63B95ECCF455D658BFE0621A3DA32C5075FB101723D77DAE867E7D0F
310
D90444509B44E2151B4DC2290B065803200FBAA9BE9D392A0603F2D5C2D00D6302A615680F66D2FA166E2079D4C551A54AB758161FCEFD4E450A14704CECFEDF504B0304140006080000B670623B000000000000000000000000350000006662782F38353834323741342D343835462D343034322D383541392D4331303331
310
363839454531452F76657274696365732E62696E504B0304140006080800B670623BF270F1330600000004000000360000006662782F38353834323741342D343835462D343034322D383541392D4331303331363839454531452F747269616E676C65732E62696E636660600000504B0304140006080000B670623B000000
310
000000000000000000370000006662782F38353834323741342D343835462D343034322D383541392D4331303331363839454531452F617474726962757465732E62696E504B0304140006080800B670623B08DA0BD19000000041010000360000006662782F38353834323741342D343835462D343034322D383541392D43
310
31303331363839454531452F6469726563746F72792E786D6C858F410AC3201045AF22B36F53E9A60B35CBEEBAE80D244E44489C6234F4F835464A48035D0DF398FF9F8AF63D0E6CC63039F212F8F9020C7D47C6792B21C5FE7403D62A1188E2E60C98D7234A5830286103A55745067B9D86B8A3CF9C7F90C11DE607FB1443
310
96D7B6A82D282E9A152AD114D5EF2CB866EEE831B8EEA07A7BB5A8D7D61A2BAAEB7FD5F70921FF497D00504B0304140006080800B670623BD9A3B367FE000000A00100003B0000006662782F38353834323741342D343835462D343034322D383541392D4331303331363839454531452F7265736F75726365732F636F7265
310
2E786D6C8D504B6E833010BD0A9A6D65B01D0201194711694FD00B586642AD043BF2A7EAF16B122AB5BB6E6646EFA3797AE2F8B5DC8A4FF4C1383B002B291468B59B8C9D0748F1420E501CA5F0CEC55F3228AC5A708015062966EFD27D83B4B3116DCCA875136EA00A012314FA968F0182FEC045952AC5AC08D7F2AEF455CD
310
58B232D3592745883E07289E4FD609D26370C96B0CA27AB252A464A64D63A6FCD35C0C7A904D73EE467EE664DCD58CD4ED4849D79C5A723ED1B7A61977AF2D6F45B59AA58866F9C9A83DAA8813484E6947182394BFB3BAA7FBBEDEBFD0434FA9A856F91F53BA4FFF342563E38E6F719FB60092E5200F428A6AED2BAF479979
310
AFDDCA6F504B010214000A0000080000B670623B3DEE336E79000000790000001B00000000000000000000000000000000006175746F6465736B2D64657369676E2D7061636B6167652E786D6C504B01021400140006080800B670623BD486FD9CA0000000F40000001300000000000000000000000000B20000005B436F6E
310
74656E745F54797065735D2E786D6C504B01021400140006080800B670623BCA089DFFEC0000007C010000080000000000000000000000000083010000636F72652E786D6C504B01021400140006080800B670623B55019EA25F0000007C000000070000000000000000000000000095020000636E782E786D6C504B010214
310
00140006080800B670623B68FC0B7272010000D40300000C00000000000000000000000000190300006662782F636F72652E786D6C504B01021400140006080800B670623B0F71DDB67E0000009D0000000B00000000000000000000000000B50400006662782F636E782E786D6C504B01021400140006080800B670623BE1
310
34B4FB280100001202000031000000000000000000000000005C0500006662782F38353834323741342D343835462D343034322D383541392D4331303331363839454531452F636F72652E786D6C504B01021400140006080800B670623B1B8617914E010000330300003000000000000000000000000000D3060000666278
310
2F38353834323741342D343835462D343034322D383541392D4331303331363839454531452F636E782E786D6C504B01021400140006080800B670623B5933D422630500003B10000034000000000000000000000000006F0800006662782F38353834323741342D343835462D343034322D383541392D4331303331363839
310
454531452F6F626A656374732E786D6C504B01021400140006080000B670623B0000000000000000000000003500000000000000000000000000240E00006662782F38353834323741342D343835462D343034322D383541392D4331303331363839454531452F76657274696365732E62696E504B01021400140006080800
310
B670623BF270F13306000000040000003600000000000000000000000000770E00006662782F38353834323741342D343835462D343034322D383541392D4331303331363839454531452F747269616E676C65732E62696E504B01021400140006080000B670623B0000000000000000000000003700000000000000000000
310
000000D10E00006662782F38353834323741342D343835462D343034322D383541392D4331303331363839454531452F617474726962757465732E62696E504B01021400140006080800B670623B08DA0BD190000000410100003600000000000000000000000000260F00006662782F38353834323741342D343835462D34
310
3034322D383541392D4331303331363839454531452F6469726563746F72792E786D6C504B01021400140006080800B670623BD9A3B367FE000000A00100003B000000000000000000000000000A1000006662782F38353834323741342D343835462D343034322D383541392D4331303331363839454531452F7265736F75
310
726365732F636F72652E786D6C504B0506000000000E000E0080040000611100000000
  0
XRECORD
  5
113
102
{ACAD_REACTORS
330
110
102
}
330
110
100
AcDbXrecord
280
     1
270
     1
271
     1
  0
XRECORD
  5
114
102
{ACAD_REACTORS
330
110
102
}
330
110
100
AcDbXrecord
280
     1
270
     1
271
     1
  0
CELLSTYLEMAP
  5
5126E
102
{ACAD_REACTORS
330
104
102
}
330
104
100
AcDbCellStyleMap
 90
        3
300
CELLSTYLE
  1
TABLEFORMAT_BEGIN
 90
        5
170
     1
 91
        0
 92
    32768
 62
   257
 93
        1
300
CONTENTFORMAT
  1
CONTENTFORMAT_BEGIN
 90
        0
 91
        0
 92
      512
 93
        0
300

 40
0.0
140
1.0
 94
        5
 62
     0
340
11
144
0.25
309
CONTENTFORMAT_END
171
     1
301
MARGIN
  1
CELLMARGIN_BEGIN
 40
0.06
 40
0.06
 40
0.06
 40
0.06
 40
0.18
 40
0.18
309
CELLMARGIN_END
 94
        6
 95
        1
302
GRIDFORMAT
  1
GRIDFORMAT_BEGIN
 90
        0
 91
        1
 62
     0
 92
       -2
340
0
 93
        0
 40
0.045
309
GRIDFORMAT_END
 95
        2
302
GRIDFORMAT
  1
GRIDFORMAT_BEGIN
 90
        0
 91
        1
 62
     0
 92
       -2
340
0
 93
        0
 40
0.045
309
GRIDFORMAT_END
 95
        4
302
GRIDFORMAT
  1
GRIDFORMAT_BEGIN
 90
        0
 91
        1
 62
     0
 92
       -2
340
0
 93
        0
 40
0.045
309
GRIDFORMAT_END
 95
        8
302
GRIDFORMAT
  1
GRIDFORMAT_BEGIN
 90
        0
 91
        1
 62
     0
 92
       -2
340
0
 93
        0
 40
0.045
309
GRIDFORMAT_END
 95
       16
302
GRIDFORMAT
  1
GRIDFORMAT_BEGIN
 90
        0
 91
        1
 62
     0
 92
       -2
340
0
 93
        0
 40
0.045
309
GRIDFORMAT_END
 95
       32
302
GRIDFORMAT
  1
GRIDFORMAT_BEGIN
 90
        0
 91
        1
 62
     0
 92
       -2
340
0
 93
        0
 40
0.045
309
GRIDFORMAT_END
309
TABLEFORMAT_END
  1
CELLSTYLE_BEGIN
 90
        1
 91
        1
300
_TITLE
309
CELLSTYLE_END
300
CELLSTYLE
  1
TABLEFORMAT_BEGIN
 90
        5
170
     1
 91
        0
 92
        0
 62
   257
 93
        1
300
CONTENTFORMAT
  1
CONTENTFORMAT_BEGIN
 90
        0
 91
        0
 92
      512
 93
        0
300

 40
0.0
140
1.0
 94
        5
 62
     0
340
11
144
0.18
309
CONTENTFORMAT_END
171
     1
301
MARGIN
  1
CELLMARGIN_BEGIN
 40
0.06
 40
0.06
 40
0.06
 40
0.06
 40
0.18
 40
0.18
309
CELLMARGIN_END
 94
        6
 95
        1
302
GRIDFORMAT
  1
GRIDFORMAT_BEGIN
 90
        0
 91
        1
 62
     0
 92
       -2
340
0
 93
        0
 40
0.045
309
GRIDFORMAT_END
 95
        2
302
GRIDFORMAT
  1
GRIDFORMAT_BEGIN
 90
        0
 91
        1
 62
     0
 92
       -2
340
0
 93
        0
 40
0.045
309
GRIDFORMAT_END
 95
        4
302
GRIDFORMAT
  1
GRIDFORMAT_BEGIN
 90
        0
 91
        1
 62
     0
 92
       -2
340
0
 93
        0
 40
0.045
309
GRIDFORMAT_END
 95
        8
302
GRIDFORMAT
  1
GRIDFORMAT_BEGIN
 90
        0
 91
        1
 62
     0
 92
       -2
340
0
 93
        0
 40
0.045
309
GRIDFORMAT_END
 95
       16
302
GRIDFORMAT
  1
GRIDFORMAT_BEGIN
 90
        0
 91
        1
 62
     0
 92
       -2
340
0
 93
        0
 40
0.045
309
GRIDFORMAT_END
 95
       32
302
GRIDFORMAT
  1
GRIDFORMAT_BEGIN
 90
        0
 91
        1
 62
     0
 92
       -2
340
0
 93
        0
 40
0.045
309
GRIDFORMAT_END
309
TABLEFORMAT_END
  1
CELLSTYLE_BEGIN
 90
        2
 91
        1
300
_HEADER
309
CELLSTYLE_END
300
CELLSTYLE
  1
TABLEFORMAT_BEGIN
 90
        5
170
     1
 91
        0
 92
        0
 62
   257
 93
        1
300
CONTENTFORMAT
  1
CONTENTFORMAT_BEGIN
 90
        0
 91
        0
 92
      512
 93
        0
300

 40
0.0
140
1.0
 94
        2
 62
     0
340
11
144
0.18
309
CONTENTFORMAT_END
171
     1
301
MARGIN
  1
CELLMARGIN_BEGIN
 40
0.06
 40
0.06
 40
0.06
 40
0.06
 40
0.18
 40
0.18
309
CELLMARGIN_END
 94
        6
 95
        1
302
GRIDFORMAT
  1
GRIDFORMAT_BEGIN
 90
        0
 91
        1
 62
     0
 92
       -2
340
0
 93
        0
 40
0.045
309
GRIDFORMAT_END
 95
        2
302
GRIDFORMAT
  1
GRIDFORMAT_BEGIN
 90
        0
 91
        1
 62
     0
 92
       -2
340
0
 93
        0
 40
0.045
309
GRIDFORMAT_END
 95
        4
302
GRIDFORMAT
  1
GRIDFORMAT_BEGIN
 90
        0
 91
        1
 62
     0
 92
       -2
340
0
 93
        0
 40
0.045
309
GRIDFORMAT_END
 95
        8
302
GRIDFORMAT
  1
GRIDFORMAT_BEGIN
 90
        0
 91
        1
 62
     0
 92
       -2
340
0
 93
        0
 40
0.045
309
GRIDFORMAT_END
 95
       16
302
GRIDFORMAT
  1
GRIDFORMAT_BEGIN
 90
        0
 91
        1
 62
     0
 92
       -2
340
0
 93
        0
 40
0.045
309
GRIDFORMAT_END
 95
       32
302
GRIDFORMAT
  1
GRIDFORMAT_BEGIN
 90
        0
 91
        1
 62
     0
 92
       -2
340
0
 93
        0
 40
0.045
309
GRIDFORMAT_END
309
TABLEFORMAT_END
  1
CELLSTYLE_BEGIN
 90
        3
 91
        2
300
_DATA
309
CELLSTYLE_END
  0
ENDSEC
  0
SECTION
  2
ACDSDATA
 70
     2
 71
     8
  0
ACDSSCHEMA
 90
        0
  1
AcDb_Thumbnail_Schema
  2
AcDbDs::ID
280
    10
 91
        8
  2
Thumbnail_Data
280
    15
 91
        0
101
ACDSRECORD
 95
        0
 90
        1
  2
AcDbDs::TreatedAsObjectData
280
     1
291
     1
101
ACDSRECORD
 95
        0
 90
        2
  2
AcDbDs::Legacy
280
     1
291
     1
101
ACDSRECORD
  1
AcDbDs::ID
 90
        3
  2
AcDs:Indexable
280
     1
291
     1
101
ACDSRECORD
  1
AcDbDs::ID
 90
        4
  2
AcDbDs::HandleAttribute
280
     7
282
     1
  0
ACDSSCHEMA
 90
        1
  1
AcDbDs::TreatedAsObjectDataSchema
  2
AcDbDs::TreatedAsObjectData
280
     1
 91
        0
  0
ACDSSCHEMA
 90
        2
  1
AcDbDs::LegacySchema
  2
AcDbDs::Legacy
280
     1
 91
        0
  0
ACDSSCHEMA
 90
        3
  1
AcDbDs::IndexedPropertySchema
  2
AcDs:Indexable
280
     1
 91
        0
  0
ACDSSCHEMA
 90
        4
  1
AcDbDs::HandleAttributeSchema
  2
AcDbDs::HandleAttribute
280
     7
 91
        1
284
     1
  0
ACDSSCHEMA
 90
        5
  1
AcDb3DSolid_ASM_Data
  2
AcDbDs::ID
280
    10
 91
        8
  2
ASM_Data
280
    15
 91
        0
101
ACDSRECORD
 95
        5
 90
        1
  2
AcDbDs::TreatedAsObjectData
280
     1
291
     1
101
ACDSRECORD
 95
        5
 90
        2
  2
AcDbDs::Legacy
280
     1
291
     1
101
ACDSRECORD
  1
AcDbDs::ID
 90
        3
  2
AcDs:Indexable
280
     1
291
     1
101
ACDSRECORD
  1
AcDbDs::ID
 90
        4
  2
AcDbDs::HandleAttribute
280
     7
282
     1
  0
ACDSRECORD
 90
        0
  2
AcDbDs::ID
280
    10
320
22
  2
Thumbnail_Data
280
    15
 94
     1666
310
89504E470D0A1A0A0000000D49484452000001000000006C0803000000B2ED9CC100000300504C5445212830FFFFFF2128300000000000000000000000000000000000000000000000000000330000660000990000CC0000FF0033000033330033660033990033CC0033FF0066000066330066660066990066CC0066FF0099
310
000099330099660099990099CC0099FF00CC0000CC3300CC6600CC9900CCCC00CCFF00FF0000FF3300FF6600FF9900FFCC00FFFF3300003300333300663300993300CC3300FF3333003333333333663333993333CC3333FF3366003366333366663366993366CC3366FF3399003399333399663399993399CC3399FF33CC00
310
33CC3333CC6633CC9933CCCC33CCFF33FF0033FF3333FF6633FF9933FFCC33FFFF6600006600336600666600996600CC6600FF6633006633336633666633996633CC6633FF6666006666336666666666996666CC6666FF6699006699336699666699996699CC6699FF66CC0066CC3366CC6666CC9966CCCC66CCFF66FF0066
310
FF3366FF6666FF9966FFCC66FFFF9900009900339900669900999900CC9900FF9933009933339933669933999933CC9933FF9966009966339966669966999966CC9966FF9999009999339999669999999999CC9999FF99CC0099CC3399CC6699CC9999CCCC99CCFF99FF0099FF3399FF6699FF9999FFCC99FFFFCC0000CC00
310
33CC0066CC0099CC00CCCC00FFCC3300CC3333CC3366CC3399CC33CCCC33FFCC6600CC6633CC6666CC6699CC66CCCC66FFCC9900CC9933CC9966CC9999CC99CCCC99FFCCCC00CCCC33CCCC66CCCC99CCCCCCCCCCFFCCFF00CCFF33CCFF66CCFF99CCFFCCCCFFFFFF0000FF0033FF0066FF0099FF00CCFF00FFFF3300FF3333
310
FF3366FF3399FF33CCFF33FFFF6600FF6633FF6666FF6699FF66CCFF66FFFF9900FF9933FF9966FF9999FF99CCFF99FFFFCC00FFCC33FFCC66FFCC99FFCCCCFFCCFFFFFF00FFFF33FFFF66FFFF99FFFFCCFFFFFF0000000D0D0D1A1A1A2828283535354343435050505D5D5D6B6B6B787878868686939393A1A1A1AEAEAEBB
310
BBBBC9C9C9D6D6D6E4E4E4F1F1F1FFFFFF0000000000000000000000000000000000000000000000000000000000002E4550F1000001634944415478DAED9BCB72C2301004F7FFFF77EE297044EC5816962E2133DD557040EC615BD25A0FA802000000000000000000804F43F2C842F3110D8FFC67F390D30858E848598D80
310
4712D302DACB640AD4FC14D056396C04AC960D93A7C08280168200042020514021000108400002C205F89C07AC0B28135605140210902D20BD06B4F7D875809C044CF37D969A2DC0A6126E53E094CB28B96788998053215085093876F938B526C0EC31B84B5A3742FC04B48BE2F723DB56C0D6F5BA17622AE0E7D66BB0E537
310
16703481808B9BD30C01BBB28880500117FB80B422D8DB0AA508B80890CAE7507CD4931A9E08D99C896994E8E808A122050C56072102DE8420C04A40A70501084040928073539A80F369F96B2F902AA0967E60FE7F05FC6E8C9B0217AB2104244D01E9CE67CE35205A40F7BF417102E247C07125142540DD6F070B50190AD0
310
FDDDE0EEBAC428FD4136FD7B212B0100000000000000000000F0F77C015593AD5B220BCA400000000049454E44AE4260829E009C02AB882400670008AA1A09C01F803DB482842B007804B0C60D91CF2F9E2F7FB1C23DC1579225015C3F890CE05202B8F9242E001C5FF3827301006B5440D9FC87A325E680CBB4BF3A80E341
310
024800126BCED8DCCAFE0BC89323148B0004169DB1773E315BC236EF7D16429C74C0FC8810FAB822E4686C54F4D26BA9A9E2DD7790D975BD451A1FD53D220800A0797E05CB04E203000DE41FA502A8BD05F61574D1160836078CE58FF12DE253CECF072C2F70EA6F011040B1F60060AF8009C658FE140940F746886607B0F5
310
F2D84660BD1618B88A08D2027100640B8C5D0B2DBC0AC45A06BBF6C2581840B855A0358D18E98F251203406F1A612A80B202BAD38891FF580B500000D49D4988F37FAC813E72214627000A3582A5C338FE00598ED82311F33F3A0000000049454E44AE4260820F467818FD4AC64A010000000049454E44AE42608200187F52
310
539FF6AC0FF2D01229B97F7B56AE64E8787DBF9E93B283504D4929EEDB336DE133B927D0B706F146D8FDD54728002424931276690CDE5FFA471401522320E6FA719CDCC9E90D234F422DA512220CD4066298BF969A4028B717C4D481E25C1BC6C59A99842240E2F24B1F92F8AC20F021F00EFE737AFD0FDF7E00E9E9886BC5
310
1247A50000000049454E44AE426082
  0
ENDSEC
  0
EOF
