  0
SECTION
  2
HEADER
  9
$ACADVER
  1
AC1032
  9
$ACADMAINTVER
 90
      197
  9
$DWGCODEPAGE
  3
ANSI_1252
  9
$LASTSAVEDBY
  1
gregb
  9
$REQUIREDVERSIONS
160
                 0
  9
$INSBASE
 10
0.0
 20
0.0
 30
0.0
  9
$EXTMIN
 10
412.1855138550163
 20
-59.35433339695009
 30
0.0
  9
$EXTMAX
 10
1188.91300518725
 20
315.5820975267979
 30
0.0
  9
$LIMMIN
 10
0.0
 20
0.0
  9
$LIMMAX
 10
12.0
 20
9.0
  9
$ORTHOMODE
 70
     0
  9
$REGENMODE
 70
     1
  9
$FILLMODE
 70
     1
  9
$QTEXTMODE
 70
     0
  9
$MIRRTEXT
 70
     0
  9
$LTSCALE
 40
1.0
  9
$ATTMODE
 70
     1
  9
$TEXTSIZE
 40
0.2
  9
$TRACEWID
 40
0.05
  9
$TEXTSTYLE
  7
Standard
  9
$CLAYER
  8
freecads.com
  9
$CELTYPE
  6
ByLayer
  9
$CECOLOR
 62
   256
  9
$CELTSCALE
 40
1.0
  9
$DISPSILH
 70
     1
  9
$DIMSCALE
 40
1.0
  9
$DIMASZ
 40
0.18
  9
$DIMEXO
 40
0.0625
  9
$DIMDLI
 40
0.38
  9
$DIMRND
 40
0.0
  9
$DIMDLE
 40
0.0
  9
$DIMEXE
 40
0.18
  9
$DIMTP
 40
0.0
  9
$DIMTM
 40
0.0
  9
$DIMTXT
 40
0.18
  9
$DIMCEN
 40
0.09
  9
$DIMTSZ
 40
0.0
  9
$DIMTOL
 70
     0
  9
$DIMLIM
 70
     0
  9
$DIMTIH
 70
     1
  9
$DIMTOH
 70
     1
  9
$DIMSE1
 70
     0
  9
$DIMSE2
 70
     0
  9
$DIMTAD
 70
     0
  9
$DIMZIN
 70
     0
  9
$DIMBLK
  1

  9
$DIMASO
 70
     1
  9
$DIMSHO
 70
     1
  9
$DIMPOST
  1

  9
$DIMAPOST
  1

  9
$DIMALT
 70
     0
  9
$DIMALTD
 70
     2
  9
$DIMALTF
 40
25.4
  9
$DIMLFAC
 40
1.0
  9
$DIMTOFL
 70
     0
  9
$DIMTVP
 40
0.0
  9
$DIMTIX
 70
     0
  9
$DIMSOXD
 70
     0
  9
$DIMSAH
 70
     0
  9
$DIMBLK1
  1

  9
$DIMBLK2
  1

  9
$DIMSTYLE
  2
Standard
  9
$DIMCLRD
 70
     0
  9
$DIMCLRE
 70
     0
  9
$DIMCLRT
 70
     0
  9
$DIMTFAC
 40
1.0
  9
$DIMGAP
 40
0.09
  9
$DIMJUST
 70
     0
  9
$DIMSD1
 70
     0
  9
$DIMSD2
 70
     0
  9
$DIMTOLJ
 70
     1
  9
$DIMTZIN
 70
     0
  9
$DIMALTZ
 70
     0
  9
$DIMALTTZ
 70
     0
  9
$DIMUPT
 70
     0
  9
$DIMDEC
 70
     4
  9
$DIMTDEC
 70
     4
  9
$DIMALTU
 70
     2
  9
$DIMALTTD
 70
     2
  9
$DIMTXSTY
  7
Standard
  9
$DIMAUNIT
 70
     0
  9
$DIMADEC
 70
     0
  9
$DIMALTRND
 40
0.0
  9
$DIMAZIN
 70
     0
  9
$DIMDSEP
 70
    46
  9
$DIMATFIT
 70
     3
  9
$DIMFRAC
 70
     0
  9
$DIMLDRBLK
  1

  9
$DIMLUNIT
 70
     2
  9
$DIMLWD
 70
    -2
  9
$DIMLWE
 70
    -2
  9
$DIMTMOVE
 70
     0
  9
$DIMFXL
 40
1.0
  9
$DIMFXLON
 70
     0
  9
$DIMJOGANG
 40
0.7853981633974483
  9
$DIMTFILL
 70
     0
  9
$DIMTFILLCLR
 70
     0
  9
$DIMARCSYM
 70
     0
  9
$DIMLTYPE
  6

  9
$DIMLTEX1
  6

  9
$DIMLTEX2
  6

  9
$DIMTXTDIRECTION
 70
     0
  9
$LUNITS
 70
     2
  9
$LUPREC
 70
     4
  9
$SKETCHINC
 40
0.1
  9
$FILLETRAD
 40
0.0
  9
$AUNITS
 70
     0
  9
$AUPREC
 70
     0
  9
$MENU
  1
.
  9
$ELEVATION
 40
0.0
  9
$PELEVATION
 40
0.0
  9
$THICKNESS
 40
0.0
  9
$LIMCHECK
 70
     0
  9
$CHAMFERA
 40
0.0
  9
$CHAMFERB
 40
0.0
  9
$CHAMFERC
 40
0.0
  9
$CHAMFERD
 40
0.0
  9
$SKPOLY
 70
     0
  9
$TDCREATE
 40
2458157.371250000
  9
$TDUCREATE
 40
2458157.287916667
  9
$TDUPDATE
 40
2461017.970497685
  9
$TDUUPDATE
 40
2461017.887164352
  9
$TDINDWG
 40
0.1446296296
  9
$TDUSRTIMER
 40
0.1446296296
  9
$USRTIMER
 70
     1
  9
$ANGBASE
 50
0.0
  9
$ANGDIR
 70
     0
  9
$PDMODE
 70
     0
  9
$PDSIZE
 40
0.0
  9
$PLINEWID
 40
0.0
  9
$SPLFRAME
 70
     0
  9
$SPLINETYPE
 70
     6
  9
$SPLINESEGS
 70
     8
  9
$HANDSEED
  5
2FC2E
  9
$SURFTAB1
 70
     6
  9
$SURFTAB2
 70
     6
  9
$SURFTYPE
 70
     6
  9
$SURFU
 70
     6
  9
$SURFV
 70
     6
  9
$UCSBASE
  2

  9
$UCSNAME
  2

  9
$UCSORG
 10
0.0
 20
0.0
 30
0.0
  9
$UCSXDIR
 10
1.0
 20
0.0
 30
0.0
  9
$UCSYDIR
 10
0.0
 20
1.0
 30
0.0
  9
$UCSORTHOREF
  2

  9
$UCSORTHOVIEW
 70
     0
  9
$UCSORGTOP
 10
0.0
 20
0.0
 30
0.0
  9
$UCSORGBOTTOM
 10
0.0
 20
0.0
 30
0.0
  9
$UCSORGLEFT
 10
0.0
 20
0.0
 30
0.0
  9
$UCSORGRIGHT
 10
0.0
 20
0.0
 30
0.0
  9
$UCSORGFRONT
 10
0.0
 20
0.0
 30
0.0
  9
$UCSORGBACK
 10
0.0
 20
0.0
 30
0.0
  9
$PUCSBASE
  2

  9
$PUCSNAME
  2

  9
$PUCSORG
 10
0.0
 20
0.0
 30
0.0
  9
$PUCSXDIR
 10
1.0
 20
0.0
 30
0.0
  9
$PUCSYDIR
 10
0.0
 20
1.0
 30
0.0
  9
$PUCSORTHOREF
  2

  9
$PUCSORTHOVIEW
 70
     0
  9
$PUCSORGTOP
 10
0.0
 20
0.0
 30
0.0
  9
$PUCSORGBOTTOM
 10
0.0
 20
0.0
 30
0.0
  9
$PUCSORGLEFT
 10
0.0
 20
0.0
 30
0.0
  9
$PUCSORGRIGHT
 10
0.0
 20
0.0
 30
0.0
  9
$PUCSORGFRONT
 10
0.0
 20
0.0
 30
0.0
  9
$PUCSORGBACK
 10
0.0
 20
0.0
 30
0.0
  9
$USERI1
 70
     0
  9
$USERI2
 70
     0
  9
$USERI3
 70
     0
  9
$USERI4
 70
     0
  9
$USERI5
 70
     0
  9
$USERR1
 40
0.0
  9
$USERR2
 40
0.0
  9
$USERR3
 40
0.0
  9
$USERR4
 40
0.0
  9
$USERR5
 40
0.0
  9
$WORLDVIEW
 70
     1
  9
$SHADEDGE
 70
     3
  9
$SHADEDIF
 70
    70
  9
$TILEMODE
 70
     1
  9
$MAXACTVP
 70
    64
  9
$PINSBASE
 10
0.0
 20
0.0
 30
0.0
  9
$PLIMCHECK
 70
     0
  9
$PEXTMIN
 10
0.0
 20
0.0
 30
0.0
  9
$PEXTMAX
 10
0.0
 20
0.0
 30
0.0
  9
$PLIMMIN
 10
0.0
 20
0.0
  9
$PLIMMAX
 10
12.0
 20
9.0
  9
$UNITMODE
 70
     0
  9
$VISRETAIN
 70
     1
  9
$PLINEGEN
 70
     0
  9
$PSLTSCALE
 70
     1
  9
$TREEDEPTH
 70
  3020
  9
$CMLSTYLE
  2
Standard
  9
$CMLJUST
 70
     0
  9
$CMLSCALE
 40
1.0
  9
$PROXYGRAPHICS
 70
     1
  9
$MEASUREMENT
 70
     0
  9
$CELWEIGHT
370
    -1
  9
$ENDCAPS
280
     0
  9
$JOINSTYLE
280
     0
  9
$LWDISPLAY
290
     0
  9
$INSUNITS
 70
     1
  9
$HYPERLINKBASE
  1

  9
$STYLESHEET
  1
monochrome.ctb
  9
$XEDIT
290
     1
  9
$CEPSNTYPE
380
     0
  9
$PSTYLEMODE
290
     1
  9
$FINGERPRINTGUID
  2
{358EB121-6EE0-9143-8A3E-6E8E8869FDA6}
  9
$VERSIONGUID
  2
{329D6A59-7B78-FD4B-AE63-06BF77BC1B49}
  9
$EXTNAMES
290
     1
  9
$PSVPSCALE
 40
0.0
  9
$OLESTARTUP
290
     0
  9
$SORTENTS
280
   127
  9
$INDEXCTL
280
     0
  9
$HIDETEXT
280
     1
  9
$XCLIPFRAME
280
     2
  9
$HALOGAP
280
     0
  9
$OBSCOLOR
 70
   257
  9
$OBSLTYPE
280
     0
  9
$INTERSECTIONDISPLAY
280
     0
  9
$INTERSECTIONCOLOR
 70
   257
  9
$DIMASSOC
280
     2
  9
$PROJECTNAME
  1

  9
$CAMERADISPLAY
290
     0
  9
$LENSLENGTH
 40
50.0
  9
$CAMERAHEIGHT
 40
0.0
  9
$STEPSPERSEC
 40
2.0
  9
$STEPSIZE
 40
6.0
  9
$3DDWFPREC
 40
2.0
  9
$PSOLWIDTH
 40
0.25
  9
$PSOLHEIGHT
 40
4.0
  9
$LOFTANG1
 40
1.570796326794896
  9
$LOFTANG2
 40
1.570796326794896
  9
$LOFTMAG1
 40
0.0
  9
$LOFTMAG2
 40
0.0
  9
$LOFTPARAM
 70
     7
  9
$LOFTNORMALS
280
     1
  9
$LATITUDE
 40
37.795
  9
$LONGITUDE
 40
-122.394
  9
$NORTHDIRECTION
 40
0.0
  9
$TIMEZONE
 70
 -8000
  9
$LIGHTGLYPHDISPLAY
280
     1
  9
$TILEMODELIGHTSYNCH
280
     1
  9
$CMATERIAL
347
96
  9
$SOLIDHIST
280
     0
  9
$SHOWHIST
280
     1
  9
$DWFFRAME
280
     2
  9
$DGNFRAME
280
     0
  9
$REALWORLDSCALE
290
     1
  9
$INTERFERECOLOR
 62
     1
  9
$INTERFEREOBJVS
345
A3
  9
$INTERFEREVPVS
346
A0
  9
$CSHADOW
280
     0
  9
$SHADOWPLANELOCATION
 40
0.0
  0
ENDSEC
  0
SECTION
  2
CLASSES
  0
CLASS
  1
ACDBDICTIONARYWDFLT
  2
AcDbDictionaryWithDefault
  3
ObjectDBX Classes
 90
        0
 91
        1
280
     0
281
     0
  0
CLASS
  1
DICTIONARYVAR
  2
AcDbDictionaryVar
  3
ObjectDBX Classes
 90
        0
 91
        9
280
     0
281
     0
  0
CLASS
  1
TABLESTYLE
  2
AcDbTableStyle
  3
ObjectDBX Classes
 90
     4095
 91
        1
280
     0
281
     0
  0
CLASS
  1
MATERIAL
  2
AcDbMaterial
  3
ObjectDBX Classes
 90
     1153
 91
        3
280
     0
281
     0
  0
CLASS
  1
VISUALSTYLE
  2
AcDbVisualStyle
  3
ObjectDBX Classes
 90
     4095
 91
       25
280
     0
281
     0
  0
CLASS
  1
SCALE
  2
AcDbScale
  3
ObjectDBX Classes
 90
     1153
 91
       35
280
     0
281
     0
  0
CLASS
  1
MLEADERSTYLE
  2
AcDbMLeaderStyle
  3
ACDB_MLEADERSTYLE_CLASS
 90
     4095
 91
        1
280
     0
281
     0
  0
CLASS
  1
CELLSTYLEMAP
  2
AcDbCellStyleMap
  3
ObjectDBX Classes
 90
     1152
 91
        1
280
     0
281
     0
  0
CLASS
  1
EXACXREFPANELOBJECT
  2
ExAcXREFPanelObject
  3
EXAC_ESW
 90
     1025
 91
        0
280
     0
281
     0
  0
CLASS
  1
NPOCOLLECTION
  2
AcDbImpNonPersistentObjectsCollection
  3
ObjectDBX Classes
 90
     1153
 91
        0
280
     0
281
     0
  0
CLASS
  1
LAYER_INDEX
  2
AcDbLayerIndex
  3
ObjectDBX Classes
 90
        0
 91
        0
280
     0
281
     0
  0
CLASS
  1
SPATIAL_INDEX
  2
AcDbSpatialIndex
  3
ObjectDBX Classes
 90
        0
 91
        0
280
     0
281
     0
  0
CLASS
  1
IDBUFFER
  2
AcDbIdBuffer
  3
ObjectDBX Classes
 90
        0
 91
        0
280
     0
281
     0
  0
CLASS
  1
ACDBSECTIONVIEWSTYLE
  2
AcDbSectionViewStyle
  3
ObjectDBX Classes
 90
     1025
 91
        2
280
     0
281
     0
  0
CLASS
  1
ACDBDETAILVIEWSTYLE
  2
AcDbDetailViewStyle
  3
ObjectDBX Classes
 90
     1025
 91
        2
280
     0
281
     0
  0
CLASS
  1
SORTENTSTABLE
  2
AcDbSortentsTable
  3
ObjectDBX Classes
 90
        0
 91
        1
280
     0
281
     0
  0
CLASS
  1
SPATIAL_FILTER
  2
AcDbSpatialFilter
  3
ObjectDBX Classes
 90
        0
 91
        0
280
     0
281
     0
  0
CLASS
  1
SOLID_BACKGROUND
  2
AcDbSolidBackground
  3
SCENEOE
 90
     4095
 91
        0
280
     0
281
     0
  0
CLASS
  1
RASTERVARIABLES
  2
AcDbRasterVariables
  3
ISM
 90
        0
 91
        1
280
     0
281
     0
  0
CLASS
  1
IMAGEDEF
  2
AcDbRasterImageDef
  3
ISM
 90
        0
 91
        0
280
     0
281
     0
  0
CLASS
  1
IMAGEDEF_REACTOR
  2
AcDbRasterImageDefReactor
  3
ISM
 90
        1
 91
        0
280
     0
281
     0
  0
CLASS
  1
IMAGE
  2
AcDbRasterImage
  3
ISM
 90
     2175
 91
        0
280
     0
281
     1
  0
ENDSEC
  0
SECTION
  2
TABLES
  0
TABLE
  2
VPORT
  5
8
330
0
100
AcDbSymbolTable
 70
     1
  0
VPORT
  5
94
330
8
100
AcDbSymbolTableRecord
100
AcDbViewportTableRecord
  2
*Active
 70
     0
 10
0.0
 20
0.0
 11
1.0
 21
1.0
 12
800.7167359679899
 22
199.5313919667614
 13
0.0
 23
0.0
 14
0.5
 24
0.5
 15
0.5
 25
0.5
 16
0.0
 26
0.0
 36
1.0
 17
0.0
 27
0.0
 37
0.0
 40
522.6123299066054
 41
2.114740368509212
 42
50.0
 43
0.0
 44
0.0
 50
0.0
 51
0.0
 71
     0
 72
  1000
 73
     1
 74
     3
 75
     0
 76
     0
 77
     0
 78
     0
281
     0
 65
     1
110
0.0
120
0.0
130
0.0
111
1.0
121
0.0
131
0.0
112
0.0
122
1.0
132
0.0
 79
     0
146
0.0
348
9F
 60
     3
 61
     5
292
     1
282
     1
141
0.0
142
0.0
 63
   250
421
  3355443
1001
ACAD_NAV_VCDISPLAY
1070
     3
  0
ENDTAB
  0
TABLE
  2
LTYPE
  5
5
330
0
100
AcDbSymbolTable
 70
     1
  0
LTYPE
  5
14
330
5
100
AcDbSymbolTableRecord
100
AcDbLinetypeTableRecord
  2
ByBlock
 70
     0
  3

 72
    65
 73
     0
 40
0.0
  0
LTYPE
  5
15
330
5
100
AcDbSymbolTableRecord
100
AcDbLinetypeTableRecord
  2
ByLayer
 70
     0
  3

 72
    65
 73
     0
 40
0.0
  0
LTYPE
  5
16
330
5
100
AcDbSymbolTableRecord
100
AcDbLinetypeTableRecord
  2
Continuous
 70
     0
  3
Solid line
 72
    65
 73
     0
 40
0.0
  0
ENDTAB
  0
TABLE
  2
LAYER
  5
2
102
{ACAD_XDICTIONARY
360
18E
102
}
330
0
100
AcDbSymbolTable
 70
     2
  0
LAYER
  5
10
102
{ACAD_XDICTIONARY
360
E6
102
}
330
2
100
AcDbSymbolTableRecord
100
AcDbLayerTableRecord
  2
0
 70
     0
 62
     7
  6
Continuous
370
    -3
390
F
347
98
348
0
  0
LAYER
  5
204
330
2
100
AcDbSymbolTableRecord
100
AcDbLayerTableRecord
  2
freecads.com
 70
     0
 62
     7
  6
Continuous
370
    -3
390
F
347
98
348
0
1001
AcAecLayerStandard
1000

1000

1001
AcCmTransparency
1071
        0
  0
ENDTAB
  0
TABLE
  2
STYLE
  5
3
330
0
100
AcDbSymbolTable
 70
     1
  0
STYLE
  5
11
330
3
100
AcDbSymbolTableRecord
100
AcDbTextStyleTableRecord
  2
Standard
 70
     0
 40
0.0
 41
1.0
 50
0.0
 71
     0
 42
0.2
  3
arial.ttf
  4

1001
ACAD
1000
Arial
1071
       34
  0
ENDTAB
  0
TABLE
  2
VIEW
  5
6
330
0
100
AcDbSymbolTable
 70
     0
  0
ENDTAB
  0
TABLE
  2
UCS
  5
7
330
0
100
AcDbSymbolTable
 70
     0
  0
ENDTAB
  0
TABLE
  2
APPID
  5
9
330
0
100
AcDbSymbolTable
 70
    25
  0
APPID
  5
12
330
9
100
AcDbSymbolTableRecord
100
AcDbRegAppTableRecord
  2
ACAD
 70
     0
  0
APPID
  5
DD
330
9
100
AcDbSymbolTableRecord
100
AcDbRegAppTableRecord
  2
AcadAnnoPO
 70
     0
  0
APPID
  5
DE
330
9
100
AcDbSymbolTableRecord
100
AcDbRegAppTableRecord
  2
AcadAnnotative
 70
     0
  0
APPID
  5
DF
330
9
100
AcDbSymbolTableRecord
100
AcDbRegAppTableRecord
  2
ACAD_DSTYLE_DIMJAG
 70
     0
  0
APPID
  5
E0
330
9
100
AcDbSymbolTableRecord
100
AcDbRegAppTableRecord
  2
ACAD_DSTYLE_DIMTALN
 70
     0
  0
APPID
  5
107
330
9
100
AcDbSymbolTableRecord
100
AcDbRegAppTableRecord
  2
ACAD_MLEADERVER
 70
     0
  0
APPID
  5
1A6
330
9
100
AcDbSymbolTableRecord
100
AcDbRegAppTableRecord
  2
ACAD_NAV_VCDISPLAY
 70
     0
  0
APPID
  5
205
330
9
100
AcDbSymbolTableRecord
100
AcDbRegAppTableRecord
  2
AcAecLayerStandard
 70
     0
  0
APPID
  5
206
330
9
100
AcDbSymbolTableRecord
100
AcDbRegAppTableRecord
  2
AcCmTransparency
 70
     0
  0
APPID
  5
222
330
9
100
AcDbSymbolTableRecord
100
AcDbRegAppTableRecord
  2
ACAD_PSEXT
 70
     0
  0
APPID
  5
2DA
330
9
100
AcDbSymbolTableRecord
100
AcDbRegAppTableRecord
  2
GradientColor1ACI
 70
     0
  0
APPID
  5
2DB
330
9
100
AcDbSymbolTableRecord
100
AcDbRegAppTableRecord
  2
GradientColor2ACI
 70
     0
  0
APPID
  5
2F3
330
9
100
AcDbSymbolTableRecord
100
AcDbRegAppTableRecord
  2
ACAD_EXEMPT_FROM_CAD_STANDARDS
 70
     0
  0
APPID
  5
A1A
330
9
100
AcDbSymbolTableRecord
100
AcDbRegAppTableRecord
  2
AcDbBlockRepETag
 70
     0
  0
APPID
  5
228C
330
9
100
AcDbSymbolTableRecord
100
AcDbRegAppTableRecord
  2
RAK
 70
     0
  0
APPID
  5
2683
330
9
100
AcDbSymbolTableRecord
100
AcDbRegAppTableRecord
  2
ACAD_DSTYLE_DIMJOGGED_JOGANGLE_SYMBOL
 70
     0
  0
APPID
  5
47CF
330
9
100
AcDbSymbolTableRecord
100
AcDbRegAppTableRecord
  2
ACAD_DSTYLE_DIMBREAK
 70
     0
  0
APPID
  5
47D0
330
9
100
AcDbSymbolTableRecord
100
AcDbRegAppTableRecord
  2
AcDbDynamicBlockGUID
 70
     0
  0
APPID
  5
8BD5
330
9
100
AcDbSymbolTableRecord
100
AcDbRegAppTableRecord
  2
AcLayerTools
 70
     0
  0
APPID
  5
92D9
330
9
100
AcDbSymbolTableRecord
100
AcDbRegAppTableRecord
  2
AutoGrph01
 70
     0
  0
APPID
  5
92DA
330
9
100
AcDbSymbolTableRecord
100
AcDbRegAppTableRecord
  2
AutoGrphVars
 70
     0
  0
APPID
  5
92DB
330
9
100
AcDbSymbolTableRecord
100
AcDbRegAppTableRecord
  2
AutoGrphZ
 70
     0
  0
APPID
  5
92DC
330
9
100
AcDbSymbolTableRecord
100
AcDbRegAppTableRecord
  2
AutoGrph05
 70
     0
  0
APPID
  5
AD30
330
9
100
AcDbSymbolTableRecord
100
AcDbRegAppTableRecord
  2
AEC_XDATA_BOUND_SPACE
 70
     0
  0
APPID
  5
C1FD
330
9
100
AcDbSymbolTableRecord
100
AcDbRegAppTableRecord
  2
AcDbBlockArrayActionTag
 70
     0
  0
ENDTAB
  0
TABLE
  2
DIMSTYLE
  5
A
330
0
100
AcDbSymbolTable
 70
     1
100
AcDbDimStyleTable
 71
     1
340
27
  0
DIMSTYLE
105
27
330
A
100
AcDbSymbolTableRecord
100
AcDbDimStyleTableRecord
  2
Standard
 70
     0
340
11
  0
ENDTAB
  0
TABLE
  2
BLOCK_RECORD
  5
1
330
0
100
AcDbSymbolTable
 70
     1
  0
BLOCK_RECORD
  5
1F
102
{ACAD_XDICTIONARY
360
15D
102
}
330
1
100
AcDbSymbolTableRecord
100
AcDbBlockTableRecord
  2
*Model_Space
340
22
 70
     0
280
     1
281
     0
  0
BLOCK_RECORD
  5
58
330
1
100
AcDbSymbolTableRecord
100
AcDbBlockTableRecord
  2
*Paper_Space
340
59
 70
     0
280
     1
281
     0
  0
BLOCK_RECORD
  5
5D
330
1
100
AcDbSymbolTableRecord
100
AcDbBlockTableRecord
  2
*Paper_Space0
340
5E
 70
     0
280
     1
281
     0
  0
ENDTAB
  0
ENDSEC
  0
SECTION
  2
BLOCKS
  0
BLOCK
  5
20
330
1F
100
AcDbEntity
  8
0
100
AcDbBlockBegin
  2
*Model_Space
 70
     0
 10
0.0
 20
0.0
 30
0.0
  3
*Model_Space
  1

  0
ENDBLK
  5
21
330
1F
100
AcDbEntity
  8
0
100
AcDbBlockEnd
  0
BLOCK
  5
5A
330
58
100
AcDbEntity
 67
     1
  8
0
100
AcDbBlockBegin
  2
*Paper_Space
 70
     0
 10
0.0
 20
0.0
 30
0.0
  3
*Paper_Space
  1

  0
ENDBLK
  5
5B
330
58
100
AcDbEntity
 67
     1
  8
0
100
AcDbBlockEnd
  0
BLOCK
  5
5F
330
5D
100
AcDbEntity
 67
     1
  8
0
100
AcDbBlockBegin
  2
*Paper_Space0
 70
     0
 10
0.0
 20
0.0
 30
0.0
  3
*Paper_Space0
  1

  0
ENDBLK
  5
60
330
5D
100
AcDbEntity
 67
     1
  8
0
100
AcDbBlockEnd
  0
ENDSEC
  0
SECTION
  2
ENTITIES
  0
ARC
  5
2FAA4
330
1F
100
AcDbEntity
  8
freecads.com
100
AcDbCircle
 10
468.0354074534396
 20
255.4650383563494
 30
0.0
 40
61.58922832167431
100
AcDbArc
 50
109.7472051487987
 51
122.3706642177597
  0
ARC
  5
2FAA5
330
1F
100
AcDbEntity
  8
freecads.com
100
AcDbCircle
 10
460.1282240112185
 20
267.9389373459635
 30
0.0
 40
46.82028435161813
100
AcDbArc
 50
122.3707030552592
 51
137.874623916173
  0
ARC
  5
2FAA6
330
1F
100
AcDbEntity
  8
freecads.com
100
AcDbCircle
 10
458.6901536552167
 20
269.2395366993078
 30
0.0
 40
44.88131425759088
100
AcDbArc
 50
137.8746671801821
 51
153.748127501244
  0
ARC
  5
2FAA7
330
1F
100
AcDbEntity
  8
freecads.com
100
AcDbCircle
 10
465.3683353428485
 20
265.9458727648671
 30
0.0
 40
52.32754369012325
100
AcDbArc
 50
153.7480510536736
 51
167.8956324657561
  0
ARC
  5
2FAA8
330
1F
100
AcDbEntity
  8
freecads.com
100
AcDbCircle
 10
456.6405250877277
 20
267.8176194944608
 30
0.0
 40
43.40128424575481
100
AcDbArc
 50
167.8955943178114
 51
178.8511330910651
  0
ARC
  5
2FAA9
330
1F
100
AcDbEntity
  8
freecads.com
100
AcDbCircle
 10
5661.896762168179
 20
163.428785239761
 30
0.0
 40
5249.704149272139
100
AcDbArc
 50
178.8511156852591
 51
179.212307980382
  0
ARC
  5
2FAAA
330
1F
100
AcDbEntity
  8
freecads.com
100
AcDbCircle
 10
4841.96727500463
 20
174.7052646217707
 30
0.0
 40
4429.697123148097
100
AcDbArc
 50
179.2123535932132
 51
179.7825600143801
  0
ARC
  5
2FAAB
330
1F
100
AcDbEntity
  8
freecads.com
100
AcDbCircle
 10
16593.87849357567
 20
130.103429183262
 30
0.0
 40
16181.69297972065
100
AcDbArc
 50
179.7825507905985
 51
180.0000455045095
  0
LINE
  5
2FAAC
330
1F
100
AcDbEntity
  8
freecads.com
100
AcDbLine
 10
412.185513860123
 20
130.0905776353829
 30
0.0
 11
412.185513860123
 21
-7.324740676471265
 31
0.0
  0
LINE
  5
2FAAD
330
1F
100
AcDbEntity
  8
freecads.com
100
AcDbLine
 10
412.185513860123
 20
-7.324740676471265
 30
0.0
 11
517.2321187699261
 21
-7.324740676471265
 31
0.0
  0
ARC
  5
2FAAE
330
1F
100
AcDbEntity
  8
freecads.com
100
AcDbCircle
 10
517.230907763237
 20
27972.78588337299
 30
0.0
 40
27980.11062404949
100
AcDbArc
 50
270.000002480029
 51
270.1326994905132
  0
ARC
  5
2FAAF
330
1F
100
AcDbEntity
  8
freecads.com
100
AcDbCircle
 10
580.0084671166395
 20
867.5227983373771
 30
0.0
 40
874.7748406480056
100
AcDbArc
 50
270.1326672867352
 51
271.7559441663224
  0
ARC
  5
2FAB0
330
1F
100
AcDbEntity
  8
freecads.com
100
AcDbCircle
 10
596.3738226606063
 20
333.7021043975692
 30
0.0
 40
340.7033490475566
100
AcDbArc
 50
271.7559063478158
 51
274.0939514050349
  0
ARC
  5
2FAB1
330
1F
100
AcDbEntity
  8
freecads.com
100
AcDbCircle
 10
620.4861492890621
 20
-3.180857339932117
 30
0.0
 40
2.958572323376281
100
AcDbArc
 50
274.093909716803
 51
342.4517888441423
  0
ARC
  5
2FAB2
330
1F
100
AcDbEntity
  8
freecads.com
100
AcDbCircle
 10
695.6584401546268
 20
-26.9522189772033
 30
0.0
 40
75.88272997476775
100
AcDbArc
 50
146.9163355190123
 51
162.4517388408741
  0
ARC
  5
2FAB3
330
1F
100
AcDbEntity
  8
freecads.com
100
AcDbCircle
 10
683.0716619001167
 20
-18.75205476605333
 30
0.0
 40
60.86042389630716
100
AcDbArc
 50
128.5867665829082
 51
146.9163823458973
  0
ARC
  5
2FAB4
330
1F
100
AcDbEntity
  8
freecads.com
100
AcDbCircle
 10
679.946217538977
 20
-14.83499835765542
 30
0.0
 40
55.84926301674146
100
AcDbArc
 50
109.3590968884669
 51
128.5867823894797
  0
ARC
  5
2FAB5
330
1F
100
AcDbEntity
  8
freecads.com
100
AcDbCircle
 10
679.7256180650864
 20
-14.2071365382435
 30
0.0
 40
55.18377478082496
100
AcDbArc
 50
89.95778555386246
 51
109.3590987393942
  0
ARC
  5
2FAB6
330
1F
100
AcDbEntity
  8
freecads.com
100
AcDbCircle
 10
679.6943311059575
 20
-56.75461401434586
 30
0.0
 40
97.73126376020707
100
AcDbArc
 50
86.96302692794459
 51
89.95782144613276
  0
ARC
  5
2FAB7
330
1F
100
AcDbEntity
  8
freecads.com
100
AcDbCircle
 10
678.5526144258463
 20
-78.2770977311593
 30
0.0
 40
119.2840088823128
100
AcDbArc
 50
84.38398383036185
 51
86.96310176075604
  0
ARC
  5
2FAB8
330
1F
100
AcDbEntity
  8
freecads.com
100
AcDbCircle
 10
679.7542435991044
 20
-66.05686307526048
 30
0.0
 40
107.0048375863922
100
AcDbArc
 50
81.77231315959666
 51
84.38397091925631
  0
ARC
  5
2FAB9
330
1F
100
AcDbEntity
  8
freecads.com
100
AcDbCircle
 10
691.2244802902995
 20
13.26962617657409
 30
0.0
 40
26.85336706480902
100
AcDbArc
 50
74.47411817234183
 51
81.77227848456332
  0
ARC
  5
2FABA
330
1F
100
AcDbEntity
  8
freecads.com
100
AcDbCircle
 10
686.0302666312626
 20
-5.427239131015085
 30
0.0
 40
46.25833106543606
100
AcDbArc
 50
57.73118014326769
 51
74.47409727785043
  0
ARC
  5
2FABB
330
1F
100
AcDbEntity
  8
freecads.com
100
AcDbCircle
 10
673.0968342546683
 20
-25.91049922002276
 30
0.0
 40
70.48306257917847
100
AcDbArc
 50
45.51900683458782
 51
57.73114631546324
  0
ARC
  5
2FABC
330
1F
100
AcDbEntity
  8
freecads.com
100
AcDbCircle
 10
673.08241151148
 20
-25.92507567842404
 30
0.0
 40
70.50356825460345
100
AcDbArc
 50
33.30840446536542
 51
45.51894421429294
  0
ARC
  5
2FABD
330
1F
100
AcDbEntity
  8
freecads.com
100
AcDbCircle
 10
693.2818053235813
 20
-12.65230460894963
 30
0.0
 40
46.33371177512618
100
AcDbArc
 50
16.58440053301944
 51
33.3083966952119
  0
ARC
  5
2FABE
330
1F
100
AcDbEntity
  8
freecads.com
100
AcDbCircle
 10
797.789262035264
 20
18.47181491762603
 30
0.0
 40
62.70994610855176
100
AcDbArc
 50
196.5844645934807
 51
200.9239866175922
  0
ARC
  5
2FABF
330
1F
100
AcDbEntity
  8
freecads.com
100
AcDbCircle
 10
744.7174645387557
 20
-1.819786997963092
 30
0.0
 40
5.891244981102038
100
AcDbArc
 50
200.9240687857773
 51
225.5281729071606
  0
ARC
  5
2FAC0
330
1F
100
AcDbEntity
  8
freecads.com
100
AcDbCircle
 10
743.1879731638754
 20
-3.377742099655733
 30
0.0
 40
3.707997866205143
100
AcDbArc
 50
225.5281539063175
 51
259.2676169334144
  0
ARC
  5
2FAC1
330
1F
100
AcDbEntity
  8
freecads.com
100
AcDbCircle
 10
745.73236782239
 20
10.04653354855691
 30
0.0
 40
17.37127422502388
100
AcDbArc
 50
259.2676414560628
 51
269.9999979247631
  0
ARC
  5
2FAC2
330
1F
100
AcDbEntity
  8
freecads.com
100
AcDbCircle
 10
745.7323658205849
 20
9.479005448840325
 30
0.0
 40
16.80374612530888
100
AcDbArc
 50
270.0000046799136
 51
281.2262612488437
  0
ARC
  5
2FAC3
330
1F
100
AcDbEntity
  8
freecads.com
100
AcDbCircle
 10
748.2960175189936
 20
-3.437332948997209
 30
0.0
 40
3.635446780364764
100
AcDbArc
 50
281.2263382545798
 51
316.1728915925542
  0
ARC
  5
2FAC4
330
1F
100
AcDbEntity
  8
freecads.com
100
AcDbCircle
 10
746.2949686280907
 20
-1.516565149038797
 30
0.0
 40
6.40917092041012
100
AcDbArc
 50
316.1728098819144
 51
339.8521854925519
  0
ARC
  5
2FAC5
330
1F
100
AcDbEntity
  8
freecads.com
100
AcDbCircle
 10
676.2381982533979
 20
24.18686727088789
 30
0.0
 40
81.03234100516322
100
AcDbArc
 50
339.8521976756186
 51
343.5499755598522
  0
ARC
  5
2FAC6
330
1F
100
AcDbEntity
  8
freecads.com
100
AcDbCircle
 10
795.9660939804879
 20
-11.16458341982798
 30
0.0
 40
43.80553017651623
100
AcDbArc
 50
151.814154455256
 51
163.5499790487705
  0
ARC
  5
2FAC7
330
1F
100
AcDbEntity
  8
freecads.com
100
AcDbCircle
 10
808.801108767714
 20
-18.04255015953822
 30
0.0
 40
58.36726190940335
100
AcDbArc
 50
142.3501719583834
 51
151.8141769024524
  0
ARC
  5
2FAC8
330
1F
100
AcDbEntity
  8
freecads.com
100
AcDbCircle
 10
812.0080610302673
 20
-20.51667150884896
 30
0.0
 40
62.41767167451861
100
AcDbArc
 50
133.1911715587545
 51
142.3501794718703
  0
ARC
  5
2FAC9
330
1F
100
AcDbEntity
  8
freecads.com
100
AcDbCircle
 10
811.4342068697578
 20
-19.90546063447254
 30
0.0
 40
61.57928791505382
100
AcDbArc
 50
123.9387628460855
 51
133.1911266860775
  0
ARC
  5
2FACA
330
1F
100
AcDbEntity
  8
freecads.com
100
AcDbCircle
 10
818.4819044886234
 20
-30.37822112259892
 30
0.0
 40
74.20262954746885
100
AcDbArc
 50
116.68868597982
 51
123.9387663051839
  0
ARC
  5
2FACB
330
1F
100
AcDbEntity
  8
freecads.com
100
AcDbCircle
 10
804.4806622368332
 20
-2.526106227414857
 30
0.0
 40
43.0293222361293
100
AcDbArc
 50
105.7853081074286
 51
116.6887118770264
  0
ARC
  5
2FACC
330
1F
100
AcDbEntity
  8
freecads.com
100
AcDbCircle
 10
805.8062284528704
 20
-7.215223632003471
 30
0.0
 40
47.90220103892155
100
AcDbArc
 50
95.55310216926427
 51
105.7852831474919
  0
ARC
  5
2FACD
330
1F
100
AcDbEntity
  8
freecads.com
100
AcDbCircle
 10
811.7792959726493
 20
-68.65225186218594
 30
0.0
 40
109.6289049307226
100
AcDbArc
 50
90.04224868588847
 51
95.55304035369289
  0
ARC
  5
2FACE
330
1F
100
AcDbEntity
  8
freecads.com
100
AcDbCircle
 10
811.7391163212586
 20
-14.2071365382435
 30
0.0
 40
55.18377478082387
100
AcDbArc
 50
70.64090126060574
 51
90.04221444613754
  0
ARC
  5
2FACF
330
1F
100
AcDbEntity
  8
freecads.com
100
AcDbCircle
 10
811.5185168473825
 20
-14.83499835765542
 30
0.0
 40
55.84926301674393
100
AcDbArc
 50
51.41321761052028
 51
70.64090311153304
  0
ARC
  5
2FAD0
330
1F
100
AcDbEntity
  8
freecads.com
100
AcDbCircle
 10
808.3930724862428
 20
-18.75205476605333
 30
0.0
 40
60.8604238963076
100
AcDbArc
 50
33.08361765410264
 51
51.41323341709181
  0
ARC
  5
2FAD1
330
1F
100
AcDbEntity
  8
freecads.com
100
AcDbCircle
 10
795.8062942317327
 20
-26.9522189772033
 30
0.0
 40
75.88272997476749
100
AcDbArc
 50
17.54826115912585
 51
33.08366448098773
  0
ARC
  5
2FAD2
330
1F
100
AcDbEntity
  8
freecads.com
100
AcDbCircle
 10
870.9340524128482
 20
-3.194938380482199
 30
0.0
 40
2.911866481278977
100
AcDbArc
 50
197.5482349594795
 51
264.6720257012231
  0
ARC
  5
2FAD3
330
1F
100
AcDbEntity
  8
freecads.com
100
AcDbCircle
 10
889.614527044613
 20
197.1086445617402
 30
0.0
 40
204.0846416571357
100
AcDbArc
 50
264.671961404994
 51
267.8881061514403
  0
ARC
  5
2FAD4
330
1F
100
AcDbEntity
  8
freecads.com
100
AcDbCircle
 10
904.5294115276035
 20
601.5486745538801
 30
0.0
 40
608.799592751155
100
AcDbArc
 50
267.8880429626262
 51
269.836740051857
  0
ARC
  5
2FAD5
330
1F
100
AcDbEntity
  8
freecads.com
100
AcDbCircle
 10
956.3554320314715
 20
18793.36988867778
 30
0.0
 40
18800.69462936145
100
AcDbArc
 50
269.8367715177958
 51
269.99994986998
  0
LINE
  5
2FAD6
330
1F
100
AcDbEntity
  8
freecads.com
100
AcDbLine
 10
956.3389827353519
 20
-7.324740676471265
 30
0.0
 11
1043.491952905881
 21
-7.324740676471265
 31
0.0
  0
LINE
  5
2FAD7
330
1F
100
AcDbEntity
  8
freecads.com
100
AcDbLine
 10
1043.491952905881
 20
-7.324740676471265
 30
0.0
 11
1068.353836670226
 21
18.2819504240615
 31
0.0
  0
ARC
  5
2FAD8
330
1F
100
AcDbEntity
  8
freecads.com
100
AcDbCircle
 10
720.5868654198846
 20
355.9341098709702
 30
0.0
 40
484.7172857159025
100
AcDbArc
 50
315.8454592778495
 51
321.2002649345451
  0
ARC
  5
2FAD9
330
1F
100
AcDbEntity
  8
freecads.com
100
AcDbCircle
 10
968.7044093053399
 20
156.4443623161423
 30
0.0
 40
166.3488278510584
100
AcDbArc
 50
321.2002674652865
 51
333.0894657564964
  0
ARC
  5
2FADA
330
1F
100
AcDbEntity
  8
freecads.com
100
AcDbCircle
 10
1017.687127140757
 20
131.5825361617608
 30
0.0
 40
111.4178070499832
100
AcDbArc
 50
333.0895346522459
 51
348.10585955995
  0
ARC
  5
2FADB
330
1F
100
AcDbEntity
  8
freecads.com
100
AcDbCircle
 10
1018.254588539042
 20
131.4629023393354
 30
0.0
 40
110.8378719863515
100
AcDbArc
 50
348.1059159902053
 51
3.181115669218385
  0
ARC
  5
2FADC
330
1F
100
AcDbEntity
  8
freecads.com
100
AcDbCircle
 10
1012.8859974551
 20
131.164543832303
 30
0.0
 40
116.2147472894406
100
AcDbArc
 50
3.181107113501576
 51
9.11195865752254
  0
ARC
  5
2FADD
330
1F
100
AcDbEntity
  8
freecads.com
100
AcDbCircle
 10
965.6316597137765
 20
123.5855522123311
 30
0.0
 40
164.0730125039874
100
AcDbArc
 50
9.111943767688844
 51
13.69178783888872
  0
ARC
  5
2FADE
330
1F
100
AcDbEntity
  8
freecads.com
100
AcDbCircle
 10
710.1417341196928
 20
61.34264940364663
 30
0.0
 40
427.0355212958698
100
AcDbArc
 50
13.69178345838095
 51
16.23194511853993
  0
ARC
  5
2FADF
330
1F
100
AcDbEntity
  8
freecads.com
100
AcDbCircle
 10
-2916.538788573934
 20
-994.4979791634468
 30
0.0
 40
4204.284658779161
100
AcDbArc
 50
16.23193806902025
 51
16.70542971724733
  0
ARC
  5
2FAE0
330
1F
100
AcDbEntity
  8
freecads.com
100
AcDbCircle
 10
-2257.163385626759
 20
-796.6095538827357
 30
0.0
 40
3515.854741599258
100
AcDbArc
 50
16.70545763987228
 51
17.09919384933881
  0
ARC
  5
2FAE1
330
1F
100
AcDbEntity
  8
freecads.com
100
AcDbCircle
 10
-1140.734461189467
 20
-453.1695114441463
 30
0.0
 40
2347.794552196071
100
AcDbArc
 50
17.09922059335954
 51
17.6320703827222
  0
ARC
  5
2FAE2
330
1F
100
AcDbEntity
  8
freecads.com
100
AcDbCircle
 10
-1699.620290392443
 20
-630.8069723133012
 30
0.0
 40
2934.23162262726
100
AcDbArc
 50
17.63214603322545
 51
17.98990058995837
  0
ARC
  5
2FAE3
330
1F
100
AcDbEntity
  8
freecads.com
100
AcDbCircle
 10
1034.27296313444
 20
256.9560434600135
 30
0.0
 40
59.81072549776418
100
AcDbArc
 50
17.98990707867322
 51
23.86212663969024
  0
ARC
  5
2FAE4
330
1F
100
AcDbEntity
  8
freecads.com
100
AcDbCircle
 10
1040.972299194472
 20
259.9195355461052
 30
0.0
 40
52.4851955519567
100
AcDbArc
 50
23.86207532858478
 51
34.69070455638143
  0
ARC
  5
2FAE5
330
1F
100
AcDbEntity
  8
freecads.com
100
AcDbCircle
 10
1032.895501445716
 20
254.3288754337773
 30
0.0
 40
62.3081351509237
100
AcDbArc
 50
34.69067325361193
 51
44.21210452625132
  0
ARC
  5
2FAE6
330
1F
100
AcDbEntity
  8
freecads.com
100
AcDbCircle
 10
1032.116820615395
 20
253.5713475383746
 30
0.0
 40
63.39450173152793
100
AcDbArc
 50
44.2120875100974
 51
53.65298431228084
  0
ARC
  5
2FAE7
330
1F
100
AcDbEntity
  8
freecads.com
100
AcDbCircle
 10
1035.763662622411
 20
258.5272911403008
 30
0.0
 40
57.24138596749931
100
AcDbArc
 50
53.65304444379682
 51
63.84519795631183
  0
LINE
  5
2FAE8
330
1F
100
AcDbEntity
  8
freecads.com
100
AcDbLine
 10
1060.995545945129
 20
309.9075240267775
 30
0.0
 11
1050.477124555981
 21
315.0729142164855
 31
0.0
  0
LINE
  5
2FAE9
330
1F
100
AcDbEntity
  8
freecads.com
100
AcDbLine
 10
1050.477124555981
 20
315.0729142164855
 30
0.0
 11
752.2360662832351
 21
315.4675754010678
 31
0.0
  0
ARC
  5
2FAEA
330
1F
100
AcDbEntity
  8
freecads.com
100
AcDbCircle
 10
577.5372761666357
 20
-131750.8360460183
 30
0.0
 40
132066.4191681299
100
AcDbArc
 50
89.92420854364745
 51
89.99250511050567
  0
ARC
  5
2FAEB
330
1F
100
AcDbEntity
  8
freecads.com
100
AcDbCircle
 10
593.2034986530332
 20
-11980.120976502
 30
0.0
 40
12295.7030740288
100
AcDbArc
 50
89.9925002434122
 51
90.38234035135165
  0
ARC
  5
2FAEC
330
1F
100
AcDbEntity
  8
freecads.com
100
AcDbCircle
 10
619.5898333768699
 20
-15933.81733624052
 30
0.0
 40
16249.48748186706
100
AcDbArc
 50
90.38234930658603
 51
90.5801342884035
  0
ARC
  5
2FAED
330
1F
100
AcDbEntity
  8
freecads.com
100
AcDbCircle
 10
455.3045440877894
 20
290.9289453570309
 30
0.0
 40
23.90947803340683
100
AcDbArc
 50
90.58011747220275
 51
109.7472670091678
  0
ARC
  5
2FAEE
330
1F
100
AcDbEntity
  8
freecads.com
100
AcDbCircle
 10
556.5741996938294
 20
220.9640793502767
 30
0.0
 40
39.89357315223607
100
AcDbArc
 50
48.88044524375546
 51
62.75449016194622
  0
ARC
  5
2FAEF
330
1F
100
AcDbEntity
  8
freecads.com
100
AcDbCircle
 10
541.6647085784632
 20
203.8846853377326
 30
0.0
 40
62.56511092876293
100
AcDbArc
 50
38.97702182197613
 51
48.8805018520378
  0
ARC
  5
2FAF0
330
1F
100
AcDbEntity
  8
freecads.com
100
AcDbCircle
 10
542.4217984973501
 20
204.4971717759472
 30
0.0
 40
61.59129124460558
100
AcDbArc
 50
29.00978511512814
 51
38.97708714139723
  0
ARC
  5
2FAF1
330
1F
100
AcDbEntity
  8
freecads.com
100
AcDbCircle
 10
564.7315319945472
 20
216.868610799007
 30
0.0
 40
36.08096564463953
100
AcDbArc
 50
14.13339370058604
 51
29.00982603087755
  0
ARC
  5
2FAF2
330
1F
100
AcDbEntity
  8
freecads.com
100
AcDbCircle
 10
569.7075554685424
 20
218.1215645689299
 30
0.0
 40
30.94962052245977
100
AcDbArc
 50
1.540132214258027
 51
14.13343058002129
  0
ARC
  5
2FAF3
330
1F
100
AcDbEntity
  8
freecads.com
100
AcDbCircle
 10
-2318.381590745049
 20
140.4671701471525
 30
0.0
 40
2920.082556447992
100
AcDbArc
 50
1.048818554088672
 51
1.540186406358242
  0
ARC
  5
2FAF4
330
1F
100
AcDbEntity
  8
freecads.com
100
AcDbCircle
 10
-1948.544143909415
 20
147.2383617489031
 30
0.0
 40
2550.183129417631
100
AcDbArc
 50
0.3076331351550827
 51
1.048808755104197
  0
ARC
  5
2FAF5
330
1F
100
AcDbEntity
  8
freecads.com
100
AcDbCircle
 10
-7702.900785703068
 20
116.3498472215506
 30
0.0
 40
8304.622673045157
100
AcDbArc
 50
0.0000134306765436
 51
0.3075769903910883
  0
LINE
  5
2FAF6
330
1F
100
AcDbEntity
  8
freecads.com
100
AcDbLine
 10
601.7218873418595
 20
116.3517938957957
 30
0.0
 11
601.7218873418595
 21
14.97365620373602
 31
0.0
  0
LINE
  5
2FAF7
330
1F
100
AcDbEntity
  8
freecads.com
100
AcDbLine
 10
601.7218873418595
 20
14.97365620373602
 30
0.0
 11
590.5726889017522
 21
14.97365620373602
 31
0.0
  0
LINE
  5
2FAF8
330
1F
100
AcDbEntity
  8
freecads.com
100
AcDbLine
 10
590.5726889017522
 20
14.97365620373602
 30
0.0
 11
579.4234904616449
 21
14.97365620373602
 31
0.0
  0
LINE
  5
2FAF9
330
1F
100
AcDbEntity
  8
freecads.com
100
AcDbLine
 10
579.4234904616449
 20
14.97365620373602
 30
0.0
 11
579.4165445110255
 21
117.6391918396766
 31
0.0
  0
ARC
  5
2FAFA
330
1F
100
AcDbEntity
  8
freecads.com
100
AcDbCircle
 10
-27652.36698632516
 20
115.7061803121978
 30
0.0
 40
28231.7835970122
100
AcDbArc
 50
0.0039230040299688
 51
0.1368491975157207
  0
ARC
  5
2FAFB
330
1F
100
AcDbEntity
  8
freecads.com
100
AcDbCircle
 10
-175.2295038195308
 20
181.3337336905388
 30
0.0
 40
754.5677408114384
100
AcDbArc
 50
0.1369148513536134
 51
1.94879883282223
  0
ARC
  5
2FAFC
330
1F
100
AcDbEntity
  8
freecads.com
100
AcDbCircle
 10
416.3221455756273
 20
201.4617097072551
 30
0.0
 40
162.6737559455199
100
AcDbArc
 50
1.948871638930515
 51
6.485188139350957
  0
ARC
  5
2FAFD
330
1F
100
AcDbEntity
  8
freecads.com
100
AcDbCircle
 10
562.0483799870116
 20
218.0269349989394
 30
0.0
 40
16.00902915450201
100
AcDbArc
 50
6.485264347962374
 51
31.37093500456521
  0
ARC
  5
2FAFE
330
1F
100
AcDbEntity
  8
freecads.com
100
AcDbCircle
 10
547.9359824076372
 20
209.4224714856391
 30
0.0
 40
32.537687835397
100
AcDbArc
 50
31.37099889044182
 51
48.37513873532086
  0
ARC
  5
2FAFF
330
1F
100
AcDbEntity
  8
freecads.com
100
AcDbCircle
 10
557.5465261523776
 20
220.2376363689909
 30
0.0
 40
18.0694349165504
100
AcDbArc
 50
48.37512880390971
 51
74.78396066216189
  0
ARC
  5
2FB00
330
1F
100
AcDbEntity
  8
freecads.com
100
AcDbCircle
 10
549.0811337290495
 20
189.1145169244628
 30
0.0
 40
50.32329410948568
100
AcDbArc
 50
74.78388201591616
 51
88.14842310418853
  0
ARC
  5
2FB01
330
1F
100
AcDbEntity
  8
freecads.com
100
AcDbCircle
 10
526.1182240411425
 20
-521.1796918883919
 30
0.0
 40
760.9885868418373
100
AcDbArc
 50
88.1483502757085
 51
89.98819282315322
  0
ARC
  5
2FB02
330
1F
100
AcDbEntity
  8
freecads.com
100
AcDbCircle
 10
525.8366124637676
 20
-1889.918388565951
 30
0.0
 40
2129.727312489504
100
AcDbArc
 50
89.98820493023075
 51
90.54970244598285
  0
ARC
  5
2FB03
330
1F
100
AcDbEntity
  8
freecads.com
100
AcDbCircle
 10
506.2923922971666
 20
147.1307342692526
 30
0.0
 40
92.5844344896547
100
AcDbArc
 50
90.54974472848412
 51
96.01701657751602
  0
ARC
  5
2FB04
330
1F
100
AcDbEntity
  8
freecads.com
100
AcDbCircle
 10
499.1536572472094
 20
214.8578156013318
 30
0.0
 40
24.48216518917449
100
AcDbArc
 50
96.01702938966873
 51
109.1106639794065
  0
ARC
  5
2FB05
330
1F
100
AcDbEntity
  8
freecads.com
100
AcDbCircle
 10
498.0487722617826
 20
218.0465626318619
 30
0.0
 40
21.10742394644031
100
AcDbArc
 50
109.1106187853554
 51
123.7446661420914
  0
ARC
  5
2FB06
330
1F
100
AcDbEntity
  8
freecads.com
100
AcDbCircle
 10
499.4814802775498
 20
215.9019410983528
 30
0.0
 40
23.68658151828228
100
AcDbArc
 50
123.7446791942212
 51
151.6113332805685
  0
ARC
  5
2FB07
330
1F
100
AcDbEntity
  8
freecads.com
100
AcDbCircle
 10
506.7978497982975
 20
211.9478761652644
 30
0.0
 40
32.00306469683507
100
AcDbArc
 50
151.6113509428751
 51
173.8526990802176
  0
ARC
  5
2FB08
330
1F
100
AcDbEntity
  8
freecads.com
100
AcDbCircle
 10
696.7524066569157
 20
191.488661468531
 30
0.0
 40
223.0562330488647
100
AcDbArc
 50
173.8526210756486
 51
179.71522125309
  0
ARC
  5
2FB09
330
1F
100
AcDbEntity
  8
freecads.com
100
AcDbCircle
 10
15841.69514745114
 20
116.1899457547551
 30
0.0
 40
15368.18616047161
100
AcDbArc
 50
179.7151363201157
 51
179.9984065098628
  0
LINE
  5
2FB0A
330
1F
100
AcDbEntity
  8
freecads.com
100
AcDbLine
 10
473.5089929230733
 20
116.6173603698407
 30
0.0
 11
473.5061052806839
 21
14.78819300408213
 31
0.0
  0
LINE
  5
2FB0B
330
1F
100
AcDbEntity
  8
freecads.com
100
AcDbLine
 10
473.5061052806839
 20
14.78819300408213
 30
0.0
 11
462.8214567755775
 21
15.34547453890991
 31
0.0
  0
LINE
  5
2FB0C
330
1F
100
AcDbEntity
  8
freecads.com
100
AcDbLine
 10
462.8214567755775
 20
15.34547453890991
 30
0.0
 11
452.1368082704856
 21
15.90275607374497
 31
0.0
  0
LINE
  5
2FB0D
330
1F
100
AcDbEntity
  8
freecads.com
100
AcDbLine
 10
452.1368082704856
 20
15.90275607374497
 30
0.0
 11
451.6561551765325
 21
116.9162740964239
 31
0.0
  0
ARC
  5
2FB0E
330
1F
100
AcDbEntity
  8
freecads.com
100
AcDbCircle
 10
8437.991492496875
 20
154.9174294558906
 30
0.0
 40
7986.425746724275
100
AcDbArc
 50
179.9597920806569
 51
180.2726268426069
  0
ARC
  5
2FB0F
330
1F
100
AcDbEntity
  8
freecads.com
100
AcDbCircle
 10
3101.677152254924
 20
158.6630730322067
 30
0.0
 40
2650.110091919397
100
AcDbArc
 50
179.2477403241736
 51
179.9598099807261
  0
ARC
  5
2FB10
330
1F
100
AcDbEntity
  8
freecads.com
100
AcDbCircle
 10
4037.693914383416
 20
146.3762885110991
 30
0.0
 40
3586.207492861983
100
AcDbArc
 50
178.8396178268848
 51
179.2477925285098
  0
ARC
  5
2FB11
330
1F
100
AcDbEntity
  8
freecads.com
100
AcDbCircle
 10
477.171957472702
 20
218.4955942870875
 30
0.0
 40
24.95521312823398
100
AcDbArc
 50
164.9292934183548
 51
178.8396447237642
  0
ARC
  5
2FB12
330
1F
100
AcDbEntity
  8
freecads.com
100
AcDbCircle
 10
498.0717313652556
 20
212.8678881828673
 30
0.0
 40
46.59941846719508
100
AcDbArc
 50
152.4034296965206
 51
164.9293218841764
  0
ARC
  5
2FB13
330
1F
100
AcDbEntity
  8
freecads.com
100
AcDbCircle
 10
499.8101818334243
 20
211.9592473823868
 30
0.0
 40
48.56100918170367
100
AcDbArc
 50
140.2590067310379
 51
152.4034993795644
  0
ARC
  5
2FB14
330
1F
100
AcDbEntity
  8
freecads.com
100
AcDbCircle
 10
501.3417388714723
 20
210.6859702731017
 30
0.0
 40
50.5527173812989
100
AcDbArc
 50
128.3685226184747
 51
140.2590923103713
  0
ARC
  5
2FB15
330
1F
100
AcDbEntity
  8
freecads.com
100
AcDbCircle
 10
504.4995626156295
 20
206.6973850492068
 30
0.0
 40
55.64002146934262
100
AcDbArc
 50
117.3030626205841
 51
128.3685842312691
  0
LINE
  5
2FB16
330
1F
100
AcDbEntity
  8
freecads.com
100
AcDbLine
 10
478.9776487431508
 20
256.1387028046374
 30
0.0
 11
490.9528912956874
 21
262.3203963199558
 31
0.0
  0
LINE
  5
2FB17
330
1F
100
AcDbEntity
  8
freecads.com
100
AcDbLine
 10
490.9528912956874
 20
262.3203963199558
 30
0.0
 11
528.2795974980534
 21
261.7527590379759
 31
0.0
  0
ARC
  5
2FB18
330
1F
100
AcDbEntity
  8
freecads.com
100
AcDbCircle
 10
489.7428414204177
 20
-2272.415547783246
 30
0.0
 40
2534.461301512832
100
AcDbArc
 50
88.59844916253457
 51
89.12877795112011
  0
ARC
  5
2FB19
330
1F
100
AcDbEntity
  8
freecads.com
100
AcDbCircle
 10
549.0050219670073
 20
149.7511661433382
 30
0.0
 40
111.569724058981
100
AcDbArc
 50
83.47985958295904
 51
88.5985008100334
  0
ARC
  5
2FB1A
330
1F
100
AcDbEntity
  8
freecads.com
100
AcDbCircle
 10
557.8390560299438
 20
227.0446365435782
 30
0.0
 40
33.77306137776569
100
AcDbArc
 50
72.09316124575716
 51
83.47991310279544
  0
ARC
  5
2FB1B
330
1F
100
AcDbEntity
  8
freecads.com
100
AcDbCircle
 10
554.6951528629569
 20
217.3149167868978
 30
0.0
 40
43.99810776724215
100
AcDbArc
 50
62.7545290243919
 51
72.09315284067509
  0
LINE
  5
2FB1C
330
1F
100
AcDbEntity
  8
freecads.com
100
AcDbLine
 10
744.8032673231636
 20
200.7936302054368
 30
0.0
 11
744.8032673231636
 21
161.7714356650831
 31
0.0
  0
LINE
  5
2FB1D
330
1F
100
AcDbEntity
  8
freecads.com
100
AcDbLine
 10
744.8032673231636
 20
161.7714356650831
 30
0.0
 11
730.4022193380359
 21
161.781798845026
 31
0.0
  0
ARC
  5
2FB1E
330
1F
100
AcDbEntity
  8
freecads.com
100
AcDbCircle
 10
730.5132400095307
 20
316.2357945997355
 30
0.0
 40
154.4540356552233
100
AcDbArc
 50
265.4763368039696
 51
269.9588161197912
  0
ARC
  5
2FB1F
330
1F
100
AcDbEntity
  8
freecads.com
100
AcDbCircle
 10
722.1480786992168
 20
210.5051070629706
 30
0.0
 40
48.39294848966485
100
AcDbArc
 50
254.8329824786986
 51
265.4763804624265
  0
ARC
  5
2FB20
330
1F
100
AcDbEntity
  8
freecads.com
100
AcDbCircle
 10
716.6372110337387
 20
190.1754785471057
 30
0.0
 40
27.32962828558765
100
AcDbArc
 50
240.1498510531214
 51
254.8329714784154
  0
ARC
  5
2FB21
330
1F
100
AcDbEntity
  8
freecads.com
100
AcDbCircle
 10
710.9801673856699
 20
180.3177176588069
 30
0.0
 40
15.96399620606972
100
AcDbArc
 50
218.1886521559122
 51
240.1498102830528
  0
ARC
  5
2FB22
330
1F
100
AcDbEntity
  8
freecads.com
100
AcDbCircle
 10
709.0500288750326
 20
178.799431779953
 30
0.0
 40
13.50826277607103
100
AcDbArc
 50
199.9759708853142
 51
218.1885336460052
  0
ARC
  5
2FB23
330
1F
100
AcDbEntity
  8
freecads.com
100
AcDbCircle
 10
715.999283171287
 20
181.3254212411994
 30
0.0
 40
20.90236569878308
100
AcDbArc
 50
186.8441048085133
 51
199.9758878247929
  0
ARC
  5
2FB24
330
1F
100
AcDbEntity
  8
freecads.com
100
AcDbCircle
 10
766.1796132099542
 20
187.3481503013245
 30
0.0
 40
71.44283253594598
100
AcDbArc
 50
180.8140101687688
 51
186.8440304440883
  0
ARC
  5
2FB25
330
1F
100
AcDbEntity
  8
freecads.com
100
AcDbCircle
 10
1805.532480424574
 20
202.1156957334388
 30
0.0
 40
1110.900606082015
100
AcDbArc
 50
179.9999707255274
 51
180.8140257373291
  0
LINE
  5
2FB26
330
1F
100
AcDbEntity
  8
freecads.com
100
AcDbLine
 10
694.6318743427099
 20
202.116263332784
 30
0.0
 11
694.6318743427099
 21
228.9525029028955
 31
0.0
  0
LINE
  5
2FB27
330
1F
100
AcDbEntity
  8
freecads.com
100
AcDbLine
 10
694.6318743427099
 20
228.9525029028955
 30
0.0
 11
700.0635352641538
 21
234.3841638243466
 31
0.0
  0
ARC
  5
2FB28
330
1F
100
AcDbEntity
  8
freecads.com
100
AcDbCircle
 10
719.6925640249381
 20
214.7551555787941
 30
0.0
 40
27.7596241832587
100
AcDbArc
 50
124.69168414143
 51
135.0000299412311
  0
ARC
  5
2FB29
330
1F
100
AcDbEntity
  8
freecads.com
100
AcDbCircle
 10
709.4501583460941
 20
229.5516825083032
 30
0.0
 40
9.763955724844237
100
AcDbArc
 50
102.2172866558376
 51
124.6917729188302
  0
ARC
  5
2FB2A
330
1F
100
AcDbEntity
  8
freecads.com
100
AcDbCircle
 10
713.0554882550776
 20
212.9008691506315
 30
0.0
 40
26.80062174915528
100
AcDbArc
 50
91.08325014122403
 51
102.2173655362681
  0
ARC
  5
2FB2B
330
1F
100
AcDbEntity
  8
freecads.com
100
AcDbCircle
 10
725.1490540806543
 20
-426.6353101801214
 30
0.0
 40
666.4511349259417
100
AcDbArc
 50
89.99998472503898
 51
91.08332525546726
  0
LINE
  5
2FB2C
330
1F
100
AcDbEntity
  8
freecads.com
100
AcDbLine
 10
725.1492317543879
 20
239.8158247457977
 30
0.0
 11
744.8032673231636
 21
239.8158247457977
 31
0.0
  0
LINE
  5
2FB2D
330
1F
100
AcDbEntity
  8
freecads.com
100
AcDbLine
 10
744.8032673231636
 20
239.8158247457977
 30
0.0
 11
744.8032673231636
 21
200.7936302054368
 31
0.0
  0
ARC
  5
2FB2E
330
1F
100
AcDbEntity
  8
freecads.com
100
AcDbCircle
 10
804.7343660896139
 20
224.2365514451085
 30
0.0
 40
14.68065673106865
100
AcDbArc
 50
39.98962552622071
 51
65.50452617914864
  0
ARC
  5
2FB2F
330
1F
100
AcDbEntity
  8
freecads.com
100
AcDbCircle
 10
803.9971084224371
 20
223.6181482772663
 30
0.0
 40
15.64293078028995
100
AcDbArc
 50
15.6605851456172
 51
39.98961986532201
  0
ARC
  5
2FB30
330
1F
100
AcDbEntity
  8
freecads.com
100
AcDbCircle
 10
778.15508649226
 20
216.3734220311017
 30
0.0
 40
42.48126448081912
100
AcDbArc
 50
2.658835262579407
 51
15.66063653341319
  0
ARC
  5
2FB31
330
1F
100
AcDbEntity
  8
freecads.com
100
AcDbCircle
 10
456.9471377614962
 20
201.4567093042788
 30
0.0
 40
364.0353884574681
100
AcDbArc
 50
359.9832770876205
 51
2.658868429128348
  0
ARC
  5
2FB32
330
1F
100
AcDbEntity
  8
freecads.com
100
AcDbCircle
 10
157.7992540402764
 20
201.5436803108387
 30
0.0
 40
663.1832848210907
100
AcDbArc
 50
358.8403798353293
 51
359.9833065701182
  0
ARC
  5
2FB33
330
1F
100
AcDbEntity
  8
freecads.com
100
AcDbCircle
 10
748.1268599287567
 20
189.5942148820468
 30
0.0
 40
72.73475023233901
100
AcDbArc
 50
353.0353313450433
 51
358.8404438258093
  0
ARC
  5
2FB34
330
1F
100
AcDbEntity
  8
freecads.com
100
AcDbCircle
 10
792.7005209276239
 20
184.1491582189337
 30
0.0
 40
27.82974052399582
100
AcDbArc
 50
342.5735147636519
 51
353.035326884401
  0
ARC
  5
2FB35
330
1F
100
AcDbEntity
  8
freecads.com
100
AcDbCircle
 10
801.1592452604226
 20
181.4940508207946
 30
0.0
 40
18.96409826673307
100
AcDbArc
 50
328.6277975376029
 51
342.5735411887567
  0
ARC
  5
2FB36
330
1F
100
AcDbEntity
  8
freecads.com
100
AcDbCircle
 10
803.9473071481905
 20
179.7940531297427
 30
0.0
 40
15.69863026972692
100
AcDbArc
 50
304.4665095490482
 51
328.6278397157068
  0
ARC
  5
2FB37
330
1F
100
AcDbEntity
  8
freecads.com
100
AcDbCircle
 10
800.148231055703
 20
185.3286250961755
 30
0.0
 40
22.41163749507961
100
AcDbArc
 50
285.9625369370848
 51
304.4665757565659
  0
ARC
  5
2FB38
330
1F
100
AcDbEntity
  8
freecads.com
100
AcDbCircle
 10
794.9876915711346
 20
203.3700582339297
 30
0.0
 40
41.17661757595953
100
AcDbArc
 50
272.9657692337962
 51
285.9625446794566
  0
ARC
  5
2FB39
330
1F
100
AcDbEntity
  8
freecads.com
100
AcDbCircle
 10
789.6833112912125
 20
305.755541148952
 30
0.0
 40
143.6994129040903
100
AcDbArc
 50
267.8399949126518
 51
272.965737268263
  0
LINE
  5
2FB3A
330
1F
100
AcDbEntity
  8
freecads.com
100
AcDbLine
 10
784.2672414189136
 20
162.1582310901649
 30
0.0
 11
769.8889638133977
 21
162.7005355350848
 31
0.0
  0
LINE
  5
2FB3B
330
1F
100
AcDbEntity
  8
freecads.com
100
AcDbLine
 10
769.8889638133977
 20
162.7005355350848
 30
0.0
 11
769.3867147220725
 21
201.2581801404449
 31
0.0
  0
LINE
  5
2FB3C
330
1F
100
AcDbEntity
  8
freecads.com
100
AcDbLine
 10
769.3867147220725
 20
201.2581801404449
 30
0.0
 11
768.8844637725404
 21
239.8158247457977
 31
0.0
  0
LINE
  5
2FB3D
330
1F
100
AcDbEntity
  8
freecads.com
100
AcDbLine
 10
768.8844637725404
 20
239.8158247457977
 30
0.0
 11
787.4167283148698
 21
239.8158247457977
 31
0.0
  0
ARC
  5
2FB3E
330
1F
100
AcDbEntity
  8
freecads.com
100
AcDbCircle
 10
787.4167465463386
 20
61.7308904088495
 30
0.0
 40
178.0849343369488
100
AcDbArc
 50
87.57029748049564
 51
90.0000058659419
  0
ARC
  5
2FB3F
330
1F
100
AcDbEntity
  8
freecads.com
100
AcDbCircle
 10
789.2385479175417
 20
104.6672147157442
 30
0.0
 40
135.1099776154145
100
AcDbArc
 50
84.58166363861163
 51
87.57027126675202
  0
ARC
  5
2FB40
330
1F
100
AcDbEntity
  8
freecads.com
100
AcDbCircle
 10
790.7914107104869
 20
121.0407155593784
 30
0.0
 40
118.6630048637032
100
AcDbArc
 50
81.74168733222915
 51
84.58157917072531
  0
ARC
  5
2FB41
330
1F
100
AcDbEntity
  8
freecads.com
100
AcDbCircle
 10
806.2532258406999
 20
227.5700814513184
 30
0.0
 40
11.01741264340864
100
AcDbArc
 50
65.50452912254676
 51
81.74174539474844
  0
LINE
  5
2FB42
330
1F
100
AcDbEntity
  8
freecads.com
100
AcDbLine
 10
928.3381908061846
 20
201.2581801404449
 30
0.0
 11
927.8359417148449
 21
162.7005355350848
 31
0.0
  0
LINE
  5
2FB43
330
1F
100
AcDbEntity
  8
freecads.com
100
AcDbLine
 10
927.8359417148449
 20
162.7005355350848
 30
0.0
 11
915.7576434047358
 21
162.1151803185858
 31
0.0
  0
ARC
  5
2FB44
330
1F
100
AcDbEntity
  8
freecads.com
100
AcDbCircle
 10
907.8180527882057
 20
325.9417920055639
 30
0.0
 40
164.0188885341998
100
AcDbArc
 50
268.4433016433571
 51
272.7745760273508
  0
ARC
  5
2FB45
330
1F
100
AcDbEntity
  8
freecads.com
100
AcDbCircle
 10
904.749598205365
 20
213.032491598191
 30
0.0
 40
51.06790123435624
100
AcDbArc
 50
258.1111791405252
 51
268.4433116859909
  0
ARC
  5
2FB46
330
1F
100
AcDbEntity
  8
freecads.com
100
AcDbCircle
 10
900.360592410564
 20
192.1851004778655
 30
0.0
 40
29.76350994077289
100
AcDbArc
 50
244.0698020192828
 51
258.1112158353678
  0
ARC
  5
2FB47
330
1F
100
AcDbEntity
  8
freecads.com
100
AcDbCircle
 10
895.9959301044426
 20
183.2084522198056
 30
0.0
 40
19.78200248973098
100
AcDbArc
 50
225.0000303312257
 51
244.0697705137252
  0
LINE
  5
2FB48
330
1F
100
AcDbEntity
  8
freecads.com
100
AcDbLine
 10
882.0079494035006
 20
169.2204567088774
 30
0.0
 11
876.7354488643748
 21
174.4929572479959
 31
0.0
  0
LINE
  5
2FB49
330
1F
100
AcDbEntity
  8
freecads.com
100
AcDbLine
 10
876.7354488643748
 20
174.4929572479959
 30
0.0
 11
876.7354488643748
 21
199.8437519459403
 31
0.0
  0
ARC
  5
2FB4A
330
1F
100
AcDbEntity
  8
freecads.com
100
AcDbCircle
 10
1213.084645996088
 20
199.843574326951
 30
0.0
 40
336.3491971317567
100
AcDbArc
 50
175.9007793107759
 51
179.9999697433542
  0
ARC
  5
2FB4B
330
1F
100
AcDbEntity
  8
freecads.com
100
AcDbCircle
 10
895.4277701504169
 20
222.6091568292759
 30
0.0
 40
17.87759318769154
100
AcDbArc
 50
141.2117416636848
 51
175.900770787697
  0
ARC
  5
2FB4C
330
1F
100
AcDbEntity
  8
freecads.com
100
AcDbCircle
 10
891.5639539479734
 20
225.71445371554
 30
0.0
 40
12.92058356514689
100
AcDbArc
 50
97.42301254491067
 51
141.2117844135172
  0
ARC
  5
2FB4D
330
1F
100
AcDbEntity
  8
freecads.com
100
AcDbCircle
 10
909.1344707563392
 20
90.85404323287367
 30
0.0
 40
148.9207798020142
100
AcDbArc
 50
90.11826039300389
 51
97.42306027222362
  0
LINE
  5
2FB4E
330
1F
100
AcDbEntity
  8
freecads.com
100
AcDbLine
 10
908.8270935360041
 20
239.7745058163782
 30
0.0
 11
928.8404417557019
 21
239.8158247457977
 31
0.0
  0
LINE
  5
2FB4F
330
1F
100
AcDbEntity
  8
freecads.com
100
AcDbLine
 10
928.8404417557019
 20
239.8158247457977
 30
0.0
 11
928.3381908061846
 21
201.2581801404449
 31
0.0
  0
LINE
  5
2FB50
330
1F
100
AcDbEntity
  8
freecads.com
100
AcDbLine
 10
997.6613702640888
 20
234.3841638243466
 30
0.0
 11
1003.093031185533
 21
228.9525029028955
 31
0.0
  0
LINE
  5
2FB51
330
1F
100
AcDbEntity
  8
freecads.com
100
AcDbLine
 10
1003.093031185533
 20
228.9525029028955
 30
0.0
 11
1003.093031185533
 21
201.7227300754457
 31
0.0
  0
LINE
  5
2FB52
330
1F
100
AcDbEntity
  8
freecads.com
100
AcDbLine
 10
1003.093031185533
 20
201.7227300754457
 30
0.0
 11
1003.093031185533
 21
174.4929572479959
 31
0.0
  0
LINE
  5
2FB53
330
1F
100
AcDbEntity
  8
freecads.com
100
AcDbLine
 10
1003.093031185533
 20
174.4929572479959
 30
0.0
 11
997.8205306464214
 21
169.2204567088774
 31
0.0
  0
ARC
  5
2FB54
330
1F
100
AcDbEntity
  8
freecads.com
100
AcDbCircle
 10
983.8325499454795
 20
183.2084522198056
 30
0.0
 40
19.78200248973253
100
AcDbArc
 50
295.9302294862748
 51
314.9999696687743
  0
ARC
  5
2FB55
330
1F
100
AcDbEntity
  8
freecads.com
100
AcDbCircle
 10
979.4678876393581
 20
192.1851004778655
 30
0.0
 40
29.76350994077254
100
AcDbArc
 50
281.8887841646321
 51
295.9301979807172
  0
ARC
  5
2FB56
330
1F
100
AcDbEntity
  8
freecads.com
100
AcDbCircle
 10
975.078881844557
 20
213.032491598191
 30
0.0
 40
51.06790123435672
100
AcDbArc
 50
271.5566883140059
 51
281.8888208594747
  0
ARC
  5
2FB57
330
1F
100
AcDbEntity
  8
freecads.com
100
AcDbCircle
 10
972.0104272617161
 20
325.9417920055639
 30
0.0
 40
164.0188885341995
100
AcDbArc
 50
267.2254239726492
 51
271.5566983566429
  0
LINE
  5
2FB58
330
1F
100
AcDbEntity
  8
freecads.com
100
AcDbLine
 10
964.0708366451862
 20
162.1151803185858
 30
0.0
 11
951.9925383350772
 21
162.7005355350848
 31
0.0
  0
LINE
  5
2FB59
330
1F
100
AcDbEntity
  8
freecads.com
100
AcDbLine
 10
951.9925383350772
 20
162.7005355350848
 30
0.0
 11
951.4902892437374
 21
201.2581801404449
 31
0.0
  0
LINE
  5
2FB5A
330
1F
100
AcDbEntity
  8
freecads.com
100
AcDbLine
 10
951.4902892437374
 20
201.2581801404449
 30
0.0
 11
950.9880382942055
 21
239.8158247457977
 31
0.0
  0
LINE
  5
2FB5B
330
1F
100
AcDbEntity
  8
freecads.com
100
AcDbLine
 10
950.9880382942055
 20
239.8158247457977
 30
0.0
 11
971.6088747475286
 21
239.8158247457977
 31
0.0
  0
ARC
  5
2FB5C
330
1F
100
AcDbEntity
  8
freecads.com
100
AcDbCircle
 10
971.6095066114492
 20
-533.6535312870764
 30
0.0
 40
773.469356033132
100
AcDbArc
 50
89.01319039931555
 51
90.0000468062225
  0
ARC
  5
2FB5D
330
1F
100
AcDbEntity
  8
freecads.com
100
AcDbCircle
 10
984.4404641454302
 20
211.2594108494231
 30
0.0
 40
28.4459169161464
100
AcDbArc
 50
78.22319922041157
 51
89.01318259621467
  0
ARC
  5
2FB5E
330
1F
100
AcDbEntity
  8
freecads.com
100
AcDbCircle
 10
988.2383902395803
 20
229.4759395151122
 30
0.0
 40
9.837688648941414
100
AcDbArc
 50
55.5947818071444
 51
78.22315455728854
  0
ARC
  5
2FB5F
330
1F
100
AcDbEntity
  8
freecads.com
100
AcDbCircle
 10
978.4273347387923
 20
215.1501084665797
 30
0.0
 40
27.20104792272333
100
AcDbArc
 50
45.00002953929988
 51
55.59471624542244
  0
ARC
  5
2FB60
330
1F
100
AcDbEntity
  8
freecads.com
100
AcDbCircle
 10
541.6432052742591
 20
202.6395611645712
 30
0.0
 40
5.957496283091148
100
AcDbArc
 50
22.38561472611527
 51
53.8661038472911
  0
ARC
  5
2FB61
330
1F
100
AcDbEntity
  8
freecads.com
100
AcDbCircle
 10
531.3630832614279
 20
198.405395372014
 30
0.0
 40
17.07545781196371
100
AcDbArc
 50
8.030129702684341
 51
22.38569061200681
  0
ARC
  5
2FB62
330
1F
100
AcDbEntity
  8
freecads.com
100
AcDbCircle
 10
479.3671444380296
 20
191.0698659836125
 30
0.0
 40
69.58629141354617
100
AcDbArc
 50
2.014841946998366
 51
8.030204629822531
  0
ARC
  5
2FB63
330
1F
100
AcDbEntity
  8
freecads.com
100
AcDbCircle
 10
-675.4954049019151
 20
150.4408957225532
 30
0.0
 40
1225.163299272561
100
AcDbArc
 50
1.270493190493771
 51
2.014877340247907
  0
ARC
  5
2FB64
330
1F
100
AcDbEntity
  8
freecads.com
100
AcDbCircle
 10
-122.203021079783
 20
162.7113402155446
 30
0.0
 40
671.734870473227
100
AcDbArc
 50
359.2074793391772
 51
1.27053004188749
  0
ARC
  5
2FB65
330
1F
100
AcDbEntity
  8
freecads.com
100
AcDbCircle
 10
534.8200870710269
 20
153.6227402367076
 30
0.0
 40
14.64890403222554
100
AcDbArc
 50
326.8830326969131
 51
359.2075354301345
  0
ARC
  5
2FB66
330
1F
100
AcDbEntity
  8
freecads.com
100
AcDbCircle
 10
540.6195004196042
 20
149.8397010535263
 30
0.0
 40
7.724701504190607
100
AcDbArc
 50
274.7784356547427
 51
326.8830417924418
  0
ARC
  5
2FB67
330
1F
100
AcDbEntity
  8
freecads.com
100
AcDbCircle
 10
529.9657960411849
 20
277.2875523921248
 30
0.0
 40
135.6170633864014
100
AcDbArc
 50
268.3091326224054
 51
274.7783991934555
  0
ARC
  5
2FB68
330
1F
100
AcDbEntity
  8
freecads.com
100
AcDbCircle
 10
529.7938812866476
 20
271.4661718451607
 30
0.0
 40
129.7931449331217
100
AcDbArc
 50
261.8222634587354
 51
268.3091630338209
  0
ARC
  5
2FB69
330
1F
100
AcDbEntity
  8
freecads.com
100
AcDbCircle
 10
512.4408883260174
 20
150.7124506070831
 30
0.0
 40
7.798933769099595
100
AcDbArc
 50
211.4859563574457
 51
261.8223283689574
  0
ARC
  5
2FB6A
330
1F
100
AcDbEntity
  8
freecads.com
100
AcDbCircle
 10
518.6787668840833
 20
154.5329385641016
 30
0.0
 40
15.11379925895907
100
AcDbArc
 50
180.7927590261352
 51
211.4860011542233
  0
ARC
  5
2FB6B
330
1F
100
AcDbEntity
  8
freecads.com
100
AcDbCircle
 10
1212.029053137826
 20
164.1271664382584
 30
0.0
 40
708.5304623531181
100
AcDbArc
 50
178.8633316815888
 51
180.7927787673704
  0
ARC
  5
2FB6C
330
1F
100
AcDbEntity
  8
freecads.com
100
AcDbCircle
 10
1671.781851458784
 20
155.0047607825108
 30
0.0
 40
1168.373755061431
100
AcDbArc
 50
178.0996789579402
 51
178.863314281276
  0
ARC
  5
2FB6D
330
1F
100
AcDbEntity
  8
freecads.com
100
AcDbCircle
 10
570.8212582764526
 20
191.5334782649879
 30
0.0
 40
66.80733630077199
100
AcDbArc
 50
171.9573672672908
 51
178.0996080922309
  0
ARC
  5
2FB6E
330
1F
100
AcDbEntity
  8
freecads.com
100
AcDbCircle
 10
520.9623133806588
 20
198.5785099713539
 30
0.0
 40
16.45312239703254
100
AcDbArc
 50
157.3074952767292
 51
171.9572918115794
  0
ARC
  5
2FB6F
330
1F
100
AcDbEntity
  8
freecads.com
100
AcDbCircle
 10
511.3038834297903
 20
202.6172270322859
 30
0.0
 40
5.984287475519138
100
AcDbArc
 50
126.1539911344416
 51
157.3074315893775
  0
ARC
  5
2FB70
330
1F
100
AcDbEntity
  8
freecads.com
100
AcDbCircle
 10
514.60530330082
 20
198.0988129247853
 30
0.0
 40
11.58030741933796
100
AcDbArc
 50
94.68410867248442
 51
126.154028080169
  0
ARC
  5
2FB71
330
1F
100
AcDbEntity
  8
freecads.com
100
AcDbCircle
 10
526.4719733309747
 20
53.27035999186772
 30
0.0
 40
156.8941011092281
100
AcDbArc
 50
90.00302279351672
 51
94.68412445538758
  0
ARC
  5
2FB72
330
1F
100
AcDbEntity
  8
freecads.com
100
AcDbCircle
 10
526.4719462084748
 20
53.30058127776282
 30
0.0
 40
156.8638798219476
100
AcDbArc
 50
85.32099545742436
 51
90.00301346912452
  0
ARC
  5
2FB73
330
1F
100
AcDbEntity
  8
freecads.com
100
AcDbCircle
 10
538.3225285548677
 20
198.0914620586845
 30
0.0
 40
11.58884597490871
100
AcDbArc
 50
53.86601353151938
 51
85.32109013451558
  0
ARC
  5
2FB74
330
1F
100
AcDbEntity
  8
freecads.com
100
AcDbCircle
 10
1137.495404529268
 20
34.80185986326977
 30
0.0
 40
1.741451359650106
100
AcDbArc
 50
134.9999670075024
 51
170.7729047846482
  0
ARC
  5
2FB75
330
1F
100
AcDbEntity
  8
freecads.com
100
AcDbCircle
 10
1191.815982883242
 20
25.97747146157781
 30
0.0
 40
56.7741240493703
100
AcDbArc
 50
170.7728944551146
 51
173.6597614993814
  0
ARC
  5
2FB76
330
1F
100
AcDbEntity
  8
freecads.com
100
AcDbCircle
 10
1189.368943134205
 20
26.24937921841047
 30
0.0
 40
54.31202385615263
100
AcDbArc
 50
173.6597745318005
 51
177.3394516398847
  0
ARC
  5
2FB77
330
1F
100
AcDbEntity
  8
freecads.com
100
AcDbCircle
 10
1218.745868047975
 20
24.88413664911786
 30
0.0
 40
83.7206553212715
100
AcDbArc
 50
177.3393599690586
 51
180.0000564270175
  0
LINE
  5
2FB78
330
1F
100
AcDbEntity
  8
freecads.com
100
AcDbLine
 10
1135.025212726744
 20
24.88405419775518
 30
0.0
 11
1135.025212726744
 21
14.97365620373602
 31
0.0
  0
LINE
  5
2FB79
330
1F
100
AcDbEntity
  8
freecads.com
100
AcDbLine
 10
1135.025212726744
 20
14.97365620373602
 30
0.0
 11
1115.915189288454
 21
14.97365620373602
 31
0.0
  0
LINE
  5
2FB7A
330
1F
100
AcDbEntity
  8
freecads.com
100
AcDbLine
 10
1115.915189288454
 20
14.97365620373602
 30
0.0
 11
1096.805165850163
 21
14.97365620373602
 31
0.0
  0
LINE
  5
2FB7B
330
1F
100
AcDbEntity
  8
freecads.com
100
AcDbLine
 10
1096.805165850163
 20
14.97365620373602
 30
0.0
 11
1086.712019486308
 21
4.753557633637683
 31
0.0
  0
LINE
  5
2FB7C
330
1F
100
AcDbEntity
  8
freecads.com
100
AcDbLine
 10
1086.712019486308
 20
4.753557633637683
 30
0.0
 11
1076.618873122453
 21
-5.466540936453384
 31
0.0
  0
LINE
  5
2FB7D
330
1F
100
AcDbEntity
  8
freecads.com
100
AcDbLine
 10
1076.618873122453
 20
-5.466540936453384
 30
0.0
 11
1105.822042924613
 21
-5.466540936453384
 31
0.0
  0
LINE
  5
2FB7E
330
1F
100
AcDbEntity
  8
freecads.com
100
AcDbLine
 10
1105.822042924613
 20
-5.466540936453384
 30
0.0
 11
1135.025212726744
 21
-5.466540936453384
 31
0.0
  0
LINE
  5
2FB7F
330
1F
100
AcDbEntity
  8
freecads.com
100
AcDbLine
 10
1135.025212726744
 20
-5.466540936453384
 30
0.0
 11
1135.025212726744
 21
-32.41043716670538
 31
0.0
  0
LINE
  5
2FB80
330
1F
100
AcDbEntity
  8
freecads.com
100
AcDbLine
 10
1135.025212726744
 20
-32.41043716670538
 30
0.0
 11
1135.025212726744
 21
-59.35433339695009
 31
0.0
  0
LINE
  5
2FB81
330
1F
100
AcDbEntity
  8
freecads.com
100
AcDbLine
 10
1135.025212726744
 20
-59.35433339695009
 30
0.0
 11
1146.123390576597
 21
-59.35433339695009
 31
0.0
  0
LINE
  5
2FB82
330
1F
100
AcDbEntity
  8
freecads.com
100
AcDbLine
 10
1146.123390576597
 20
-59.35433339695009
 30
0.0
 11
1157.221570284629
 21
-59.35433339695009
 31
0.0
  0
LINE
  5
2FB83
330
1F
100
AcDbEntity
  8
freecads.com
100
AcDbLine
 10
1157.221570284629
 20
-59.35433339695009
 30
0.0
 11
1157.737138951705
 21
-32.87498710170621
 31
0.0
  0
LINE
  5
2FB84
330
1F
100
AcDbEntity
  8
freecads.com
100
AcDbLine
 10
1157.737138951705
 20
-32.87498710170621
 30
0.0
 11
1158.25270947696
 21
-6.395640806462324
 31
0.0
  0
LINE
  5
2FB85
330
1F
100
AcDbEntity
  8
freecads.com
100
AcDbLine
 10
1158.25270947696
 20
-6.395640806462324
 30
0.0
 11
1171.182641168124
 21
-5.83736699297151
 31
0.0
  0
ARC
  5
2FB86
330
1F
100
AcDbEntity
  8
freecads.com
100
AcDbCircle
 10
1165.583450093937
 20
123.8407368060871
 30
0.0
 40
129.7989273669272
100
AcDbArc
 50
272.4723593872935
 51
276.7264261536477
  0
ARC
  5
2FB87
330
1F
100
AcDbEntity
  8
freecads.com
100
AcDbCircle
 10
1179.329547512024
 20
7.289632226929825
 30
0.0
 40
12.44001133219263
100
AcDbArc
 50
276.7264789129697
 51
300.5067515431456
  0
ARC
  5
2FB88
330
1F
100
AcDbEntity
  8
freecads.com
100
AcDbCircle
 10
1182.830278569366
 20
1.348158531392982
 30
0.0
 40
5.543908983003254
100
AcDbArc
 50
300.5068185625437
 51
341.2370193063551
  0
ARC
  5
2FB89
330
1F
100
AcDbEntity
  8
freecads.com
100
AcDbCircle
 10
1173.229917776537
 20
4.609448435170634
 30
0.0
 40
15.68308741071396
100
AcDbArc
 50
341.2370860132697
 51
359.9999872778138
  0
ARC
  5
2FB8A
330
1F
100
AcDbEntity
  8
freecads.com
100
AcDbCircle
 10
1170.989926238048
 20
4.609431732402299
 30
0.0
 40
17.92307894920484
100
AcDbArc
 50
0.000042262420812
 51
17.51077267870976
  0
ARC
  5
2FB8B
330
1F
100
AcDbEntity
  8
freecads.com
100
AcDbCircle
 10
1182.90503095863
 20
8.368704372063803
 30
0.0
 40
5.42900630327434
100
AcDbArc
 50
17.51085891983683
 51
60.10083383913213
  0
ARC
  5
2FB8C
330
1F
100
AcDbEntity
  8
freecads.com
100
AcDbCircle
 10
1179.788719362855
 20
2.949077340737858
 30
0.0
 40
11.68070648168272
100
AcDbArc
 50
60.10086452394961
 51
85.57479423637721
  0
ARC
  5
2FB8D
330
1F
100
AcDbEntity
  8
freecads.com
100
AcDbCircle
 10
1170.888485425369
 20
-112.0585828039693
 30
0.0
 40
127.0322390077055
100
AcDbArc
 50
85.57480281802936
 51
90.00000799037083
  0
LINE
  5
2FB8E
330
1F
100
AcDbEntity
  8
freecads.com
100
AcDbLine
 10
1170.888467709082
 20
14.97365620373602
 30
0.0
 11
1157.323609606958
 21
14.97365620373602
 31
0.0
  0
LINE
  5
2FB8F
330
1F
100
AcDbEntity
  8
freecads.com
100
AcDbLine
 10
1157.323609606958
 20
14.97365620373602
 30
0.0
 11
1157.323609606958
 21
26.12285464383603
 31
0.0
  0
LINE
  5
2FB90
330
1F
100
AcDbEntity
  8
freecads.com
100
AcDbLine
 10
1157.323609606958
 20
26.12285464383603
 30
0.0
 11
1157.323609606958
 21
37.27205308393603
 31
0.0
  0
LINE
  5
2FB91
330
1F
100
AcDbEntity
  8
freecads.com
100
AcDbLine
 10
1157.323609606958
 20
37.27205308393603
 30
0.0
 11
1147.413211612932
 21
37.27205308393603
 31
0.0
  0
ARC
  5
2FB92
330
1F
100
AcDbEntity
  8
freecads.com
100
AcDbCircle
 10
1147.413129161562
 20
-46.44860223728755
 30
0.0
 40
83.7206553212648
100
AcDbArc
 50
89.99994357298247
 51
92.66064003073394
  0
ARC
  5
2FB93
330
1F
100
AcDbEntity
  8
freecads.com
100
AcDbCircle
 10
1146.047886592379
 20
-17.07167732330708
 30
0.0
 40
54.31202385594838
100
AcDbArc
 50
92.66054836011361
 51
96.34022546817609
  0
ARC
  5
2FB94
330
1F
100
AcDbEntity
  8
freecads.com
100
AcDbCircle
 10
1146.319794348847
 20
-19.51871707268583
 30
0.0
 40
56.77412404946829
100
AcDbArc
 50
96.34023850041197
 51
99.22710554444178
  0
ARC
  5
2FB95
330
1F
100
AcDbEntity
  8
freecads.com
100
AcDbCircle
 10
1137.495405947439
 20
34.80186128140484
 30
0.0
 40
1.741451359676522
100
AcDbArc
 50
99.22709521596877
 51
135.0000329927929
  0
ARC
  5
2FB96
330
1F
100
AcDbEntity
  8
freecads.com
100
AcDbCircle
 10
680.7450477888186
 20
-14.83488031124579
 30
0.0
 40
37.76637875450543
100
AcDbArc
 50
99.99277158285549
 51
116.2142533865161
  0
ARC
  5
2FB97
330
1F
100
AcDbEntity
  8
freecads.com
100
AcDbCircle
 10
683.9369370424236
 20
-21.31743160981569
 30
0.0
 40
44.99214019133655
100
AcDbArc
 50
116.214339302568
 51
130.4402296931955
  0
ARC
  5
2FB98
330
1F
100
AcDbEntity
  8
freecads.com
100
AcDbCircle
 10
683.533144626678
 20
-20.84362836584478
 30
0.0
 40
44.36961482736508
100
AcDbArc
 50
130.4402490875455
 51
144.7665892718584
  0
ARC
  5
2FB99
330
1F
100
AcDbEntity
  8
freecads.com
100
AcDbCircle
 10
676.2080155256543
 20
-15.66995057889289
 30
0.0
 40
35.40164637353318
100
AcDbArc
 50
144.7665468833853
 51
161.735586061213
  0
ARC
  5
2FB9A
330
1F
100
AcDbEntity
  8
freecads.com
100
AcDbCircle
 10
675.2795292643849
 20
-15.36352161131071
 30
0.0
 40
34.42390128940251
100
AcDbArc
 50
161.7355878235841
 51
176.4846694577615
  0
ARC
  5
2FB9B
330
1F
100
AcDbEntity
  8
freecads.com
100
AcDbCircle
 10
696.5910247004202
 20
-16.67272584996681
 30
0.0
 40
55.77557226519767
100
AcDbArc
 50
176.4846554830088
 51
186.7593792542723
  0
ARC
  5
2FB9C
330
1F
100
AcDbEntity
  8
freecads.com
100
AcDbCircle
 10
695.3489192846453
 20
-16.81993456357304
 30
0.0
 40
54.524774012422
100
AcDbArc
 50
186.7593900378459
 51
197.1269735691873
  0
ARC
  5
2FB9D
330
1F
100
AcDbEntity
  8
freecads.com
100
AcDbCircle
 10
671.5525884306543
 20
-24.15289321525051
 30
0.0
 40
29.62421890415831
100
AcDbArc
 50
197.1269983823535
 51
213.4953292483035
  0
ARC
  5
2FB9E
330
1F
100
AcDbEntity
  8
freecads.com
100
AcDbCircle
 10
678.1781478786569
 20
-19.76829123201605
 30
0.0
 40
37.5692030168095
100
AcDbArc
 50
213.4953502891167
 51
232.728952695149
  0
ARC
  5
2FB9F
330
1F
100
AcDbEntity
  8
freecads.com
100
AcDbCircle
 10
682.8411615626672
 20
-13.64084872185776
 30
0.0
 40
45.26915420700782
100
AcDbArc
 50
232.7289076622406
 51
249.4533597545186
  0
ARC
  5
2FBA0
330
1F
100
AcDbEntity
  8
freecads.com
100
AcDbCircle
 10
682.9240965163761
 20
-13.41969547900953
 30
0.0
 40
45.5053468438263
100
AcDbArc
 50
249.4533080055415
 51
266.1323944407611
  0
ARC
  5
2FBA1
330
1F
100
AcDbEntity
  8
freecads.com
100
AcDbCircle
 10
682.4457703298966
 20
-20.49560439323977
 30
0.0
 40
38.41328910991729
100
AcDbArc
 50
266.1323322287309
 51
285.0707409305123
  0
ARC
  5
2FBA2
330
1F
100
AcDbEntity
  8
freecads.com
100
AcDbCircle
 10
683.635026915449
 20
-24.91199650854833
 30
0.0
 40
33.83957611710963
100
AcDbArc
 50
285.0706727451205
 51
305.9783792079401
  0
ARC
  5
2FBA3
330
1F
100
AcDbEntity
  8
freecads.com
100
AcDbCircle
 10
674.3299687405222
 20
-12.09452463346679
 30
0.0
 40
49.67850578130037
100
AcDbArc
 50
305.9783862901207
 51
321.6588750843397
  0
ARC
  5
2FBA4
330
1F
100
AcDbEntity
  8
freecads.com
100
AcDbCircle
 10
675.0154639247037
 20
-12.63674121217627
 30
0.0
 40
48.80449064158361
100
AcDbArc
 50
321.6589172064421
 51
337.4753551789626
  0
ARC
  5
2FBA5
330
1F
100
AcDbEntity
  8
freecads.com
100
AcDbCircle
 10
691.427627252341
 20
-19.4431443541107
 30
0.0
 40
31.03692950271091
100
AcDbArc
 50
337.4753388213048
 51
359.6760476285076
  0
ARC
  5
2FBA6
330
1F
100
AcDbEntity
  8
freecads.com
100
AcDbCircle
 10
679.1033430337692
 20
-19.37341603590175
 30
0.0
 40
43.36141097404293
100
AcDbArc
 50
359.6759873291545
 51
14.79728136899846
  0
ARC
  5
2FBA7
330
1F
100
AcDbEntity
  8
freecads.com
100
AcDbCircle
 10
674.5150962057076
 20
-20.58545392991073
 30
0.0
 40
48.10704526375834
100
AcDbArc
 50
14.79728562220786
 51
28.78549920930696
  0
ARC
  5
2FBA8
330
1F
100
AcDbEntity
  8
freecads.com
100
AcDbCircle
 10
677.5510913943715
 20
-18.91748067018489
 30
0.0
 40
44.6430300248201
100
AcDbArc
 50
28.78558780549635
 51
43.30505003000504
  0
ARC
  5
2FBA9
330
1F
100
AcDbEntity
  8
freecads.com
100
AcDbCircle
 10
687.8947890208209
 20
-9.168359507544664
 30
0.0
 40
30.42904240588377
100
AcDbArc
 50
43.30506074758934
 51
62.6556305271541
  0
ARC
  5
2FBAA
330
1F
100
AcDbEntity
  8
freecads.com
100
AcDbCircle
 10
685.6025373088477
 20
-13.60108561976085
 30
0.0
 40
35.41938094118219
100
AcDbArc
 50
62.65562724092899
 51
73.51627031718415
  0
ARC
  5
2FBAB
330
1F
100
AcDbEntity
  8
freecads.com
100
AcDbCircle
 10
678.4250656411448
 20
-37.8572216363973
 30
0.0
 40
60.71515596386559
100
AcDbArc
 50
73.51629871635534
 51
80.77027125481761
  0
ARC
  5
2FBAC
330
1F
100
AcDbEntity
  8
freecads.com
100
AcDbCircle
 10
678.5928491425282
 20
-36.82456883967825
 30
0.0
 40
59.66896138276087
100
AcDbArc
 50
80.77025261693506
 51
88.06681027331931
  0
ARC
  5
2FBAD
330
1F
100
AcDbEntity
  8
freecads.com
100
AcDbCircle
 10
679.5617301007868
 20
-8.119038211851147
 30
0.0
 40
30.94708437350125
100
AcDbArc
 50
88.06676134650633
 51
99.99275860185266
  0
ARC
  5
2FBAE
330
1F
100
AcDbEntity
  8
freecads.com
100
AcDbCircle
 10
680.85147281461
 20
-18.47013693484768
 30
0.0
 40
19.27097060490462
100
AcDbArc
 50
6.415703651728693
 51
42.33734985403694
  0
ARC
  5
2FBAF
330
1F
100
AcDbEntity
  8
freecads.com
100
AcDbCircle
 10
682.0929963379302
 20
-18.33055943710497
 30
0.0
 40
18.0216257621493
100
AcDbArc
 50
328.6467041222921
 51
6.415786576717638
  0
ARC
  5
2FBB0
330
1F
100
AcDbEntity
  8
freecads.com
100
AcDbCircle
 10
681.9023625029793
 20
-18.21440782176796
 30
0.0
 40
18.24485760748714
100
AcDbArc
 50
291.1646977867763
 51
328.6467003380665
  0
ARC
  5
2FBB1
330
1F
100
AcDbEntity
  8
freecads.com
100
AcDbCircle
 10
681.3799896522385
 20
-16.86514254177018
 30
0.0
 40
19.69171288386519
100
AcDbArc
 50
255.7630595969319
 51
291.1646530661751
  0
ARC
  5
2FBB2
330
1F
100
AcDbEntity
  8
freecads.com
100
AcDbCircle
 10
681.0988421796345
 20
-17.9731411862449
 30
0.0
 40
18.54860094835949
100
AcDbArc
 50
237.3727051570427
 51
255.7631209391205
  0
ARC
  5
2FBB3
330
1F
100
AcDbEntity
  8
freecads.com
100
AcDbCircle
 10
681.0598068423558
 20
-18.03405119055241
 30
0.0
 40
18.47625604534584
100
AcDbArc
 50
218.9284297256925
 51
237.3728118909689
  0
ARC
  5
2FBB4
330
1F
100
AcDbEntity
  8
freecads.com
100
AcDbCircle
 10
680.9486740458222
 20
-18.12381081243802
 30
0.0
 40
18.33340196533644
100
AcDbArc
 50
200.4057307662492
 51
218.9284402360606
  0
ARC
  5
2FBB5
330
1F
100
AcDbEntity
  8
freecads.com
100
AcDbCircle
 10
680.6390527253523
 20
-18.2390169787468
 30
0.0
 40
18.00304182497307
100
AcDbArc
 50
181.6286443238153
 51
200.405659845019
  0
ARC
  5
2FBB6
330
1F
100
AcDbEntity
  8
freecads.com
100
AcDbCircle
 10
683.5679770213308
 20
-18.15576443365717
 30
0.0
 40
20.93314907851968
100
AcDbArc
 50
149.1769285308065
 51
181.6285754832289
  0
ARC
  5
2FBB7
330
1F
100
AcDbEntity
  8
freecads.com
100
AcDbCircle
 10
680.7038847899228
 20
-16.44688633429177
 30
0.0
 40
17.59798961188742
100
AcDbArc
 50
112.2235924517831
 51
149.1768529492242
  0
ARC
  5
2FBB8
330
1F
100
AcDbEntity
  8
freecads.com
100
AcDbCircle
 10
680.6546852313466
 20
-16.3264864575467
 30
0.0
 40
17.46792529381198
100
AcDbArc
 50
75.10063987581098
 51
112.2235698720498
  0
ARC
  5
2FBB9
330
1F
100
AcDbEntity
  8
freecads.com
100
AcDbCircle
 10
679.8388693180157
 20
-19.39272272465314
 30
0.0
 40
20.64083570069476
100
AcDbArc
 50
42.33730912911641
 51
75.10066618302554
  0
ARC
  5
2FBBA
330
1F
100
AcDbEntity
  8
freecads.com
100
AcDbCircle
 10
809.1794059392549
 20
-16.9481594085446
 30
0.0
 40
39.73500479474669
100
AcDbArc
 50
98.45573758889003
 51
119.4954873698416
  0
ARC
  5
2FBBB
330
1F
100
AcDbEntity
  8
freecads.com
100
AcDbCircle
 10
808.9578718103137
 20
-16.55659377675329
 30
0.0
 40
39.28511479352679
100
AcDbArc
 50
119.4954395584897
 51
140.7156182988667
  0
ARC
  5
2FBBC
330
1F
100
AcDbEntity
  8
freecads.com
100
AcDbCircle
 10
810.3162295105128
 20
-17.66777040740999
 30
0.0
 40
41.04006469199547
100
AcDbArc
 50
140.7156270181828
 51
161.4210370610658
  0
ARC
  5
2FBBD
330
1F
100
AcDbEntity
  8
freecads.com
100
AcDbCircle
 10
815.3406799942011
 20
-19.35659582415246
 30
0.0
 40
46.34074709620517
100
AcDbArc
 50
161.4210786606738
 51
180.3239779196606
  0
ARC
  5
2FBBE
330
1F
100
AcDbEntity
  8
freecads.com
100
AcDbCircle
 10
803.494765365597
 20
-19.42358832949685
 30
0.0
 40
34.49464303690233
100
AcDbArc
 50
180.3239624933338
 51
207.3712441639008
  0
ARC
  5
2FBBF
330
1F
100
AcDbEntity
  8
freecads.com
100
AcDbCircle
 10
812.039236432988
 20
-14.9999825494815
 30
0.0
 40
44.116299542848
100
AcDbArc
 50
207.3712577729662
 51
229.8643567596214
  0
ARC
  5
2FBC0
330
1F
100
AcDbEntity
  8
freecads.com
100
AcDbCircle
 10
812.6447096366744
 20
-14.28180101772887
 30
0.0
 40
45.05565171916652
100
AcDbArc
 50
229.8644109926633
 51
252.0966778371207
  0
ARC
  5
2FBC1
330
1F
100
AcDbEntity
  8
freecads.com
100
AcDbCircle
 10
810.204669833255
 20
-21.83481205290445
 30
0.0
 40
37.11828629103167
100
AcDbArc
 50
252.0966779400836
 51
277.8046405537393
  0
ARC
  5
2FBC2
330
1F
100
AcDbEntity
  8
freecads.com
100
AcDbCircle
 10
809.6886797077157
 20
-18.07040368259186
 30
0.0
 40
40.91789366387494
100
AcDbArc
 50
277.8046678930341
 51
308.650962224603
  0
ARC
  5
2FBC3
330
1F
100
AcDbEntity
  8
freecads.com
100
AcDbCircle
 10
809.2427948774847
 20
-17.51290428331413
 30
0.0
 40
41.63176960660304
100
AcDbArc
 50
308.6509906576188
 51
339.1001926622819
  0
ARC
  5
2FBC4
330
1F
100
AcDbEntity
  8
freecads.com
100
AcDbCircle
 10
809.730327293232
 20
-17.69903469942073
 30
0.0
 40
41.10991485007473
100
AcDbArc
 50
339.1001428837167
 51
9.779653980652801
  0
ARC
  5
2FBC5
330
1F
100
AcDbEntity
  8
freecads.com
100
AcDbCircle
 10
811.1392454256264
 20
-17.45616952957789
 30
0.0
 40
39.68021775131384
100
AcDbArc
 50
9.779628423588375
 51
41.28350536932532
  0
ARC
  5
2FBC6
330
1F
100
AcDbEntity
  8
freecads.com
100
AcDbCircle
 10
807.3975454758173
 20
-20.74144650051312
 30
0.0
 40
44.65951120420705
100
AcDbArc
 50
41.28352591698521
 51
54.89335819297253
  0
ARC
  5
2FBC7
330
1F
100
AcDbEntity
  8
freecads.com
100
AcDbCircle
 10
810.8975756666467
 20
-15.76264464621636
 30
0.0
 40
38.57357009037843
100
AcDbArc
 50
54.89336711363122
 51
70.08357221843784
  0
ARC
  5
2FBC8
330
1F
100
AcDbEntity
  8
freecads.com
100
AcDbCircle
 10
810.7733828201006
 20
-16.10550314745342
 30
0.0
 40
38.93822858012168
100
AcDbArc
 50
70.08361565266934
 51
85.19532581696461
  0
ARC
  5
2FBC9
330
1F
100
AcDbEntity
  8
freecads.com
100
AcDbCircle
 10
810.1524257248083
 20
-23.49334795277536
 30
0.0
 40
46.35212354708913
100
AcDbArc
 50
85.19535601902447
 51
98.4557418245906
  0
ARC
  5
2FBCA
330
1F
100
AcDbEntity
  8
freecads.com
100
AcDbCircle
 10
810.2028315839405
 20
-17.5826979941412
 30
0.0
 40
18.46005950625796
100
AcDbArc
 50
29.71261584320116
 51
64.6141648219816
  0
ARC
  5
2FBCB
330
1F
100
AcDbEntity
  8
freecads.com
100
AcDbCircle
 10
809.2852744096735
 20
-18.10633542896539
 30
0.0
 40
19.5165193167579
100
AcDbArc
 50
356.2353585186442
 51
29.71262671293381
  0
ARC
  5
2FBCC
330
1F
100
AcDbEntity
  8
freecads.com
100
AcDbCircle
 10
809.7956822159019
 20
-18.13992544999928
 30
0.0
 40
19.0050074223277
100
AcDbArc
 50
322.2118361420663
 51
356.235373959495
  0
ARC
  5
2FBCD
330
1F
100
AcDbEntity
  8
freecads.com
100
AcDbCircle
 10
810.9943699080602
 20
-19.06931986995914
 30
0.0
 40
17.48822590504945
100
AcDbArc
 50
286.0026821838842
 51
322.2118192822902
  0
ARC
  5
2FBCE
330
1F
100
AcDbEntity
  8
freecads.com
100
AcDbCircle
 10
810.3239613161848
 20
-16.73172778645676
 30
0.0
 40
19.92005328973248
100
AcDbArc
 50
251.2162214107348
 51
286.002672284064
  0
ARC
  5
2FBCF
330
1F
100
AcDbEntity
  8
freecads.com
100
AcDbCircle
 10
809.9897526323902
 20
-17.71439584846666
 30
0.0
 40
18.88210725821353
100
AcDbArc
 50
215.0081777608587
 51
251.2161973094708
  0
ARC
  5
2FBD0
330
1F
100
AcDbEntity
  8
freecads.com
100
AcDbCircle
 10
809.4864544018626
 20
-18.0669273612948
 30
0.0
 40
18.26762570739746
100
AcDbArc
 50
178.0533254765123
 51
215.0081489061789
  0
ARC
  5
2FBD1
330
1F
100
AcDbEntity
  8
freecads.com
100
AcDbCircle
 10
809.9679569824211
 20
-18.08328583322145
 30
0.0
 40
18.74940608748561
100
AcDbArc
 50
141.8113554823831
 51
178.0533477706667
  0
ARC
  5
2FBD2
330
1F
100
AcDbEntity
  8
freecads.com
100
AcDbCircle
 10
818.8791712132506
 20
-25.09282572714437
 30
0.0
 40
30.08710376346002
100
AcDbArc
 50
128.1015494079386
 51
141.8114077086465
  0
ARC
  5
2FBD3
330
1F
100
AcDbEntity
  8
freecads.com
100
AcDbCircle
 10
808.9083403895045
 20
-12.37724826727208
 30
0.0
 40
13.92841020693127
100
AcDbArc
 50
103.7174846359756
 51
128.1015842103003
  0
ARC
  5
2FBD4
330
1F
100
AcDbEntity
  8
freecads.com
100
AcDbCircle
 10
808.834095535988
 20
-12.07310061568569
 30
0.0
 40
13.61533179466019
100
AcDbArc
 50
78.9926217081183
 51
103.7174711032312
  0
ARC
  5
2FBD5
330
1F
100
AcDbEntity
  8
freecads.com
100
AcDbCircle
 10
806.0671260252846
 20
-26.29808436993335
 30
0.0
 40
28.1069253261488
100
AcDbArc
 50
64.61420905908132
 51
78.99259833458976
  0
ENDSEC
  0
SECTION
  2
OBJECTS
  0
DICTIONARY
  5
C
330
0
100
AcDbDictionary
281
     1
  3
ACAD_CIP_PREVIOUS_PRODUCT_INFO
350
1A5
  3
ACAD_COLOR
350
73
  3
ACAD_DETAILVIEWSTYLE
350
1AB
  3
ACAD_GROUP
350
D
  3
ACAD_IMAGE_DICT
350
A5B8
  3
ACAD_IMAGE_VARS
350
A5B9
  3
ACAD_LAYOUT
350
1A
  3
ACAD_MATERIAL
350
72
  3
ACAD_MLEADERSTYLE
350
D7
  3
ACAD_MLINESTYLE
350
17
  3
ACAD_PLOTSETTINGS
350
19
  3
ACAD_PLOTSTYLENAME
350
E
  3
ACAD_SCALELIST
350
B6
  3
ACAD_SECTIONVIEWSTYLE
350
1A8
  3
ACAD_TABLESTYLE
350
86
  3
ACAD_VISUALSTYLE
350
99
  3
ACDB_RECOMPOSE_DATA
350
2FC2D
  3
AcDbVariableDictionary
350
66
  3
AEC_PROPERTY_SET_DEFS
350
268B
  0
DICTIONARY
  5
18E
330
2
100
AcDbDictionary
280
     1
281
     1
  3
ACAD_LAYERSTATES
360
18F
  0
DICTIONARY
  5
E6
330
10
100
AcDbDictionary
280
     1
281
     1
  0
DICTIONARY
  5
15D
330
1F
100
AcDbDictionary
280
     1
281
     1
  3
ACAD_SORTENTS
360
28E
  0
XRECORD
  5
1A5
102
{ACAD_REACTORS
330
C
102
}
330
C
100
AcDbXrecord
280
     1
300
ACD
300
2022
300

  0
DICTIONARY
  5
73
102
{ACAD_REACTORS
330
C
102
}
330
C
100
AcDbDictionary
281
     1
  0
DICTIONARY
  5
1AB
102
{ACAD_REACTORS
330
C
102
}
330
C
100
AcDbDictionary
281
     1
  3
Imperial24
350
1AC
  3
Metric50
350
224
  0
DICTIONARY
  5
D
102
{ACAD_REACTORS
330
C
102
}
330
C
100
AcDbDictionary
281
     1
  0
DICTIONARY
  5
A5B8
102
{ACAD_REACTORS
330
C
102
}
330
C
100
AcDbDictionary
281
     1
  0
RASTERVARIABLES
  5
A5B9
102
{ACAD_REACTORS
330
C
102
}
330
C
100
AcDbRasterVariables
 90
        0
 70
     1
 71
     1
 72
     5
  0
DICTIONARY
  5
1A
102
{ACAD_REACTORS
330
C
102
}
330
C
100
AcDbDictionary
281
     1
  3
Layout1
350
59
  3
Layout2
350
5E
  3
Model
350
22
  0
DICTIONARY
  5
72
102
{ACAD_REACTORS
330
C
102
}
330
C
100
AcDbDictionary
281
     1
  3
ByBlock
350
97
  3
ByLayer
350
96
  3
Global
350
98
  0
DICTIONARY
  5
D7
102
{ACAD_REACTORS
330
C
102
}
330
C
100
AcDbDictionary
281
     1
  3
Standard
350
D8
  0
DICTIONARY
  5
17
102
{ACAD_REACTORS
330
C
102
}
330
C
100
AcDbDictionary
281
     1
  3
Standard
350
18
  0
DICTIONARY
  5
19
102
{ACAD_REACTORS
330
C
102
}
330
C
100
AcDbDictionary
281
     1
  0
ACDBDICTIONARYWDFLT
  5
E
102
{ACAD_REACTORS
330
C
102
}
330
C
100
AcDbDictionary
281
     1
  3
Normal
350
F
100
AcDbDictionaryWithDefault
340
F
  0
DICTIONARY
  5
B6
102
{ACAD_REACTORS
330
C
102
}
330
C
100
AcDbDictionary
281
     1
  3
*A1
350
47D1
  3
*A2
350
8BD6
  3
A0
350
B7
  3
A1
350
124
  3
A2
350
125
  3
A3
350
126
  3
A4
350
127
  3
A5
350
128
  3
A6
350
129
  3
A7
350
12A
  3
A8
350
12B
  3
A9
350
12C
  3
B0
350
12D
  3
B1
350
12E
  3
B2
350
12F
  3
B3
350
130
  3
B4
350
131
  3
B5
350
132
  3
B6
350
133
  3
B7
350
134
  3
B8
350
135
  3
B9
350
136
  3
C0
350
137
  3
C1
350
138
  3
C2
350
139
  3
C3
350
13A
  3
C4
350
13B
  3
C5
350
13C
  3
C6
350
13D
  3
C7
350
13E
  3
C8
350
13F
  3
C9
350
140
  3
D0
350
141
  3
D1
350
142
  3
D2
350
143
  0
DICTIONARY
  5
1A8
102
{ACAD_REACTORS
330
C
102
}
330
C
100
AcDbDictionary
281
     1
  3
Imperial24
350
1AA
  3
Metric50
350
223
  0
DICTIONARY
  5
86
102
{ACAD_REACTORS
330
C
102
}
330
C
100
AcDbDictionary
281
     1
  3
Standard
350
87
  0
DICTIONARY
  5
99
102
{ACAD_REACTORS
330
C
102
}
330
C
100
AcDbDictionary
281
     1
  3
2dWireframe
350
9F
  3
3dWireframe
350
2684
  3
Basic
350
9E
  3
Brighten
350
A5
  3
ColorChange
350
A9
  3
Conceptual
350
A2
  3
Dim
350
A4
  3
EdgeColorOff
350
175
  3
Facepattern
350
A8
  3
Flat
350
9A
  3
FlatWithEdges
350
9B
  3
Gouraud
350
9C
  3
GouraudWithEdges
350
9D
  3
Hidden
350
A1
  3
JitterOff
350
173
  3
Linepattern
350
A7
  3
OverhangOff
350
174
  3
Realistic
350
A3
  3
Shaded
350
182
  3
Shaded with edges
350
181
  3
Shades of Gray
350
17E
  3
Sketchy
350
17F
  3
Thicken
350
A6
  3
Wireframe
350
A0
  3
X-Ray
350
180
  0
XRECORD
  5
2FC2D
102
{ACAD_REACTORS
330
C
102
}
330
C
100
AcDbXrecord
280
     1
 90
        1
330
87
  0
DICTIONARY
  5
66
102
{ACAD_REACTORS
330
C
102
}
330
C
100
AcDbDictionary
281
     1
  3
CANNOSCALE
350
F0
  3
CMLEADERSTYLE
350
EF
  3
CTABLESTYLE
350
89
  3
CVIEWDETAILSTYLE
350
1B7
  3
CVIEWSECTIONSTYLE
350
1B8
  3
DIMASSOC
350
67
  3
HIDETEXT
350
6B
  3
LAYEREVAL
350
14D
  3
LAYERNOTIFY
350
14E
  0
DICTIONARY
  5
268B
102
{ACAD_REACTORS
330
C
102
}
330
C
100
AcDbDictionary
281
     1
  0
DICTIONARY
  5
18F
102
{ACAD_REACTORS
330
18E
102
}
330
18E
100
AcDbDictionary
281
     1
  0
SORTENTSTABLE
  5
28E
102
{ACAD_REACTORS
330
15D
102
}
330
15D
100
AcDbSortentsTable
330
1F
  0
ACDBDETAILVIEWSTYLE
  5
1AC
102
{ACAD_REACTORS
330
1AB
102
}
330
1AB
100
AcDbModelDocViewStyle
 70
     0
  3
Imperial24
290
     0
300
Imperial24
 90
        0
100
AcDbDetailViewStyle
 70
     0
 71
     0
 90
        3
 71
     1
340
11
 62
   256
 40
0.24
340
0
 62
   256
 40
0.24
300

 40
0.36
280
     3
 71
     2
340
16
 90
       25
 62
   256
 71
     3
340
11
 62
   256
 40
0.24
 90
        1
 40
0.75
 90
        1
300
%<\AcVar ViewType \f "%tc1">% %<\AcVar ViewDetailId>%\PSCALE %<\AcVar ViewScale \f "%sn">%
 71
     4
340
16
 90
       25
 62
   256
340
16
 90
       25
 62
   256
280
     0
  0
ACDBDETAILVIEWSTYLE
  5
224
102
{ACAD_REACTORS
330
1AB
102
}
330
1AB
100
AcDbModelDocViewStyle
 70
     0
  3
Metric50
290
     0
300
Metric50
 90
        0
100
AcDbDetailViewStyle
 70
     0
 71
     0
 90
        3
 71
     1
340
11
 62
   256
 40
5.0
340
0
 62
   256
 40
5.0
300

 40
0.0
280
     1
 71
     2
340
16
 90
       25
 62
   256
 71
     3
340
11
 62
   256
 40
5.0
 90
        0
 40
15.0
 90
        1
300
%<\AcVar ViewDetailId>% (%<\AcVar ViewScale \f "%sn">%)
 71
     4
340
16
 90
       25
 62
   256
340
16
 90
       25
 62
   256
280
     0
  0
LAYOUT
  5
59
102
{ACAD_REACTORS
330
1A
102
}
330
1A
100
AcDbPlotSettings
  1

  2
None
  4

  6

 40
0.0
 41
0.0
 42
0.0
 43
0.0
 44
0.0
 45
0.0
 46
0.0
 47
0.0
 48
0.0
 49
0.0
140
0.0
141
0.0
142
1.0
143
1.0
 70
   688
 72
     0
 73
     0
 74
     5
  7

 75
    16
147
1.0
 76
     0
 77
     2
 78
   300
148
0.0
149
0.0
100
AcDbLayout
  1
Layout1
 70
     1
 71
     1
 10
0.0
 20
0.0
 11
12.0
 21
9.0
 12
0.0
 22
0.0
 32
0.0
 14
0.0
 24
0.0
 34
0.0
 15
0.0
 25
0.0
 35
0.0
146
0.0
 13
0.0
 23
0.0
 33
0.0
 16
1.0
 26
0.0
 36
0.0
 17
0.0
 27
1.0
 37
0.0
 76
     0
330
58
  0
LAYOUT
  5
5E
102
{ACAD_REACTORS
330
1A
102
}
330
1A
100
AcDbPlotSettings
  1

  2
None
  4

  6

 40
0.0
 41
0.0
 42
0.0
 43
0.0
 44
0.0
 45
0.0
 46
0.0
 47
0.0
 48
0.0
 49
0.0
140
0.0
141
0.0
142
1.0
143
1.0
 70
   688
 72
     0
 73
     0
 74
     5
  7

 75
    16
147
1.0
 76
     0
 77
     2
 78
   300
148
0.0
149
0.0
100
AcDbLayout
  1
Layout2
 70
     1
 71
     2
 10
0.0
 20
0.0
 11
12.0
 21
9.0
 12
0.0
 22
0.0
 32
0.0
 14
0.0
 24
0.0
 34
0.0
 15
0.0
 25
0.0
 35
0.0
146
0.0
 13
0.0
 23
0.0
 33
0.0
 16
1.0
 26
0.0
 36
0.0
 17
0.0
 27
1.0
 37
0.0
 76
     0
330
5D
  0
LAYOUT
  5
22
102
{ACAD_XDICTIONARY
360
194
102
}
102
{ACAD_REACTORS
330
1A
102
}
330
1A
100
AcDbPlotSettings
  1

  2
none_device
  4
ANSI_A_(8.50_x_11.00_Inches)
  6

 40
6.349999904632568
 41
19.04999923706055
 42
6.350006103515625
 43
19.04998779296875
 44
215.8999938964844
 45
279.3999938964844
 46
0.0
 47
0.0
 48
0.0
 49
0.0
140
0.0
141
0.0
142
1.0
143
2.584895464708373
 70
 11952
 72
     0
 73
     1
 74
     0
  7

 75
     0
147
0.3868628397755418
 76
     0
 77
     2
 78
   300
148
0.0
149
0.0
100
AcDbLayout
  1
Model
 70
     1
 71
     0
 10
0.0
 20
0.0
 11
12.0
 21
9.0
 12
0.0
 22
0.0
 32
0.0
 14
0.0
 24
0.0
 34
0.0
 15
0.0
 25
0.0
 35
0.0
146
0.0
 13
0.0
 23
0.0
 33
0.0
 16
1.0
 26
0.0
 36
0.0
 17
0.0
 27
1.0
 37
0.0
 76
     0
330
1F
331
94
  0
MATERIAL
  5
97
102
{ACAD_XDICTIONARY
360
188
102
}
102
{ACAD_REACTORS
330
72
102
}
330
72
100
AcDbMaterial
  1
ByBlock
 94
       63
  0
MATERIAL
  5
96
102
{ACAD_XDICTIONARY
360
186
102
}
102
{ACAD_REACTORS
330
72
102
}
330
72
100
AcDbMaterial
  1
ByLayer
 94
       63
  0
MATERIAL
  5
98
102
{ACAD_XDICTIONARY
360
110
102
}
102
{ACAD_REACTORS
330
72
102
}
330
72
100
AcDbMaterial
  1
Global
 43
0.0208000000566244
 43
0.0
 43
0.0
 43
0.0
 43
0.0
 43
0.0208000000566244
 43
0.0
 43
0.0
 43
0.0
 43
0.0
 43
1.0
 43
0.0
 43
0.0
 43
0.0
 43
0.0
 43
1.0
 49
0.0208000000566244
 49
0.0
 49
0.0
 49
0.0
 49
0.0
 49
0.0208000000566244
 49
0.0
 49
0.0
 49
0.0
 49
0.0
 49
1.0
 49
0.0
 49
0.0
 49
0.0
 49
0.0
 49
1.0
142
0.0208000000566244
142
0.0
142
0.0
142
0.0
142
0.0
142
0.0208000000566244
142
0.0
142
0.0
142
0.0
142
0.0
142
1.0
142
0.0
142
0.0
142
0.0
142
0.0
142
1.0
144
0.0208000000566244
144
0.0
144
0.0
144
0.0
144
0.0
144
0.0208000000566244
144
0.0
144
0.0
144
0.0
144
0.0
144
1.0
144
0.0
144
0.0
144
0.0
144
0.0
144
1.0
 94
       63
1001
ACAD
1070
    -1
1070
     3
1070
     0
1000

1071
        0
1070
     0
  0
MLEADERSTYLE
  5
D8
102
{ACAD_REACTORS
330
D7
102
}
330
D7
100
AcDbMLeaderStyle
179
     2
170
     2
171
     1
172
     0
 90
        2
 40
0.0
 41
0.0
173
     1
 91
-1056964608
340
14
 92
       -2
290
     1
 42
0.09
291
     1
 43
0.36
  3
Standard
 44
0.18
300

342
11
174
     1
178
     1
175
     1
176
     0
 93
-1056964608
 45
0.18
292
     0
297
     0
 46
0.18
 94
-1056964608
 47
1.0
 49
1.0
140
1.0
293
     1
141
0.0
294
     1
177
     0
142
1.0
295
     0
296
     0
143
0.125
271
     0
272
     9
273
     9
298
     0
  0
MLINESTYLE
  5
18
102
{ACAD_REACTORS
330
17
102
}
330
17
100
AcDbMlineStyle
  2
STANDARD
 70
     0
  3

 62
   256
 51
90.0
 52
90.0
 71
     2
 49
0.5
 62
   256
  6
BYLAYER
 49
-0.5
 62
   256
  6
BYLAYER
  0
ACDBPLACEHOLDER
  5
F
102
{ACAD_REACTORS
330
E
102
}
330
E
  0
SCALE
  5
47D1
102
{ACAD_REACTORS
330
B6
102
}
330
B6
100
AcDbScale
 70
     0
300
1:100_1_XREF_XREF_XREF_XREF
140
1.0
141
0.1
290
     0
  0
SCALE
  5
8BD6
102
{ACAD_REACTORS
330
B6
102
}
330
B6
100
AcDbScale
 70
     0
300
1:100_1_XREF_XREF_XREF_XREF_XREF_XREF_XREF_XREF_XREF
140
1.0
141
0.1
290
     0
1001
ACAD
1000
AcRTDxfName
1000
SCALE
1000
AcRTDxfName
1000
SCALE
1000
AcRTDxfName
1000
SCALE
1000
AcRTDxfName
1000
SCALE
  0
SCALE
  5
B7
102
{ACAD_REACTORS
330
B6
102
}
330
B6
100
AcDbScale
 70
     0
300
1:1
140
1.0
141
1.0
290
     1
  0
SCALE
  5
124
102
{ACAD_REACTORS
330
B6
102
}
330
B6
100
AcDbScale
 70
     0
300
1:2
140
1.0
141
2.0
290
     0
  0
SCALE
  5
125
102
{ACAD_REACTORS
330
B6
102
}
330
B6
100
AcDbScale
 70
     0
300
1:4
140
1.0
141
4.0
290
     0
  0
SCALE
  5
126
102
{ACAD_REACTORS
330
B6
102
}
330
B6
100
AcDbScale
 70
     0
300
1:5
140
1.0
141
5.0
290
     0
  0
SCALE
  5
127
102
{ACAD_REACTORS
330
B6
102
}
330
B6
100
AcDbScale
 70
     0
300
1:8
140
1.0
141
8.0
290
     0
  0
SCALE
  5
128
102
{ACAD_REACTORS
330
B6
102
}
330
B6
100
AcDbScale
 70
     0
300
1:10
140
1.0
141
10.0
290
     0
  0
SCALE
  5
129
102
{ACAD_REACTORS
330
B6
102
}
330
B6
100
AcDbScale
 70
     0
300
1:16
140
1.0
141
16.0
290
     0
  0
SCALE
  5
12A
102
{ACAD_REACTORS
330
B6
102
}
330
B6
100
AcDbScale
 70
     0
300
1:20
140
1.0
141
20.0
290
     0
  0
SCALE
  5
12B
102
{ACAD_REACTORS
330
B6
102
}
330
B6
100
AcDbScale
 70
     0
300
1:30
140
1.0
141
30.0
290
     0
  0
SCALE
  5
12C
102
{ACAD_REACTORS
330
B6
102
}
330
B6
100
AcDbScale
 70
     0
300
1:40
140
1.0
141
40.0
290
     0
  0
SCALE
  5
12D
102
{ACAD_REACTORS
330
B6
102
}
330
B6
100
AcDbScale
 70
     0
300
1:50
140
1.0
141
50.0
290
     0
  0
SCALE
  5
12E
102
{ACAD_REACTORS
330
B6
102
}
330
B6
100
AcDbScale
 70
     0
300
1:100
140
1.0
141
100.0
290
     0
  0
SCALE
  5
12F
102
{ACAD_REACTORS
330
B6
102
}
330
B6
100
AcDbScale
 70
     0
300
2:1
140
2.0
141
1.0
290
     0
  0
SCALE
  5
130
102
{ACAD_REACTORS
330
B6
102
}
330
B6
100
AcDbScale
 70
     0
300
4:1
140
4.0
141
1.0
290
     0
  0
SCALE
  5
131
102
{ACAD_REACTORS
330
B6
102
}
330
B6
100
AcDbScale
 70
     0
300
8:1
140
8.0
141
1.0
290
     0
  0
SCALE
  5
132
102
{ACAD_REACTORS
330
B6
102
}
330
B6
100
AcDbScale
 70
     0
300
10:1
140
10.0
141
1.0
290
     0
  0
SCALE
  5
133
102
{ACAD_REACTORS
330
B6
102
}
330
B6
100
AcDbScale
 70
     0
300
100:1
140
100.0
141
1.0
290
     0
  0
SCALE
  5
134
102
{ACAD_REACTORS
330
B6
102
}
330
B6
100
AcDbScale
 70
     0
300
1/128" = 1'-0"
140
0.0078125
141
12.0
290
     0
  0
SCALE
  5
135
102
{ACAD_REACTORS
330
B6
102
}
330
B6
100
AcDbScale
 70
     0
300
1/64" = 1'-0"
140
0.015625
141
12.0
290
     0
  0
SCALE
  5
136
102
{ACAD_REACTORS
330
B6
102
}
330
B6
100
AcDbScale
 70
     0
300
1/32" = 1'-0"
140
0.03125
141
12.0
290
     0
  0
SCALE
  5
137
102
{ACAD_REACTORS
330
B6
102
}
330
B6
100
AcDbScale
 70
     0
300
1/16" = 1'-0"
140
0.0625
141
12.0
290
     0
  0
SCALE
  5
138
102
{ACAD_REACTORS
330
B6
102
}
330
B6
100
AcDbScale
 70
     0
300
3/32" = 1'-0"
140
0.09375
141
12.0
290
     0
  0
SCALE
  5
139
102
{ACAD_REACTORS
330
B6
102
}
330
B6
100
AcDbScale
 70
     0
300
1/8" = 1'-0"
140
0.125
141
12.0
290
     0
  0
SCALE
  5
13A
102
{ACAD_REACTORS
330
B6
102
}
330
B6
100
AcDbScale
 70
     0
300
3/16" = 1'-0"
140
0.1875
141
12.0
290
     0
  0
SCALE
  5
13B
102
{ACAD_REACTORS
330
B6
102
}
330
B6
100
AcDbScale
 70
     0
300
1/4" = 1'-0"
140
0.25
141
12.0
290
     0
  0
SCALE
  5
13C
102
{ACAD_REACTORS
330
B6
102
}
330
B6
100
AcDbScale
 70
     0
300
3/8" = 1'-0"
140
0.375
141
12.0
290
     0
  0
SCALE
  5
13D
102
{ACAD_REACTORS
330
B6
102
}
330
B6
100
AcDbScale
 70
     0
300
1/2" = 1'-0"
140
0.5
141
12.0
290
     0
  0
SCALE
  5
13E
102
{ACAD_REACTORS
330
B6
102
}
330
B6
100
AcDbScale
 70
     0
300
3/4" = 1'-0"
140
0.75
141
12.0
290
     0
  0
SCALE
  5
13F
102
{ACAD_REACTORS
330
B6
102
}
330
B6
100
AcDbScale
 70
     0
300
1" = 1'-0"
140
1.0
141
12.0
290
     0
  0
SCALE
  5
140
102
{ACAD_REACTORS
330
B6
102
}
330
B6
100
AcDbScale
 70
     0
300
1-1/2" = 1'-0"
140
1.5
141
12.0
290
     0
  0
SCALE
  5
141
102
{ACAD_REACTORS
330
B6
102
}
330
B6
100
AcDbScale
 70
     0
300
3" = 1'-0"
140
3.0
141
12.0
290
     0
  0
SCALE
  5
142
102
{ACAD_REACTORS
330
B6
102
}
330
B6
100
AcDbScale
 70
     0
300
6" = 1'-0"
140
6.0
141
12.0
290
     0
  0
SCALE
  5
143
102
{ACAD_REACTORS
330
B6
102
}
330
B6
100
AcDbScale
 70
     0
300
1'-0" = 1'-0"
140
12.0
141
12.0
290
     0
  0
ACDBSECTIONVIEWSTYLE
  5
1AA
102
{ACAD_REACTORS
330
1A8
102
}
330
1A8
100
AcDbModelDocViewStyle
 70
     0
  3
Imperial24
290
     0
300
Imperial24
 90
        0
100
AcDbSectionViewStyle
 70
     0
 71
     0
 90
       78
 71
     1
340
11
 62
   256
 40
0.24
340
0
340
0
 62
   256
 40
0.24
300
I, O, Q, S, X, Z
 40
0.48
 90
        3
 40
0.18
 90
        1
 71
     2
340
16
 90
       25
 62
   256
340
16
 90
       50
 62
   256
 40
0.24
 40
0.0
 40
0.24
 71
     3
340
11
 62
   256
 40
0.24
 90
        1
 40
0.75
 90
        1
300
%<\AcVar ViewType \f "%tc1">% %<\AcVar ViewSectionStartId>%-%<\AcVar ViewSectionEndId>%\PSCALE %<\AcVar ViewScale \f "%sn">%
 71
     4
 62
   256
 62
   257
300
ANSI31
 40
1.0
 90
        0
290
     0
290
     0
 90
        6
 40
0.0
 40
1.570796326794896
 40
0.2617993877991494
 40
1.308996938995747
 40
-0.2617993877991494
 40
1.832595714594046
  0
ACDBSECTIONVIEWSTYLE
  5
223
102
{ACAD_REACTORS
330
1A8
102
}
330
1A8
100
AcDbModelDocViewStyle
 70
     0
  3
Metric50
290
     0
300
Metric50
 90
        0
100
AcDbSectionViewStyle
 70
     0
 71
     0
 90
      102
 71
     1
340
11
 62
   256
 40
5.0
340
0
340
0
 62
   256
 40
5.0
300
I, O, Q, S, X, Z
 40
10.0
 90
        0
 40
2.5
 90
        0
 71
     2
340
16
 90
       25
 62
   256
340
16
 90
       50
 62
   256
 40
5.0
 40
2.5
 40
5.0
 71
     3
340
11
 62
   256
 40
5.0
 90
        0
 40
15.0
 90
        1
300
%<\AcVar ViewSectionStartId>%-%<\AcVar ViewSectionEndId>% (%<\AcVar ViewScale \f "%sn">%)
 71
     4
 62
   256
 62
   257
300
ANSI31
 40
1.0
 90
        0
290
     0
290
     0
 90
        6
 40
0.0
 40
1.570796326794896
 40
0.2617993877991494
 40
1.308996938995747
 40
-0.2617993877991494
 40
1.832595714594046
  0
TABLESTYLE
  5
87
102
{ACAD_XDICTIONARY
360
104
102
}
102
{ACAD_REACTORS
330
86
102
}
330
86
100
AcDbTableStyle
280
     0
  3
Standard
 70
     0
 71
     0
 40
0.06
 41
0.06
280
     0
281
     0
  7
Standard
140
0.18
170
     2
 62
     0
 63
     7
283
     0
 90
      512
 91
        0
  1

274
    -2
284
     1
 64
     0
275
    -2
285
     1
 65
     0
276
    -2
286
     1
 66
     0
277
    -2
287
     1
 67
     0
278
    -2
288
     1
 68
     0
279
    -2
289
     1
 69
     0
  7
Standard
140
0.25
170
     5
 62
     0
 63
     7
283
     0
 90
      512
 91
        0
  1

274
    -2
284
     1
 64
     0
275
    -2
285
     1
 65
     0
276
    -2
286
     1
 66
     0
277
    -2
287
     1
 67
     0
278
    -2
288
     1
 68
     0
279
    -2
289
     1
 69
     0
  7
Standard
140
0.18
170
     5
 62
     0
 63
     7
283
     0
 90
      512
 91
        0
  1

274
    -2
284
     1
 64
     0
275
    -2
285
     1
 65
     0
276
    -2
286
     1
 66
     0
277
    -2
287
     1
 67
     0
278
    -2
288
     1
 68
     0
279
    -2
289
     1
 69
     0
  0
VISUALSTYLE
  5
9F
102
{ACAD_REACTORS
330
99
102
}
330
99
100
AcDbVisualStyle
  2
2dWireframe
 70
     4
177
     3
291
     0
 70
    58
 90
        0
176
     1
 90
        2
176
     1
 90
        1
176
     1
 90
        0
176
     1
 40
0.6
176
     1
 40
30.0
176
     1
 62
     7
420
 16777215
176
     1
 90
        1
176
     1
 90
        4
176
     1
 62
     7
176
     1
 62
   257
176
     1
 90
        1
176
     1
 90
        1
176
     1
 40
1.0
176
     1
 90
        0
176
     1
 62
   257
176
     1
 40
1.0
176
     1
 90
        1
176
     1
 90
        6
176
     1
 90
        2
176
     1
 62
     7
176
     1
 90
        5
176
     1
 90
        0
176
     1
 90
        0
176
     1
290
     0
176
     1
 90
        1
176
     1
 40
0.0
176
     1
 90
        0
176
     1
290
     1
176
     1
290
     1
176
     1
290
     0
176
     1
290
     0
176
     1
290
     0
176
     1
290
     0
176
     1
290
     0
176
     1
290
     0
176
     1
290
     0
176
     1
 90
       50
176
     1
 40
0.0
176
     1
 40
1.0
176
     1
 90
        0
176
     1
 62
    18
420
        0
176
     1
 90
       50
176
     1
 90
        3
176
     1
 62
     5
420
      255
176
     1
290
     0
176
     1
 90
       50
176
     1
 90
       50
176
     1
 90
       50
176
     1
290
     0
176
     1
 90
       50
176
     1
 62
   256
176
     0
 40
1.0
176
     0
 90
        2
176
     1
  1
strokes_ogs.tif
176
     1
290
     0
176
     1
 40
1.0
176
     1
 40
1.0
176
     1
  0
VISUALSTYLE
  5
2684
102
{ACAD_REACTORS
330
99
102
}
330
99
100
AcDbVisualStyle
  2
3dWireframe
 70
     5
177
     3
291
     0
 70
    58
 90
        0
176
     1
 90
        2
176
     1
 90
        0
176
     1
 90
        0
176
     1
 40
0.6
176
     1
 40
30.0
176
     1
 62
     7
176
     1
 90
        1
176
     1
 90
        4
176
     1
 62
     7
176
     1
 62
   257
176
     1
 90
        1
176
     1
 90
        1
176
     1
 40
1.0
176
     1
 90
        0
176
     1
 62
   257
176
     1
 40
1.0
176
     1
 90
        1
176
     1
 90
        6
176
     1
 90
        2
176
     1
 62
     7
176
     1
 90
        5
176
     1
 90
        0
176
     1
 90
        0
176
     1
290
     0
176
     1
 90
        1
176
     1
 40
0.0
176
     1
 90
        0
176
     1
290
     0
176
     1
290
     1
176
     1
290
     1
176
     1
290
     0
176
     1
290
     0
176
     1
290
     0
176
     1
290
     0
176
     1
290
     0
176
     1
290
     0
176
     1
 90
       50
176
     1
 40
0.0
176
     1
 40
1.0
176
     1
 90
        0
176
     1
 62
    18
420
        0
176
     1
 90
       50
176
     1
 90
        3
176
     1
 62
     5
420
      255
176
     1
290
     0
176
     1
 90
       50
176
     1
 90
       50
176
     1
 90
       50
176
     1
290
     0
176
     1
 90
       50
176
     1
 62
   256
176
     0
 40
1.0
176
     0
 90
        2
176
     1
  1
strokes_ogs.tif
176
     1
290
     0
176
     1
 40
1.0
176
     1
 40
1.0
176
     1
1001
ACAD
1000
AcRTDxfName
1000
VISUALSTYLE
  0
VISUALSTYLE
  5
9E
102
{ACAD_REACTORS
330
99
102
}
330
99
100
AcDbVisualStyle
  2
Basic
 70
     7
177
     3
291
     1
 70
    58
 90
        1
176
     1
 90
        0
176
     1
 90
        1
176
     1
 90
        0
176
     1
 40
0.6
176
     1
 40
30.0
176
     1
 62
     7
420
 16777215
176
     1
 90
        0
176
     1
 90
        4
176
     1
 62
     7
176
     1
 62
   257
176
     1
 90
        1
176
     1
 90
        1
176
     1
 40
1.0
176
     1
 90
        8
176
     1
 62
     7
176
     1
 40
1.0
176
     1
 90
        1
176
     1
 90
        6
176
     1
 90
        2
176
     1
 62
     7
176
     1
 90
        5
176
     1
 90
        0
176
     1
 90
        0
176
     1
290
     0
176
     1
 90
        1
176
     1
 40
0.0
176
     1
 90
        0
176
     1
290
     0
176
     1
290
     1
176
     1
290
     1
176
     1
290
     0
176
     1
290
     0
176
     1
290
     0
176
     1
290
     0
176
     1
290
     0
176
     1
290
     0
176
     1
 90
       50
176
     1
 40
0.0
176
     1
 40
1.0
176
     1
 90
        0
176
     1
 62
    18
420
        0
176
     1
 90
       50
176
     1
 90
        3
176
     1
 62
     5
420
      255
176
     1
290
     0
176
     1
 90
       50
176
     1
 90
       50
176
     1
 90
       50
176
     1
290
     0
176
     1
 90
       50
176
     1
 62
   256
176
     0
 40
1.0
176
     0
 90
        2
176
     1
  1
strokes_ogs.tif
176
     1
290
     0
176
     1
 40
1.0
176
     1
 40
1.0
176
     1
  0
VISUALSTYLE
  5
A5
102
{ACAD_REACTORS
330
99
102
}
330
99
100
AcDbVisualStyle
  2
Brighten
 70
    12
177
     3
291
     1
 70
    58
 90
        2
176
     1
 90
        2
176
     1
 90
        1
176
     1
 90
        0
176
     1
 40
0.6
176
     1
 40
30.0
176
     1
 62
     7
420
 16777215
176
     1
 90
        1
176
     1
 90
        4
176
     1
 62
     7
176
     1
 62
   257
176
     1
 90
        1
176
     1
 90
        1
176
     1
 40
1.0
176
     1
 90
        8
176
     1
 62
     7
176
     1
 40
1.0
176
     1
 90
        1
176
     1
 90
        6
176
     1
 90
        2
176
     1
 62
     7
176
     1
 90
        5
176
     1
 90
        0
176
     1
 90
        0
176
     1
290
     0
176
     1
 90
        1
176
     1
 40
50.0
176
     1
 90
        0
176
     1
290
     0
176
     1
290
     1
176
     1
290
     1
176
     1
290
     0
176
     1
290
     0
176
     1
290
     0
176
     1
290
     0
176
     1
290
     0
176
     1
290
     0
176
     1
 90
       50
176
     1
 40
0.0
176
     1
 40
1.0
176
     1
 90
        0
176
     1
 62
    18
420
        0
176
     1
 90
       50
176
     1
 90
        3
176
     1
 62
     5
420
      255
176
     1
290
     0
176
     1
 90
       50
176
     1
 90
       50
176
     1
 90
       50
176
     1
290
     0
176
     1
 90
       50
176
     1
 62
   256
176
     0
 40
1.0
176
     0
 90
        2
176
     1
  1
strokes_ogs.tif
176
     1
290
     0
176
     1
 40
1.0
176
     1
 40
1.0
176
     1
  0
VISUALSTYLE
  5
A9
102
{ACAD_REACTORS
330
99
102
}
330
99
100
AcDbVisualStyle
  2
ColorChange
 70
    16
177
     3
291
     1
 70
    58
 90
        2
176
     1
 90
        2
176
     1
 90
        3
176
     1
 90
        0
176
     1
 40
0.6
176
     1
 40
30.0
176
     1
 62
     8
420
  8421504
176
     1
 90
        1
176
     1
 90
        4
176
     1
 62
     7
176
     1
 62
   257
176
     1
 90
        1
176
     1
 90
        1
176
     1
 40
1.0
176
     1
 90
        8
176
     1
 62
     8
420
  8421504
176
     1
 40
1.0
176
     1
 90
        1
176
     1
 90
        6
176
     1
 90
        2
176
     1
 62
     7
176
     1
 90
        5
176
     1
 90
        0
176
     1
 90
        0
176
     1
290
     0
176
     1
 90
        1
176
     1
 40
0.0
176
     1
 90
        0
176
     1
290
     0
176
     1
290
     1
176
     1
290
     1
176
     1
290
     0
176
     1
290
     0
176
     1
290
     0
176
     1
290
     0
176
     1
290
     0
176
     1
290
     0
176
     1
 90
       50
176
     1
 40
0.0
176
     1
 40
1.0
176
     1
 90
        0
176
     1
 62
    18
420
        0
176
     1
 90
       50
176
     1
 90
        3
176
     1
 62
     5
420
      255
176
     1
290
     0
176
     1
 90
       50
176
     1
 90
       50
176
     1
 90
       50
176
     1
290
     0
176
     1
 90
       50
176
     1
 62
   256
176
     0
 40
1.0
176
     0
 90
        2
176
     1
  1
strokes_ogs.tif
176
     1
290
     0
176
     1
 40
1.0
176
     1
 40
1.0
176
     1
  0
VISUALSTYLE
  5
A2
102
{ACAD_REACTORS
330
99
102
}
330
99
100
AcDbVisualStyle
  2
Conceptual
 70
     9
177
     3
291
     0
 70
    58
 90
        3
176
     1
 90
        2
176
     1
 90
        1
176
     1
 90
        0
176
     1
 40
0.6
176
     1
 40
30.0
176
     1
 62
     7
420
 16777215
176
     1
 90
        2
176
     1
 90
        2
176
     1
 62
     7
176
     1
 62
   257
176
     1
 90
        1
176
     1
 90
        1
176
     1
 40
40.0
176
     1
 90
        8
176
     1
 62
     7
176
     1
 40
1.0
176
     1
 90
        1
176
     1
 90
        6
176
     1
 90
        2
176
     1
 62
     7
176
     1
 90
        3
176
     1
 90
        0
176
     1
 90
        0
176
     1
290
     0
176
     1
 90
        1
176
     1
 40
0.0
176
     1
 90
        0
176
     1
290
     0
176
     1
290
     1
176
     1
290
     1
176
     1
290
     0
176
     1
290
     0
176
     1
290
     0
176
     1
290
     0
176
     1
290
     0
176
     1
290
     0
176
     1
 90
       50
176
     1
 40
0.0
176
     1
 40
1.0
176
     1
 90
        0
176
     1
 62
    18
420
        0
176
     1
 90
       50
176
     1
 90
        3
176
     1
 62
     5
420
      255
176
     1
290
     0
176
     1
 90
       50
176
     1
 90
       50
176
     1
 90
       50
176
     1
290
     0
176
     1
 90
       50
176
     1
 62
   256
176
     0
 40
1.0
176
     0
 90
        2
176
     1
  1
strokes_ogs.tif
176
     1
290
     0
176
     1
 40
1.0
176
     1
 40
1.0
176
     1
  0
VISUALSTYLE
  5
A4
102
{ACAD_REACTORS
330
99
102
}
330
99
100
AcDbVisualStyle
  2
Dim
 70
    11
177
     3
291
     1
 70
    58
 90
        2
176
     1
 90
        2
176
     1
 90
        1
176
     1
 90
        0
176
     1
 40
0.6
176
     1
 40
30.0
176
     1
 62
     7
420
 16777215
176
     1
 90
        1
176
     1
 90
        4
176
     1
 62
     7
176
     1
 62
   257
176
     1
 90
        1
176
     1
 90
        1
176
     1
 40
1.0
176
     1
 90
        8
176
     1
 62
     7
176
     1
 40
1.0
176
     1
 90
        1
176
     1
 90
        6
176
     1
 90
        2
176
     1
 62
     7
176
     1
 90
        5
176
     1
 90
        0
176
     1
 90
        0
176
     1
290
     0
176
     1
 90
        1
176
     1
 40
-50.0
176
     1
 90
        0
176
     1
290
     0
176
     1
290
     1
176
     1
290
     1
176
     1
290
     0
176
     1
290
     0
176
     1
290
     0
176
     1
290
     0
176
     1
290
     0
176
     1
290
     0
176
     1
 90
       50
176
     1
 40
0.0
176
     1
 40
1.0
176
     1
 90
        0
176
     1
 62
    18
420
        0
176
     1
 90
       50
176
     1
 90
        3
176
     1
 62
     5
420
      255
176
     1
290
     0
176
     1
 90
       50
176
     1
 90
       50
176
     1
 90
       50
176
     1
290
     0
176
     1
 90
       50
176
     1
 62
   256
176
     0
 40
1.0
176
     0
 90
        2
176
     1
  1
strokes_ogs.tif
176
     1
290
     0
176
     1
 40
1.0
176
     1
 40
1.0
176
     1
  0
VISUALSTYLE
  5
175
102
{ACAD_REACTORS
330
99
102
}
330
99
100
AcDbVisualStyle
  2
EdgeColorOff
 70
    22
177
     3
291
     1
 70
    58
 90
        2
176
     0
 90
        2
176
     0
 90
        0
176
     0
 90
        0
176
     0
 40
0.6
176
     0
 40
30.0
176
     0
 62
     7
420
 16777215
176
     0
 90
        1
176
     0
 90
        4
176
     0
 62
     7
176
     0
 62
   257
176
     0
 90
        1
176
     0
 90
        1
176
     0
 40
1.0
176
     0
 90
        8
176
     2
 62
     7
176
     0
 40
1.0
176
     0
 90
        1
176
     0
 90
        6
176
     0
 90
        2
176
     0
 62
     7
176
     0
 90
        5
176
     0
 90
        0
176
     0
 90
        0
176
     0
290
     0
176
     0
 90
        1
176
     0
 40
0.0
176
     0
 90
        0
176
     0
290
     0
176
     1
290
     1
176
     1
290
     1
176
     1
290
     0
176
     1
290
     0
176
     1
290
     0
176
     1
290
     0
176
     1
290
     0
176
     1
290
     0
176
     1
 90
       50
176
     1
 40
0.0
176
     1
 40
1.0
176
     1
 90
        0
176
     1
 62
    18
420
        0
176
     1
 90
       50
176
     1
 90
        3
176
     1
 62
     5
420
      255
176
     1
290
     0
176
     1
 90
       50
176
     1
 90
       50
176
     1
 90
       50
176
     1
290
     0
176
     1
 90
       50
176
     1
 62
   256
176
     0
 40
1.0
176
     0
 90
        2
176
     1
  1
strokes_ogs.tif
176
     1
290
     0
176
     1
 40
1.0
176
     1
 40
1.0
176
     1
  0
VISUALSTYLE
  5
A8
102
{ACAD_REACTORS
330
99
102
}
330
99
100
AcDbVisualStyle
  2
Facepattern
 70
    15
177
     3
291
     1
 70
    58
 90
        2
176
     1
 90
        2
176
     1
 90
        1
176
     1
 90
        0
176
     1
 40
0.6
176
     1
 40
30.0
176
     1
 62
     7
420
 16777215
176
     1
 90
        1
176
     1
 90
        4
176
     1
 62
     7
176
     1
 62
   257
176
     1
 90
        1
176
     1
 90
        1
176
     1
 40
1.0
176
     1
 90
        8
176
     1
 62
     7
176
     1
 40
1.0
176
     1
 90
        1
176
     1
 90
        6
176
     1
 90
        2
176
     1
 62
     7
176
     1
 90
        5
176
     1
 90
        0
176
     1
 90
        0
176
     1
290
     0
176
     1
 90
        1
176
     1
 40
0.0
176
     1
 90
        0
176
     1
290
     0
176
     1
290
     1
176
     1
290
     1
176
     1
290
     0
176
     1
290
     0
176
     1
290
     0
176
     1
290
     0
176
     1
290
     0
176
     1
290
     0
176
     1
 90
       50
176
     1
 40
0.0
176
     1
 40
1.0
176
     1
 90
        0
176
     1
 62
    18
420
        0
176
     1
 90
       50
176
     1
 90
        3
176
     1
 62
     5
420
      255
176
     1
290
     0
176
     1
 90
       50
176
     1
 90
       50
176
     1
 90
       50
176
     1
290
     0
176
     1
 90
       50
176
     1
 62
   256
176
     0
 40
1.0
176
     0
 90
        2
176
     1
  1
strokes_ogs.tif
176
     1
290
     0
176
     1
 40
1.0
176
     1
 40
1.0
176
     1
  0
VISUALSTYLE
  5
9A
102
{ACAD_REACTORS
330
99
102
}
330
99
100
AcDbVisualStyle
  2
Flat
 70
     0
177
     3
291
     1
 70
    58
 90
        2
176
     1
 90
        1
176
     1
 90
        1
176
     1
 90
        2
176
     1
 40
0.6
176
     1
 40
30.0
176
     1
 62
     7
420
 16777215
176
     1
 90
        0
176
     1
 90
        0
176
     1
 62
     7
176
     1
 62
   257
176
     1
 90
        1
176
     1
 90
        1
176
     1
 40
1.0
176
     1
 90
        8
176
     1
 62
     7
176
     1
 40
1.0
176
     1
 90
        1
176
     1
 90
        6
176
     1
 90
        2
176
     1
 62
     7
176
     1
 90
        5
176
     1
 90
        0
176
     1
 90
        0
176
     1
290
     0
176
     1
 90
       13
176
     1
 40
0.0
176
     1
 90
        0
176
     1
290
     0
176
     1
290
     1
176
     1
290
     1
176
     1
290
     0
176
     1
290
     0
176
     1
290
     0
176
     1
290
     0
176
     1
290
     0
176
     1
290
     0
176
     1
 90
       50
176
     1
 40
0.0
176
     1
 40
1.0
176
     1
 90
        0
176
     1
 62
    18
420
        0
176
     1
 90
       50
176
     1
 90
        3
176
     1
 62
     5
420
      255
176
     1
290
     0
176
     1
 90
       50
176
     1
 90
       50
176
     1
 90
       50
176
     1
290
     0
176
     1
 90
       50
176
     1
 62
   256
176
     0
 40
1.0
176
     0
 90
        2
176
     1
  1
strokes_ogs.tif
176
     1
290
     0
176
     1
 40
1.0
176
     1
 40
1.0
176
     1
  0
VISUALSTYLE
  5
9B
102
{ACAD_REACTORS
330
99
102
}
330
99
100
AcDbVisualStyle
  2
FlatWithEdges
 70
     1
177
     3
291
     1
 70
    58
 90
        2
176
     1
 90
        1
176
     1
 90
        1
176
     1
 90
        2
176
     1
 40
0.6
176
     1
 40
30.0
176
     1
 62
     7
420
 16777215
176
     1
 90
        1
176
     1
 90
        0
176
     1
 62
     7
176
     1
 62
   257
176
     1
 90
        1
176
     1
 90
        1
176
     1
 40
1.0
176
     1
 90
        0
176
     1
 62
   257
176
     1
 40
1.0
176
     1
 90
        1
176
     1
 90
        6
176
     1
 90
        2
176
     1
 62
     7
176
     1
 90
        5
176
     1
 90
        0
176
     1
 90
        0
176
     1
290
     0
176
     1
 90
       13
176
     1
 40
0.0
176
     1
 90
        0
176
     1
290
     0
176
     1
290
     1
176
     1
290
     1
176
     1
290
     0
176
     1
290
     0
176
     1
290
     0
176
     1
290
     0
176
     1
290
     0
176
     1
290
     0
176
     1
 90
       50
176
     1
 40
0.0
176
     1
 40
1.0
176
     1
 90
        0
176
     1
 62
    18
420
        0
176
     1
 90
       50
176
     1
 90
        3
176
     1
 62
     5
420
      255
176
     1
290
     0
176
     1
 90
       50
176
     1
 90
       50
176
     1
 90
       50
176
     1
290
     0
176
     1
 90
       50
176
     1
 62
   256
176
     0
 40
1.0
176
     0
 90
        2
176
     1
  1
strokes_ogs.tif
176
     1
290
     0
176
     1
 40
1.0
176
     1
 40
1.0
176
     1
  0
VISUALSTYLE
  5
9C
102
{ACAD_REACTORS
330
99
102
}
330
99
100
AcDbVisualStyle
  2
Gouraud
 70
     2
177
     3
291
     1
 70
    58
 90
        2
176
     1
 90
        2
176
     1
 90
        1
176
     1
 90
        2
176
     1
 40
0.6
176
     1
 40
30.0
176
     1
 62
     7
420
 16777215
176
     1
 90
        0
176
     1
 90
        0
176
     1
 62
     7
176
     1
 62
   257
176
     1
 90
        1
176
     1
 90
        1
176
     1
 40
1.0
176
     1
 90
        0
176
     1
 62
     7
176
     1
 40
1.0
176
     1
 90
        1
176
     1
 90
        6
176
     1
 90
        2
176
     1
 62
     7
176
     1
 90
        5
176
     1
 90
        0
176
     1
 90
        0
176
     1
290
     0
176
     1
 90
       13
176
     1
 40
0.0
176
     1
 90
        0
176
     1
290
     0
176
     1
290
     1
176
     1
290
     1
176
     1
290
     0
176
     1
290
     0
176
     1
290
     0
176
     1
290
     0
176
     1
290
     0
176
     1
290
     0
176
     1
 90
       50
176
     1
 40
0.0
176
     1
 40
1.0
176
     1
 90
        0
176
     1
 62
    18
420
        0
176
     1
 90
       50
176
     1
 90
        3
176
     1
 62
     5
420
      255
176
     1
290
     0
176
     1
 90
       50
176
     1
 90
       50
176
     1
 90
       50
176
     1
290
     0
176
     1
 90
       50
176
     1
 62
   256
176
     0
 40
1.0
176
     0
 90
        2
176
     1
  1
strokes_ogs.tif
176
     1
290
     0
176
     1
 40
1.0
176
     1
 40
1.0
176
     1
  0
VISUALSTYLE
  5
9D
102
{ACAD_REACTORS
330
99
102
}
330
99
100
AcDbVisualStyle
  2
GouraudWithEdges
 70
     3
177
     3
291
     1
 70
    58
 90
        2
176
     1
 90
        2
176
     1
 90
        1
176
     1
 90
        2
176
     1
 40
0.6
176
     1
 40
30.0
176
     1
 62
     7
420
 16777215
176
     1
 90
        1
176
     1
 90
        0
176
     1
 62
     7
176
     1
 62
   257
176
     1
 90
        1
176
     1
 90
        1
176
     1
 40
1.0
176
     1
 90
        0
176
     1
 62
   257
176
     1
 40
1.0
176
     1
 90
        1
176
     1
 90
        6
176
     1
 90
        2
176
     1
 62
     7
176
     1
 90
        5
176
     1
 90
        0
176
     1
 90
        0
176
     1
290
     0
176
     1
 90
       13
176
     1
 40
0.0
176
     1
 90
        0
176
     1
290
     0
176
     1
290
     1
176
     1
290
     1
176
     1
290
     0
176
     1
290
     0
176
     1
290
     0
176
     1
290
     0
176
     1
290
     0
176
     1
290
     0
176
     1
 90
       50
176
     1
 40
0.0
176
     1
 40
1.0
176
     1
 90
        0
176
     1
 62
    18
420
        0
176
     1
 90
       50
176
     1
 90
        3
176
     1
 62
     5
420
      255
176
     1
290
     0
176
     1
 90
       50
176
     1
 90
       50
176
     1
 90
       50
176
     1
290
     0
176
     1
 90
       50
176
     1
 62
   256
176
     0
 40
1.0
176
     0
 90
        2
176
     1
  1
strokes_ogs.tif
176
     1
290
     0
176
     1
 40
1.0
176
     1
 40
1.0
176
     1
  0
VISUALSTYLE
  5
A1
102
{ACAD_REACTORS
330
99
102
}
330
99
100
AcDbVisualStyle
  2
Hidden
 70
     6
177
     3
291
     0
 70
    58
 90
        1
176
     1
 90
        2
176
     1
 90
        2
176
     1
 90
        0
176
     1
 40
0.6
176
     1
 40
30.0
176
     1
 62
     7
420
 16777215
176
     1
 90
        2
176
     1
 90
        2
176
     1
 62
     7
176
     1
 62
   257
176
     1
 90
        2
176
     1
 90
        1
176
     1
 40
40.0
176
     1
 90
        0
176
     1
 62
   257
176
     1
 40
1.0
176
     1
 90
        1
176
     1
 90
        6
176
     1
 90
        2
176
     1
 62
     7
176
     1
 90
        3
176
     1
 90
        0
176
     1
 90
        0
176
     1
290
     0
176
     1
 90
        1
176
     1
 40
0.0
176
     1
 90
        0
176
     1
290
     0
176
     1
290
     1
176
     1
290
     1
176
     1
290
     0
176
     1
290
     0
176
     1
290
     0
176
     1
290
     0
176
     1
290
     0
176
     1
290
     0
176
     1
 90
       50
176
     1
 40
0.0
176
     1
 40
1.0
176
     1
 90
        0
176
     1
 62
    18
420
        0
176
     1
 90
       50
176
     1
 90
        3
176
     1
 62
     5
420
      255
176
     1
290
     0
176
     1
 90
       50
176
     1
 90
       50
176
     1
 90
       50
176
     1
290
     0
176
     1
 90
       50
176
     1
 62
   256
176
     0
 40
1.0
176
     0
 90
        2
176
     1
  1
strokes_ogs.tif
176
     1
290
     0
176
     1
 40
1.0
176
     1
 40
1.0
176
     1
  0
VISUALSTYLE
  5
173
102
{ACAD_REACTORS
330
99
102
}
330
99
100
AcDbVisualStyle
  2
JitterOff
 70
    20
177
     3
291
     1
 70
    58
 90
        2
176
     0
 90
        2
176
     0
 90
        0
176
     0
 90
        0
176
     0
 40
0.6
176
     0
 40
30.0
176
     0
 62
     7
420
 16777215
176
     0
 90
        1
176
     0
 90
        4
176
     0
 62
     7
176
     0
 62
   257
176
     0
 90
        1
176
     0
 90
        1
176
     0
 40
1.0
176
     0
 90
       10
176
     2
 62
     7
176
     0
 40
1.0
176
     0
 90
        1
176
     0
 90
        6
176
     0
 90
        2
176
     0
 62
     7
176
     0
 90
        5
176
     0
 90
        0
176
     0
 90
        0
176
     0
290
     0
176
     0
 90
        1
176
     0
 40
0.0
176
     0
 90
        0
176
     0
290
     0
176
     1
290
     1
176
     1
290
     1
176
     1
290
     0
176
     1
290
     0
176
     1
290
     0
176
     1
290
     0
176
     1
290
     0
176
     1
290
     0
176
     1
 90
       50
176
     1
 40
0.0
176
     1
 40
1.0
176
     1
 90
        0
176
     1
 62
    18
420
        0
176
     1
 90
       50
176
     1
 90
        3
176
     1
 62
     5
420
      255
176
     1
290
     0
176
     1
 90
       50
176
     1
 90
       50
176
     1
 90
       50
176
     1
290
     0
176
     1
 90
       50
176
     1
 62
   256
176
     0
 40
1.0
176
     0
 90
        2
176
     1
  1
strokes_ogs.tif
176
     1
290
     0
176
     1
 40
1.0
176
     1
 40
1.0
176
     1
  0
VISUALSTYLE
  5
A7
102
{ACAD_REACTORS
330
99
102
}
330
99
100
AcDbVisualStyle
  2
Linepattern
 70
    14
177
     3
291
     1
 70
    58
 90
        2
176
     1
 90
        2
176
     1
 90
        1
176
     1
 90
        0
176
     1
 40
0.6
176
     1
 40
30.0
176
     1
 62
     7
420
 16777215
176
     1
 90
        1
176
     1
 90
        4
176
     1
 62
     7
176
     1
 62
   257
176
     1
 90
        7
176
     1
 90
        7
176
     1
 40
1.0
176
     1
 90
        8
176
     1
 62
     7
176
     1
 40
1.0
176
     1
 90
        1
176
     1
 90
        6
176
     1
 90
        2
176
     1
 62
     7
176
     1
 90
        5
176
     1
 90
        0
176
     1
 90
        0
176
     1
290
     0
176
     1
 90
        1
176
     1
 40
0.0
176
     1
 90
        0
176
     1
290
     0
176
     1
290
     1
176
     1
290
     1
176
     1
290
     0
176
     1
290
     0
176
     1
290
     0
176
     1
290
     0
176
     1
290
     0
176
     1
290
     0
176
     1
 90
       50
176
     1
 40
0.0
176
     1
 40
1.0
176
     1
 90
        0
176
     1
 62
    18
420
        0
176
     1
 90
       50
176
     1
 90
        3
176
     1
 62
     5
420
      255
176
     1
290
     0
176
     1
 90
       50
176
     1
 90
       50
176
     1
 90
       50
176
     1
290
     0
176
     1
 90
       50
176
     1
 62
   256
176
     0
 40
1.0
176
     0
 90
        2
176
     1
  1
strokes_ogs.tif
176
     1
290
     0
176
     1
 40
1.0
176
     1
 40
1.0
176
     1
  0
VISUALSTYLE
  5
174
102
{ACAD_REACTORS
330
99
102
}
330
99
100
AcDbVisualStyle
  2
OverhangOff
 70
    21
177
     3
291
     1
 70
    58
 90
        2
176
     0
 90
        2
176
     0
 90
        0
176
     0
 90
        0
176
     0
 40
0.6
176
     0
 40
30.0
176
     0
 62
     7
420
 16777215
176
     0
 90
        1
176
     0
 90
        4
176
     0
 62
     7
176
     0
 62
   257
176
     0
 90
        1
176
     0
 90
        1
176
     0
 40
1.0
176
     0
 90
        9
176
     2
 62
     7
176
     0
 40
1.0
176
     0
 90
        1
176
     0
 90
        6
176
     0
 90
        2
176
     0
 62
     7
176
     0
 90
        5
176
     0
 90
        0
176
     0
 90
        0
176
     0
290
     0
176
     0
 90
        1
176
     0
 40
0.0
176
     0
 90
        0
176
     0
290
     0
176
     1
290
     1
176
     1
290
     1
176
     1
290
     0
176
     1
290
     0
176
     1
290
     0
176
     1
290
     0
176
     1
290
     0
176
     1
290
     0
176
     1
 90
       50
176
     1
 40
0.0
176
     1
 40
1.0
176
     1
 90
        0
176
     1
 62
    18
420
        0
176
     1
 90
       50
176
     1
 90
        3
176
     1
 62
     5
420
      255
176
     1
290
     0
176
     1
 90
       50
176
     1
 90
       50
176
     1
 90
       50
176
     1
290
     0
176
     1
 90
       50
176
     1
 62
   256
176
     0
 40
1.0
176
     0
 90
        2
176
     1
  1
strokes_ogs.tif
176
     1
290
     0
176
     1
 40
1.0
176
     1
 40
1.0
176
     1
  0
VISUALSTYLE
  5
A3
102
{ACAD_REACTORS
330
99
102
}
330
99
100
AcDbVisualStyle
  2
Realistic
 70
     8
177
     3
291
     0
 70
    58
 90
        2
176
     1
 90
        2
176
     1
 90
        0
176
     1
 90
        2
176
     1
 40
0.6
176
     1
 40
30.0
176
     1
 62
     7
420
 16777215
176
     1
 90
        0
176
     1
 90
        0
176
     1
 62
     7
176
     1
 62
   257
176
     1
 90
        1
176
     1
 90
        1
176
     1
 40
1.0
176
     1
 90
        8
176
     1
 62
   257
176
     1
 40
1.0
176
     1
 90
        1
176
     1
 90
        6
176
     1
 90
        2
176
     1
 62
     7
176
     1
 90
        3
176
     1
 90
        0
176
     1
 90
        0
176
     1
290
     0
176
     1
 90
       13
176
     1
 40
0.0
176
     1
 90
        0
176
     1
290
     0
176
     1
290
     1
176
     1
290
     1
176
     1
290
     0
176
     1
290
     0
176
     1
290
     0
176
     1
290
     0
176
     1
290
     0
176
     1
290
     0
176
     1
 90
       50
176
     1
 40
0.0
176
     1
 40
1.0
176
     1
 90
        0
176
     1
 62
    18
420
        0
176
     1
 90
       50
176
     1
 90
        3
176
     1
 62
     5
420
      255
176
     1
290
     0
176
     1
 90
       50
176
     1
 90
       50
176
     1
 90
       50
176
     1
290
     0
176
     1
 90
       50
176
     1
 62
   256
176
     0
 40
1.0
176
     0
 90
        2
176
     1
  1
strokes_ogs.tif
176
     1
290
     0
176
     1
 40
1.0
176
     1
 40
1.0
176
     1
  0
VISUALSTYLE
  5
182
102
{ACAD_REACTORS
330
99
102
}
330
99
100
AcDbVisualStyle
  2
Shaded
 70
    27
177
     3
291
     0
 70
    58
 90
        2
176
     1
 90
        2
176
     1
 90
        1
176
     1
 90
        2
176
     1
 40
0.6
176
     1
 40
30.0
176
     1
 62
     7
420
 16777215
176
     1
 90
        0
176
     1
 90
        4
176
     1
 62
     7
176
     1
 62
   257
176
     1
 90
        1
176
     1
 90
        1
176
     1
 40
1.0
176
     1
 90
        8
176
     1
 62
   257
176
     1
 40
1.0
176
     1
 90
        1
176
     1
 90
        6
176
     1
 90
        2
176
     1
 62
     8
420
  7895160
176
     1
 90
        3
176
     1
 90
        0
176
     1
 90
        0
176
     1
290
     0
176
     1
 90
        5
176
     1
 40
0.0
176
     1
 90
        0
176
     1
290
     0
176
     1
290
     1
176
     1
290
     1
176
     1
290
     0
176
     1
290
     0
176
     1
290
     0
176
     1
290
     0
176
     1
290
     0
176
     1
290
     0
176
     1
 90
       50
176
     1
 40
0.0
176
     1
 40
1.0
176
     1
 90
        0
176
     1
 62
    18
420
        0
176
     1
 90
       50
176
     1
 90
        3
176
     1
 62
     5
420
      255
176
     1
290
     0
176
     1
 90
       50
176
     1
 90
       50
176
     1
 90
       50
176
     1
290
     0
176
     1
 90
       50
176
     1
 62
   256
176
     0
 40
1.0
176
     0
 90
        2
176
     1
  1
strokes_ogs.tif
176
     1
290
     0
176
     1
 40
1.0
176
     1
 40
1.0
176
     1
  0
VISUALSTYLE
  5
181
102
{ACAD_REACTORS
330
99
102
}
330
99
100
AcDbVisualStyle
  2
Shaded with edges
 70
    26
177
     3
291
     0
 70
    58
 90
        2
176
     1
 90
        2
176
     1
 90
        1
176
     1
 90
        2
176
     1
 40
0.6
176
     1
 40
30.0
176
     1
 62
     7
420
 16777215
176
     1
 90
        1
176
     1
 90
        2
176
     1
 62
     7
176
     1
 62
   257
176
     1
 90
        2
176
     1
 90
        1
176
     1
 40
1.0
176
     1
 90
        8
176
     1
 62
   257
176
     1
 40
1.0
176
     1
 90
        1
176
     1
 90
        6
176
     1
 90
        2
176
     1
 62
     7
176
     1
 90
        3
176
     1
 90
        0
176
     1
 90
        0
176
     1
290
     0
176
     1
 90
        5
176
     1
 40
0.0
176
     1
 90
        0
176
     1
290
     0
176
     1
290
     1
176
     1
290
     1
176
     1
290
     0
176
     1
290
     0
176
     1
290
     0
176
     1
290
     0
176
     1
290
     0
176
     1
290
     0
176
     1
 90
       50
176
     1
 40
0.0
176
     1
 40
1.0
176
     1
 90
        0
176
     1
 62
    18
420
        0
176
     1
 90
       50
176
     1
 90
        3
176
     1
 62
     5
420
      255
176
     1
290
     0
176
     1
 90
       50
176
     1
 90
       50
176
     1
 90
       50
176
     1
290
     0
176
     1
 90
       50
176
     1
 62
   256
176
     0
 40
1.0
176
     0
 90
        2
176
     1
  1
strokes_ogs.tif
176
     1
290
     0
176
     1
 40
1.0
176
     1
 40
1.0
176
     1
  0
VISUALSTYLE
  5
17E
102
{ACAD_REACTORS
330
99
102
}
330
99
100
AcDbVisualStyle
  2
Shades of Gray
 70
    23
177
     3
291
     0
 70
    58
 90
        2
176
     1
 90
        2
176
     1
 90
        3
176
     1
 90
        0
176
     1
 40
0.6
176
     1
 40
30.0
176
     1
 62
     7
420
 16777215
176
     1
 90
        2
176
     1
 90
        2
176
     1
 62
     7
176
     1
 62
     7
176
     1
 90
        1
176
     1
 90
        1
176
     1
 40
40.0
176
     1
 90
        8
176
     1
 62
     7
176
     1
 40
1.0
176
     1
 90
        1
176
     1
 90
        6
176
     1
 90
        2
176
     1
 62
     7
176
     1
 90
        3
176
     1
 90
        0
176
     1
 90
        0
176
     1
290
     0
176
     1
 90
        1
176
     1
 40
0.0
176
     1
 90
        0
176
     1
290
     0
176
     1
290
     1
176
     1
290
     1
176
     1
290
     0
176
     1
290
     0
176
     1
290
     0
176
     1
290
     0
176
     1
290
     0
176
     1
290
     0
176
     1
 90
       50
176
     1
 40
0.0
176
     1
 40
1.0
176
     1
 90
        0
176
     1
 62
    18
420
        0
176
     1
 90
       50
176
     1
 90
        3
176
     1
 62
     5
420
      255
176
     1
290
     0
176
     1
 90
       50
176
     1
 90
       50
176
     1
 90
       50
176
     1
290
     0
176
     1
 90
       50
176
     1
 62
   256
176
     0
 40
1.0
176
     0
 90
        2
176
     1
  1
strokes_ogs.tif
176
     1
290
     0
176
     1
 40
1.0
176
     1
 40
1.0
176
     1
  0
VISUALSTYLE
  5
17F
102
{ACAD_REACTORS
330
99
102
}
330
99
100
AcDbVisualStyle
  2
Sketchy
 70
    24
177
     3
291
     0
 70
    58
 90
        1
176
     1
 90
        2
176
     1
 90
        2
176
     1
 90
        0
176
     1
 40
0.6
176
     1
 40
30.0
176
     1
 62
     7
420
 16777215
176
     1
 90
        2
176
     1
 90
        2
176
     1
 62
     7
176
     1
 62
     7
176
     1
 90
        1
176
     1
 90
        1
176
     1
 40
40.0
176
     1
 90
       11
176
     1
 62
     7
176
     1
 40
1.0
176
     1
 90
        1
176
     1
 90
        6
176
     1
 90
        2
176
     1
 62
     7
176
     1
 90
        6
176
     1
 90
        0
176
     1
 90
        0
176
     1
290
     0
176
     1
 90
        1
176
     1
 40
0.0
176
     1
 90
        0
176
     1
290
     0
176
     1
290
     1
176
     1
290
     1
176
     1
290
     0
176
     1
290
     0
176
     1
290
     0
176
     1
290
     0
176
     1
290
     0
176
     1
290
     0
176
     1
 90
       50
176
     1
 40
0.0
176
     1
 40
1.0
176
     1
 90
        0
176
     1
 62
    18
420
        0
176
     1
 90
       50
176
     1
 90
        3
176
     1
 62
     5
420
      255
176
     1
290
     0
176
     1
 90
       50
176
     1
 90
       50
176
     1
 90
       50
176
     1
290
     0
176
     1
 90
       50
176
     1
 62
   256
176
     0
 40
1.0
176
     0
 90
        2
176
     1
  1
strokes_ogs.tif
176
     1
290
     0
176
     1
 40
1.0
176
     1
 40
1.0
176
     1
  0
VISUALSTYLE
  5
A6
102
{ACAD_REACTORS
330
99
102
}
330
99
100
AcDbVisualStyle
  2
Thicken
 70
    13
177
     3
291
     1
 70
    58
 90
        2
176
     1
 90
        2
176
     1
 90
        1
176
     1
 90
        0
176
     1
 40
0.6
176
     1
 40
30.0
176
     1
 62
     7
420
 16777215
176
     1
 90
        1
176
     1
 90
        4
176
     1
 62
     7
176
     1
 62
   257
176
     1
 90
        1
176
     1
 90
        1
176
     1
 40
1.0
176
     1
 90
       12
176
     1
 62
     7
176
     1
 40
1.0
176
     1
 90
        1
176
     1
 90
        6
176
     1
 90
        2
176
     1
 62
     7
176
     1
 90
        5
176
     1
 90
        0
176
     1
 90
        0
176
     1
290
     0
176
     1
 90
        1
176
     1
 40
0.0
176
     1
 90
        0
176
     1
290
     0
176
     1
290
     1
176
     1
290
     1
176
     1
290
     0
176
     1
290
     0
176
     1
290
     0
176
     1
290
     0
176
     1
290
     0
176
     1
290
     0
176
     1
 90
       50
176
     1
 40
0.0
176
     1
 40
1.0
176
     1
 90
        0
176
     1
 62
    18
420
        0
176
     1
 90
       50
176
     1
 90
        3
176
     1
 62
     5
420
      255
176
     1
290
     0
176
     1
 90
       50
176
     1
 90
       50
176
     1
 90
       50
176
     1
290
     0
176
     1
 90
       50
176
     1
 62
   256
176
     0
 40
1.0
176
     0
 90
        2
176
     1
  1
strokes_ogs.tif
176
     1
290
     0
176
     1
 40
1.0
176
     1
 40
1.0
176
     1
  0
VISUALSTYLE
  5
A0
102
{ACAD_REACTORS
330
99
102
}
330
99
100
AcDbVisualStyle
  2
Wireframe
 70
     5
177
     3
291
     0
 70
    58
 90
        0
176
     1
 90
        2
176
     1
 90
        0
176
     1
 90
        0
176
     1
 40
0.6
176
     1
 40
30.0
176
     1
 62
     7
420
 16777215
176
     1
 90
        1
176
     1
 90
        4
176
     1
 62
     7
176
     1
 62
   257
176
     1
 90
        1
176
     1
 90
        1
176
     1
 40
1.0
176
     1
 90
        0
176
     1
 62
   257
176
     1
 40
1.0
176
     1
 90
        1
176
     1
 90
        6
176
     1
 90
        2
176
     1
 62
     7
176
     1
 90
        3
176
     1
 90
        0
176
     1
 90
        0
176
     1
290
     0
176
     1
 90
        1
176
     1
 40
0.0
176
     1
 90
        0
176
     1
290
     0
176
     1
290
     1
176
     1
290
     1
176
     1
290
     0
176
     1
290
     0
176
     1
290
     0
176
     1
290
     0
176
     1
290
     0
176
     1
290
     0
176
     1
 90
       50
176
     1
 40
0.0
176
     1
 40
1.0
176
     1
 90
        0
176
     1
 62
    18
420
        0
176
     1
 90
       50
176
     1
 90
        3
176
     1
 62
     5
420
      255
176
     1
290
     0
176
     1
 90
       50
176
     1
 90
       50
176
     1
 90
       50
176
     1
290
     0
176
     1
 90
       50
176
     1
 62
   256
176
     0
 40
1.0
176
     0
 90
        2
176
     1
  1
strokes_ogs.tif
176
     1
290
     0
176
     1
 40
1.0
176
     1
 40
1.0
176
     1
  0
VISUALSTYLE
  5
180
102
{ACAD_REACTORS
330
99
102
}
330
99
100
AcDbVisualStyle
  2
X-Ray
 70
    25
177
     3
291
     0
 70
    58
 90
        2
176
     1
 90
        2
176
     1
 90
        1
176
     1
 90
        1
176
     1
 40
0.5
176
     1
 40
30.0
176
     1
 62
     7
420
 16777215
176
     1
 90
        1
176
     1
 90
        0
176
     1
 62
     7
176
     1
 62
   257
176
     1
 90
        1
176
     1
 90
        1
176
     1
 40
1.0
176
     1
 90
        8
176
     1
 62
     7
176
     1
 40
1.0
176
     1
 90
        1
176
     1
 90
        6
176
     1
 90
        2
176
     1
 62
     7
176
     1
 90
        3
176
     1
 90
        0
176
     1
 90
        0
176
     1
290
     0
176
     1
 90
       13
176
     1
 40
0.0
176
     1
 90
        0
176
     1
290
     0
176
     1
290
     1
176
     1
290
     1
176
     1
290
     0
176
     1
290
     0
176
     1
290
     0
176
     1
290
     0
176
     1
290
     0
176
     1
290
     0
176
     1
 90
       50
176
     1
 40
0.0
176
     1
 40
1.0
176
     1
 90
        0
176
     1
 62
    18
420
        0
176
     1
 90
       50
176
     1
 90
        3
176
     1
 62
     5
420
      255
176
     1
290
     0
176
     1
 90
       50
176
     1
 90
       50
176
     1
 90
       50
176
     1
290
     0
176
     1
 90
       50
176
     1
 62
   256
176
     0
 40
1.0
176
     0
 90
        2
176
     1
  1
strokes_ogs.tif
176
     1
290
     0
176
     1
 40
1.0
176
     1
 40
1.0
176
     1
  0
DICTIONARYVAR
  5
F0
102
{ACAD_REACTORS
330
66
102
}
330
66
100
DictionaryVariables
280
     0
  1
1:1
  0
DICTIONARYVAR
  5
EF
102
{ACAD_REACTORS
330
66
102
}
330
66
100
DictionaryVariables
280
     0
  1
STANDARD
  0
DICTIONARYVAR
  5
89
102
{ACAD_REACTORS
330
66
102
}
330
66
100
DictionaryVariables
280
     0
  1
STANDARD
  0
DICTIONARYVAR
  5
1B7
102
{ACAD_REACTORS
330
66
102
}
330
66
100
DictionaryVariables
280
     0
  1
Imperial24
  0
DICTIONARYVAR
  5
1B8
102
{ACAD_REACTORS
330
66
102
}
330
66
100
DictionaryVariables
280
     0
  1
Imperial24
  0
DICTIONARYVAR
  5
67
102
{ACAD_REACTORS
330
66
102
}
330
66
100
DictionaryVariables
280
     0
  1
2
  0
DICTIONARYVAR
  5
6B
102
{ACAD_REACTORS
330
66
102
}
330
66
100
DictionaryVariables
280
     0
  1
1
  0
DICTIONARYVAR
  5
14D
102
{ACAD_REACTORS
330
66
102
}
330
66
100
DictionaryVariables
280
     0
  1
0
  0
DICTIONARYVAR
  5
14E
102
{ACAD_REACTORS
330
66
102
}
330
66
100
DictionaryVariables
280
     0
  1
0
  0
DICTIONARY
  5
194
330
22
100
AcDbDictionary
280
     1
281
     1
  0
DICTIONARY
  5
188
330
97
100
AcDbDictionary
280
     1
281
     1
  3
FBXASSET
360
189
  0
DICTIONARY
  5
186
330
96
100
AcDbDictionary
280
     1
281
     1
  3
FBXASSET
360
187
  0
DICTIONARY
  5
110
330
98
100
AcDbDictionary
280
     1
281
     1
  3
BUMPTILE
360
112
  3
DIFFUSETILE
360
111
  3
FBXASSET
360
18A
  3
OPACITYTILE
360
113
  3
REFLECTIONTILE
360
114
  0
DICTIONARY
  5
104
330
87
100
AcDbDictionary
280
     1
281
     1
  3
ACAD_ROUNDTRIP_2008_TABLESTYLE_CELLSTYLEMAP
360
2FC2C
  0
XRECORD
  5
189
102
{ACAD_REACTORS
330
188
102
}
330
188
100
AcDbXrecord
280
     1
 70
     1
 90
429727718
  1
508B35C9-AEE7-456F-BE74-D52651303AC6
310
504B03040A0000080000B670623B3DEE336E79000000790000001B0000006175746F6465736B2D64657369676E2D7061636B6167652E786D6C3C3F786D6C2076657273696F6E3D22312E302220656E636F64696E673D227574662D3822203F3E3C666F726D6174733E3C666F726D61743E687474703A2F2F736368656D612E
310
6175746F6465736B2E636F6D2F64657369676E2D7061636B6167652F323030393C2F666F726D61743E3C2F666F726D6174733E504B0304140006080800B670623BD486FD9CA0000000F4000000130000005B436F6E74656E745F54797065735D2E786D6C7D8EC10E82300C865F65E91D8A1E8C310C0EEA1BF002731658846E
310
D98AC1B77784ABF1D8FE5FBFBF75BBCE937A534CCEB38643598122B6FEE978D0B0485F9C41B54DDD7D022595594E1A469170414C76A4D9A4D207E29CF43ECE46F218070CC6BECC4078ACAA135ACF422C856C0E68EA1BF5669944DDD7BCDE7B1F8E415D77AECB980613C2E4AC91FC167A2B244592486606FC29C8FD7F045B9A
310
EF7053A7E60B504B0304140006080800B670623B28ED286BEB0000007C01000008000000636F72652E786D6C8D90416EC3201045AF82665B6183218D6D61A254764FD00B204C5C94182C03558F5F9C3852BBEB6A467FFE9B197D71FA9E6FE8CBACC17AD7012D0820E3B41FAD9B3A48F1826B40272956EFE32F1B20A766D3C1
310
268314D3EAD3B24BDABB685CCCAAF3A3D94515828980F42D371D04FD696655A814B3235C8B45E9AB9A4C419F5D8653B2237A1CB163DE672FD6AC209BF3C08E0D1B30EB19C3FC9D72FCC6EB231EFA33EDE96BDD341517E5064B11EDFCBCAF57A3A2194156843498524CAA0FCA5B7268F9E185D42D21A2DCEC7FA0B48CFF8492
310
759155FBBB0F2C80A4F991FB408A72CB22977B50B96EB9C91F504B0304140006080800B670623B55019EA25F0000007C00000007000000636E782E786D6C4DCB3B0E80201045D1AD90E915ED2CF8AC45050C11660C8261F98AB1B07AC9C97D42D718D865D3E909258CFD00CCE24AC6E326A164D74DC0B4128928FF32603847
310
2BA13128B1252AC747C6BAB984FC68F0B87FE8960A5C09FE86CFB69FBA01504B0304140006080800B670623B7BC41AC871010000D40300000C0000006662782F636F72652E786D6CC553ED6E8320147D15C2DF4501B56B6D90A64BBB27D80B50A5CE54C120983EFEAE1F4DD7A56BBA5FF3879273EEE59E7310BE393735EA95
310
ED2AA333CC428A91D2B9292A5D66D8BB63B0C26823B835C67D2BC348CB46657880B1E0A535BE9DA1DC68A7B403549B42CDA0EC3AE530CA6B5864B8CB3F552343E91D5474A7B095F949962A6421D0502778E72C0840D390E18DC5F170E664C205F7BE2A66B62A605A75AC94C522DDEEE3651AEF837817C741F2CE92E02D592D
310
83FD6ECB76EC7595A651C2C9D02CB8AB9A8BBADC2AE954814544691A3016D0E883256BBA58278B17BA5A53CAC9507ED3E4DBE2C9265F691747B3DCA9ADC382819091F8E1162272A8933DE82182932144F88C09DF060D8140C84E1EEA8B8F1340BDCA9DB1093085F157AA97B557309586747CD0EF0B4EA64E983A6E0EAEEFCE
310
889E9EF17847386AA94B30211D2C0FDE0D3AF9A4610EAD5536E8DD1969631B593F67E381C33F5157F17725E5A636F6BF1491F980C8FC7B90E13E8A2F504B0304140006080800B670623B70102A487D0000009D0000000B0000006662782F636E782E786D6C4DCCD10A83201886E15B91FFDC95A5C30335ACCDFB886521330D
310
A76397BF1A1DECE883878F57749FD5A3B74D2F17830472A901D9F088930B8B849267CC01754AA418F3DF0D5018572BE160506249B16C274D761E8BCFBB7A179E27F65CB39A0F14D396184C9921B81F34C3ACA1B4B99ABB6E6F062A25AA5F69DF23ACBE504B0304140006080800B670623B3610CA3329010000120200003100
310
00006662782F42384135303843342D343331462D343546312D424341352D3532343432364645413344462F636F72652E786D6C8D515B6EC32010BC0AE22B55850D0E446E848992B43E412FE000495162B07854397EA176A4F62F3F2C9A9D991D58BEBB8F37F0AD7D30CE76905418026DA553C65E3A98E219B510EC04F7CEC5
310
3F3408EC30EA0E16180A7EF12E4D0B249D8DDAC68C5AA7F4020E21E80881BCE54B0783FCD2E3500D296646B856D320AFC34557A4CAEDCC133C449F0380794839A138B47B86DB2345744D7A44594FD0E1B867883594369BFE63BF7EEF793D0B054FC9A8456E548E63CE46FB674D8A58F068C6477CE9F510B582A2C1F80D1182
310
70F349E816B32D65AFB8DD62CCEB42FF274A937A52948C8DEB66893BCB021484D7734370E5D2E9F608A3EF93F3119479ABA0E50B14B8C298119A43CCC4FCFCECB8A18B6388CEE7EF5D5D4F994BD86CBBA182D76543B9FCAE2FD7B24DF103504B0304140006080800B670623B1B8617914E0100003303000030000000666278
310
2F42384135303843342D343331462D343546312D424341352D3532343432364645413344462F636E782E786D6CD593C16EC32010447F0571AD6CE3D489D20813A9877E410FBD62D82434182CC055F3F75D1292E692438FBD206B7698593D61BEFD1E2DF982108D773D6D6B460938E5B571FB9ECE6957AD29D90A1EBC4F7736
310
4A9C1CA1A759A682EF839FA72269D8C9D92654AD71C72206887E0E0A22CAF926B15E498B01E0AA19451807D01A34B919F16B070157417138917400F2F6FA41FCF0092A45DEE414C19BDC21783E4BD39D891265658C3D8DEA00A3ACE59CBC8678ACB54CB26EEB6BD7839D7E9348BE70AD9C8321B9BCA7F9A4A26C542347DEE0
310
50F09802D22BA6749A800A394DD62899107273365E3C82CFC6A55557BC06C10774B7ABE7AEC3B0F34CF06446280E154026D0542C187BA9DAB6628BF7B6DBB0E5A65B3EB1F58631DE64BBE083F7B65CC218087E22CABB042E51D1F2268F1FE12B3EA24D40D63E9CFE00120194D60B9D5BC67FE6D39CDF37E20AF817881F504B
310
0304140006080800B670623BBFEF2E3B690500003C100000340000006662782F42384135303843342D343331462D343546312D424341352D3532343432364645413344462F6F626A656374732E786D6CAD575D739B3814FD2B0CFB0C98D84E931D4227B6938EA793B6534F3BFB90198F0099B001899144EAECAFDF231018B0
310
D37A3FFC609090EEE7B94757C1FB7D915B2F54C88CB31BDB7727B64559CC938CA53776A576CE956DBD0F03C1B9EA2DB32D460A7A63EB693B0C52C1ABD24C257447AA5C8D66EF177F5832A68CDA569C13296F6C193FD182B8A4523CA1F2D94D88226EBADBBBBEDB2C1C8A4D05299F46424B222853B014F30C52ACC6287F389C
310
D85E1878FA7B18E87FB36AFAF62AAFF667A83F635211161F291B8999FAB3D5DDC5FCDA99CF6653677679E13B8BFBC5CAF1DF4D27CBCBE5F2FAF6EE1A8AA51290642C117467871F101B91C581D77CEA2C36869F3229E68CD1B8F61F1ED6361B89092D294B90C78C4A68EB793D190E7D1D9BDEE7A91E1B95FDE9F3BCEAEFE809
310
6A6D6F9F7D4B79F4275C90E7A04248AA51D5C4C738DAE06F72885AC4796EBE65D22A88A22223B995679120E2D50EB1542F098381188D4EA111AE3DB043FF20AF6F2B4AE3D7D83D65E5AECA730D4D3BAC91BD05FEA992B565D95F549CD6069B90AB2A63EACA38A45E4B6A87D781574F86817E4C2FCCC72690D62E2729520E37
310
9BAF234797BAF6D62B3BFC781FED37BA1E4F2B2F052FA9501A3E80569BB8F6A9A364D4FA67654E6F803383981F82F21591FF84F23D9882BC896C3FDBCF8C162508933B2E0AE4C69DD43F6BD2BE38DDDBF10BF86CB4FA784D37F3AF16075E67EC9030DECA1FC0A55373F5DFF3378C591FA9BDF485C10B0A8C8BA909E5262639
310
A8E72163488806A595734C81CB77D1DE0ED7604A303B76913CEC0272F412782FF88EFF4636D8AA56DF7B322474C4B767303F625997056C7B032C473C592B36CEBD15F3F9FF5233B7ABCDC74D257624A60F8658567497B14CE1EC3C80B76FD02011038F9EE9EB0F2E12387A9C844D3F09855125116D1D731DF8B43D2CF4E0A0
310
79A020C6BE946BCE0B7EA1E1219331CD73C228AF5A2DDD31A4B1DA918CE91350854D40A71723140BFA92E94E62B0626016CEFA5864A50E5977E8753CEDBEE1CBB7F52780D20E17AF0BA0F5F9B02A3AD07DCC732EB6D1EBB661421BE0C39E21BABF0FE16D22EA6929407C8DE596724C88B749B6DB5512BC7B228ADFD7CB7EA6
310
3A22397E690BA8D5D8D4E40CEC8CDA23C2C0B7D5898640101CEC9C6D331CE328CB93CAFBBAC70A642DF70DF95155945B52F08AA973C23469FD69ADEF84F7BB18F983A8F8C90E37F5D35980B2139A1C523540813E824EF83448CF7C72B598CE97D7CEEDDDDD3B6736BFBC771677EF66CE6A7E7139F7A793E9EDF2B2B3A8B624
310
0CDA13AA5F8388264EC4A0129909F3B7F5A16CEDF08128E97D680ACA4B9BE7B7B58BB638F0B00700EF36AE8B32A705658A68F83EE897FC2B41573190D1CCAF0B92D233A47CFEB019D9809933F67DD1A5467F8CF69AD9A5AE859342D45355448C64F968A371DC2D596ADC6E43D93D1B466F877A64E2893E54F23C4B40388995
310
525E5005DA3983ED45412510D3EFCA13737B3863F74BD30F2A12E5B4B5E489A025CE25500DB855B11ACE5BBFA185D35DD48D8DC3CE7DC69F2944DB42AA6F6CF09BCA622ADD08C7A36E7C6AE18000BAB08E040135C2D21C9D75B3A91B77BB746C403F38018DFE6EC939DD92F16B40BC05294B9CDA035AAD6D330AE27FE4786B
310
8E45145EA34A75BE1C263A676A35A8ACC6297337400BF16C54EF515F3F77CB77EB3583889C754FFA29081AA98E2222ADEF05DA3E63D2EDEA8B8756C05A7FB6CABC4A91CBF325398202CC952E70A008A830324BA200D5E5EF8F5F04C75DB4B0EE3340E071C98B823333B83577596BF3849B69F2085AA0FAFA212F26BEFF5877
310
FDE622B28D88A42E49E43326DA82D31E8CB006401E1DA726059ECEC168F97A6599036306A135688F9AD2E61A6EA178F4CD51974A9F2CCB9F36FE5EBD14601068D9C3BF01504B0304140006080000B670623B000000000000000000000000350000006662782F42384135303843342D343331462D343546312D424341352D35
310
32343432364645413344462F76657274696365732E62696E504B0304140006080800B670623BF270F1330600000004000000360000006662782F42384135303843342D343331462D343546312D424341352D3532343432364645413344462F747269616E676C65732E62696E636660600000504B0304140006080000B67062
310
3B000000000000000000000000370000006662782F42384135303843342D343331462D343546312D424341352D3532343432364645413344462F617474726962757465732E62696E504B0304140006080800B670623B08DA0BD19000000041010000360000006662782F42384135303843342D343331462D343546312D4243
310
41352D3532343432364645413344462F6469726563746F72792E786D6C858F410AC3201045AF22B36F53E9A60B35CBEEBAE80D244E44489C6234F4F835464A48035D0DF398FF9F8AF63D0E6CC63039F212F8F9020C7D47C6792B21C5FE7403D62A1188E2E60C98D7234A5830286103A55745067B9D86B8A3CF9C7F90C11DE6
310
07FB144396D7B6A82D282E9A152AD114D5EF2CB866EEE831B8EEA07A7BB5A8D7D61A2BAAEB7FD5F70921FF497D00504B0304140006080800B670623B3B4606F3FE000000A00100003B0000006662782F42384135303843342D343331462D343546312D424341352D3532343432364645413344462F7265736F75726365732F
310
636F72652E786D6C8D504B6E833010BD0A9A6D65B08134808CA354A427E8052C332156828DFCA97AFC9A40A576D7CDCCE87D344F8F9FBEE647F689CE6B6B7A6039850C8DB2A336530F315C4903D94970676DF82583CCC8197B5861107C72362E3BA4AC096842428D1D7107A5F71820538F74F4E0D50D6799CB1892C2DFF345
310
AABB9C306779A2934E701F5C0A906D4FD609C2A1B7D129F4BCD858C163D4E3AED163FAA9AF1A1D88F67CA98E6D35906AA82A52BFB39ABCD5CD915C86331BD86BD3B665CD8BD52C78D0F34F46E550061C419494B6843142CB0F5677F4D0D58717DA7494F26295FF31C565FCA7296A13AA728FBBD93C0896823C09C18BB5AFB4
310
9E65A6BD762BBE01504B010214000A0000080000B670623B3DEE336E79000000790000001B00000000000000000000000000000000006175746F6465736B2D64657369676E2D7061636B6167652E786D6C504B01021400140006080800B670623BD486FD9CA0000000F40000001300000000000000000000000000B2000000
310
5B436F6E74656E745F54797065735D2E786D6C504B01021400140006080800B670623B28ED286BEB0000007C010000080000000000000000000000000083010000636F72652E786D6C504B01021400140006080800B670623B55019EA25F0000007C000000070000000000000000000000000094020000636E782E786D6C50
310
4B01021400140006080800B670623B7BC41AC871010000D40300000C00000000000000000000000000180300006662782F636F72652E786D6C504B01021400140006080800B670623B70102A487D0000009D0000000B00000000000000000000000000B30400006662782F636E782E786D6C504B01021400140006080800B6
310
70623B3610CA3329010000120200003100000000000000000000000000590500006662782F42384135303843342D343331462D343546312D424341352D3532343432364645413344462F636F72652E786D6C504B01021400140006080800B670623B1B8617914E010000330300003000000000000000000000000000D10600
310
006662782F42384135303843342D343331462D343546312D424341352D3532343432364645413344462F636E782E786D6C504B01021400140006080800B670623BBFEF2E3B690500003C10000034000000000000000000000000006D0800006662782F42384135303843342D343331462D343546312D424341352D35323434
310
32364645413344462F6F626A656374732E786D6C504B01021400140006080000B670623B0000000000000000000000003500000000000000000000000000280E00006662782F42384135303843342D343331462D343546312D424341352D3532343432364645413344462F76657274696365732E62696E504B010214001400
310
06080800B670623BF270F133060000000400000036000000000000000000000000007B0E00006662782F42384135303843342D343331462D343546312D424341352D3532343432364645413344462F747269616E676C65732E62696E504B01021400140006080000B670623B00000000000000000000000037000000000000
310
00000000000000D50E00006662782F42384135303843342D343331462D343546312D424341352D3532343432364645413344462F617474726962757465732E62696E504B01021400140006080800B670623B08DA0BD1900000004101000036000000000000000000000000002A0F00006662782F42384135303843342D3433
310
31462D343546312D424341352D3532343432364645413344462F6469726563746F72792E786D6C504B01021400140006080800B670623B3B4606F3FE000000A00100003B000000000000000000000000000E1000006662782F42384135303843342D343331462D343546312D424341352D3532343432364645413344462F72
310
65736F75726365732F636F72652E786D6C504B0506000000000E000E0080040000651100000000
  0
XRECORD
  5
187
102
{ACAD_REACTORS
330
186
102
}
330
186
100
AcDbXrecord
280
     1
 70
     1
 90
429727718
  1
887D55A9-D0DD-414E-B741-A7DCD4DA2B4C
310
504B03040A0000080000B670623B3DEE336E79000000790000001B0000006175746F6465736B2D64657369676E2D7061636B6167652E786D6C3C3F786D6C2076657273696F6E3D22312E302220656E636F64696E673D227574662D3822203F3E3C666F726D6174733E3C666F726D61743E687474703A2F2F736368656D612E
310
6175746F6465736B2E636F6D2F64657369676E2D7061636B6167652F323030393C2F666F726D61743E3C2F666F726D6174733E504B0304140006080800B670623BD486FD9CA0000000F4000000130000005B436F6E74656E745F54797065735D2E786D6C7D8EC10E82300C865F65E91D8A1E8C310C0EEA1BF002731658846E
310
D98AC1B77784ABF1D8FE5FBFBF75BBCE937A534CCEB38643598122B6FEE978D0B0485F9C41B54DDD7D022595594E1A469170414C76A4D9A4D207E29CF43ECE46F218070CC6BECC4078ACAA135ACF422C856C0E68EA1BF5669944DDD7BCDE7B1F8E415D77AECB980613C2E4AC91FC167A2B244592486606FC29C8FD7F045B9A
310
EF7053A7E60B504B0304140006080800B670623BBC1638F5EC0000007C01000008000000636F72652E786D6C8D90416EC3201045AF82665B61836BE2D8C24471DB9CA01740401C94182C03558F5F9C3852BBEB6A467FFE9B197D7EF89E6EE8CB2CC17AD7032D0820E394D7D68D3DA478C67B4007C117EFE32F1B202727D3C3
310
2A83E0E3E2D3BC49CABB685CCCAAF3DA6CA20CC14440EA969B1E82BA98491632C5EC08D76296EA2A4753D06797E194AC468F2356E77DF66CCD02825543D50CACC62D39ED70FDC68EB8FD68F6F8787A6784342D1DDA1D2F5758F068A7E77DB518198D065111D2624A31A93E69DD11D6D5EC85EC3B4278B9DAFF4069D6FF8492
310
75F1B5DADE7D600104CD8FDC0782976B16B9DC83CA75CD4DFC00504B0304140006080800B670623B55019EA25F0000007C00000007000000636E782E786D6C4DCB3B0E80201045D1AD90E915ED2CF8AC45050C11660C8261F98AB1B07AC9C97D42D718D865D3E909258CFD00CCE24AC6E326A164D74DC0B4128928FF326038
310
472BA13128B1252AC747C6BAB984FC68F0B87FE8960A5C09FE86CFB69FBA01504B0304140006080800B670623B3586FFB671010000D40300000C0000006662782F636F72652E786D6CC553ED6E8320147D15C2DF4541A76D6D90A6DDD627D80B50A4CE54C120983EFEAE1F4DD7A55BBA5FF3879273EEE59E7310B6393735EA
310
95ED2AA3731C851423A5A5292A5DE6D8BB63B0C268C39935C67D29C3488B46E578803167A535BE9D2169B453DA01AA4DA16650749D7218C91A1639EEE4876A4428BC838AEE14B6429E44A9C228041AEA38EB9C0501681A32BC313F1ECE8C4C3867DE57C5CC56054CAB8E95B298A7F12E5EEED224C8E87E11242FE936C8DE96
310
AB60BB7F4D295D66D12E5B30323473E6AAE6A24E5A259C2A308F29CD82280A68FC1E256B9AAE93F489AED694323294DF34F9B678B0C957DA3DC7B3DCA9ADC33C022123F1CD2D44E450277AD04338234388F01913BE0D1A0281909D38D4171F27807A259DB1093085F157AA17B557309586747CD0CF0B46A64E983A6E0EAEEF
310
CE881F9EF1FB8E70D44297604238581EBC1B74B249C31C5AAB6CD0BB33D2C636A27ECCC62F0EFF445DC5DF95244D6DEC7F2922F30191F9F720C37DE49F504B0304140006080800B670623B4220A0FF7D0000009D0000000B0000006662782F636E782E786D6C4DCCD10A83201886E15B91FFDCE542CB0335D0EC3E6259C84A
310
C3E9D8E5AF46073BFAE0E1E315DD675BD1DBA5978F41C2FD4600B9F088930F8B849267CC01754AA418F3DF0D50183727E164506249B1EC174D6E1ECB9A0F5D7D785E68DB8151CD286E5A5363CA6B8A39E90D36D40E96B086F55A43A544F52B1D7B86D517504B0304140006080800B670623B2FA3FEDE290100001202000031
310
0000006662782F45374635344235342D363743322D343832342D383044432D4334454645303536354442422F636F72652E786D6C8D515B6EC32010BC0AE22B55850D2E386E848994D7097A0117488A1283C5A3CAF10BB523B57FF961D1ECCCECC0F2ED7DBC816FED8371B687A4C210682B9D32F6D2C314CFA883602BB8772E
310
FEA141608751F7B0C050F08B77695A20E96CD43666D43AA5177008414708E42D5F7A18E4971E876A483133C2B59A06791D2EBA22556E679EE021FA1C00CC43CA09C5717D6274C7286AD7FB06D1AEA1A8C3873DDAD3E3E98859CB0EBB1DAF67A1E02919B5C88DCA71CCD968FFAC49110B1ECDF8882FBD1EA256503418BF2342
310
106E3E08DD60B6A1EC15771B8C795DE8FF4469524F8A92B1F1AD59E2CEB20005E1F5DC105CB9F4797B84D1F7C9F908CABC55D0F2050A5C61CC1AD2F27A26E6E767C7962E8E213A9FBF7775FDCC5CC266DB960A5E970DE5F2BBBE5CCB36C50F504B0304140006080800B670623B1B8617914E01000033030000300000006662
310
782F45374635344235342D363743322D343832342D383044432D4334454645303536354442422F636E782E786D6CD593C16EC32010447F0571AD6CE3D489D20813A9877E410FBD62D82434182CC055F3F75D1292E692438FBD206B7698593D61BEFD1E2DF982108D773D6D6B460938E5B571FB9ECE6957AD29D90A1EBC4F77
310
364A9C1CA1A759A682EF839FA72269D8C9D92654AD71C72206887E0E0A22CAF926B15E498B01E0AA19451807D01A34B919F16B070157417138917400F2F6FA41FCF0092A45DEE414C19BDC21783E4BD39D891265658C3D8DEA00A3ACE59CBC8678ACB54CB26EEB6BD7839D7E9348BE70AD9C8321B9BCA7F9A4A26C542347DE
310
E050F09802D22BA6749A800A394DD62899107273365E3C82CFC6A55557BC06C10774B7ABE7AEC3B0F34CF06446280E154026D0542C187BA9DAB6628BF7B6DBB0E5A65B3EB1F58631DE64BBE083F7B65CC218087E22CABB042E51D1F2268F1FE12B3EA24D40D63E9CFE00120194D60B9D5BC67FE6D39CDF37E20AF817881F50
310
4B0304140006080800B670623B29652116630500003C100000340000006662782F45374635344235342D363743322D343832342D383044432D4334454645303536354442422F6F626A656374732E786D6CAD575D739B3814FD2B0CFB0C989834C90EA1639B24E3E9A6EDD4D3CE3E64C623834CD8006224913AFDF57B040203
310
B65BEF871F0C12D2FD3CF7E8CA7FBFCB33E3957291B2E2D674ED8969D02262715A24B76625B7D6B569BC0F7CCE98EC2D338D82E4F4D654D366E0279C55A59E8AE99654991CCDDECFFF3444440B6A1A514684B83545F44C7362934AB2988A173B2692D8C97667BB76B3702836E1A47C1E092D09A78584A5982F20C5688C7287
310
C389E904BEA3BE07BEFAD7ABA6A75739B53F43FD69212429A20365233153D70BEF2E2E6FAC4BCF9B5ADEBB0BD79ADFCF43CBBD9A4E16EF168B9BD9DD0D140BC921495BC2E9D60C1E101B9E46BED37CEA2CD6861F3329624541A3DA7F7858DBAC25C6B4A4458C3CA654405BCFEBC970E8AAD8F43E4FD558ABEC4F9FE7557F47
310
4F506B7BFBEC5BCA367FC105710E2AB8A00A554D7CB4A30DFE26FBA86D18CBF4B75418399194A72433B274C3097F33032C554B027F2046A1932B842B0FCCC0DDCBEBDB8AD2F835768F59B9ADB24C41D30C6A64AF817F2A456D59FA83F2E3DA60137255A585BCD60EC9B7929AC18DEFD49381AF1ED30BFDB109A4B1CD488294
310
C3CDE6EBC8D185AABD6568061FEE37BB95AAC7E3CA4BCE4ACAA5820FA0D526AE7DAA2869B5EE5999531BE0CC20E6FBA07C41E43FA27CF7A6206F3CDD793B4F6B919C1462CB788EDCD893FA674CDA17AB7B3B7C019F8D561FAEE966FED562DFE98C1D12C6A9FC015C2A35D7FF3D7FC398F591DA4B5FE0BFA2C0189FEA50AE22
310
92817A1ED3020951A03432862970F976B33383259812CC8E5D240BBA801CBCF8CE2BBEE3BF910DB6AAD5F79E05123AE2DB33981FB1ACCB02B69D00CB014FD68AB573A7627EF9BFD4CC2C5C7D58557C4B22FAA88925A4DBB44825CECE3D78FB060D1231F0E885BE7D673C86A3874958F593906B5502D1563157814FDAC3420D
310
F69A070A22EC4B98E23CFF171A1E5311D12C23056555ABA53B8614563B92D17D02AAB009E8F46284624E5F53D5490C560CCCC2591FF1B45421EB0EBD8EA7ED13BE7C5D7E0428CD60FEF60779EB13E6664FF711CB185F6FDED60D139A001FF60CD1FD6D086F1D51474901E26B2CB794A343BC8ED3EDB612E0DD2351FCB65CF4
310
33D511C9E14B5B40ADC6A6263DB0336A8F700DDF56271A024E70B0B3629DE21847591E55DED73D56206AB927E46FAABC5C939C55853C274C93D69FD6FA4E78BF8B11DF898C9ECD60553FAD39283BA6F18984AA23E8884F83F45C5F5F859797B31B2B9C84A1E5B9DE9D35BFF25C6B76152E422F9C5DCC3D847F5801ED09D5AF
310
41441327A25FF15487F9EB725FB666F048A4701E9A827292E6F97569A32DF61DEC01C0BB8DCBBCCC684E0B49147C1FD54BF685A0AB18C868E6973949E819523E3DAC463660E68C7D9F55A9D1EFA3BD7A76A16AE1A810F95CE59B82A4D968A376DC2E8B44BBDD86B27B368CDE0ED548C7137DA860591A83706223A12CA712B4
310
7306DBF39C0A20A6DF95C7FAF670C6EED7A61F946493D1D6926782963813403548A78AE470DEF80D2D9CEAA26E4D1C76F60BFE74219A06527D6B82DF641A51616F703CAAC6A7160E08A00BEB4810A0274592A1B36E3675E36E978A0DE80727A0D6DF2D39A75BD27E0D8837276589537B40ABB56D5A41F48F1C6FCD3188C4EB
310
A6929D2FFB89CE995A4D00AE813BDD032DC48B56BD437DFDDC2DD7AED70C2272D63DE9A72068A45A92F0A4BE17A8A06B9366E16707AD80B1FC649459952097E74BB23805982B55E0401150A165964402AA8BDF9F3E7386BB686EDCA780C0D382E5392BF460A6EFB2C6EA1937D3F809B440D5F5435C4C5CF7A9EEFAF54564BD
310
2182DA24162F98680B4E7930C21A0079709CEAEB99A372305ABE0C0D7D6078105A83F6A0296DAEE1068A47DD1C55A9F4C9B2FC69E3EFD44B81028E963DF81B504B0304140006080000B670623B000000000000000000000000350000006662782F45374635344235342D363743322D343832342D383044432D433445464530
310
3536354442422F76657274696365732E62696E504B0304140006080800B670623BF270F1330600000004000000360000006662782F45374635344235342D363743322D343832342D383044432D4334454645303536354442422F747269616E676C65732E62696E636660600000504B0304140006080000B670623B00000000
310
0000000000000000370000006662782F45374635344235342D363743322D343832342D383044432D4334454645303536354442422F617474726962757465732E62696E504B0304140006080800B670623B08DA0BD19000000041010000360000006662782F45374635344235342D363743322D343832342D383044432D4334
310
454645303536354442422F6469726563746F72792E786D6C858F410AC3201045AF22B36F53E9A60B35CBEEBAE80D244E44489C6234F4F835464A48035D0DF398FF9F8AF63D0E6CC63039F212F8F9020C7D47C6792B21C5FE7403D62A1188E2E60C98D7234A5830286103A55745067B9D86B8A3CF9C7F90C11DE607FB144396
310
D7B6A82D282E9A152AD114D5EF2CB866EEE831B8EEA07A7BB5A8D7D61A2BAAEB7FD5F70921FF497D00504B0304140006080800B670623B6378F24DFF000000A00100003B0000006662782F45374635344235342D363743322D343832342D383044432D4334454645303536354442422F7265736F75726365732F636F72652E
310
786D6C8D504B6E833010BD0A9A6D65B0094E42641C85B639412F6099496225D8C89FAAC7AF09546A77DDCC8CDE47F3F4C4F16B7C149FE88371B603565228D06A37187BED20C50BD9437194C23B177FC9A0B06AC40E6618A4B87A97A615D2CE46B431A3D60DB8822A048C50E8473E3A08FA86A32A558A5911EEE5A4F45D5DB1
310
6465A6B34E8A107D0E502C4FE609D26370C96B0CA25A58295232C3AA3143FE692E063D485EF7F5AEE71BD2D2F39634AFFC44DAF7DD9E9CCE6F9CD25DCBFA762BAAD92C4534E34F46ED51451C40D694B6843142EB0FD61C283F34FC85EE0F948A6A96FF31A569F8A729191B37F51A77B105902C0779125254735F793DCBCC7B
310
EE567E03504B010214000A0000080000B670623B3DEE336E79000000790000001B00000000000000000000000000000000006175746F6465736B2D64657369676E2D7061636B6167652E786D6C504B01021400140006080800B670623BD486FD9CA0000000F40000001300000000000000000000000000B20000005B436F6E
310
74656E745F54797065735D2E786D6C504B01021400140006080800B670623BBC1638F5EC0000007C010000080000000000000000000000000083010000636F72652E786D6C504B01021400140006080800B670623B55019EA25F0000007C000000070000000000000000000000000095020000636E782E786D6C504B010214
310
00140006080800B670623B3586FFB671010000D40300000C00000000000000000000000000190300006662782F636F72652E786D6C504B01021400140006080800B670623B4220A0FF7D0000009D0000000B00000000000000000000000000B40400006662782F636E782E786D6C504B01021400140006080800B670623B2F
310
A3FEDE290100001202000031000000000000000000000000005A0500006662782F45374635344235342D363743322D343832342D383044432D4334454645303536354442422F636F72652E786D6C504B01021400140006080800B670623B1B8617914E010000330300003000000000000000000000000000D2060000666278
310
2F45374635344235342D363743322D343832342D383044432D4334454645303536354442422F636E782E786D6C504B01021400140006080800B670623B29652116630500003C10000034000000000000000000000000006E0800006662782F45374635344235342D363743322D343832342D383044432D4334454645303536
310
354442422F6F626A656374732E786D6C504B01021400140006080000B670623B0000000000000000000000003500000000000000000000000000230E00006662782F45374635344235342D363743322D343832342D383044432D4334454645303536354442422F76657274696365732E62696E504B01021400140006080800
310
B670623BF270F13306000000040000003600000000000000000000000000760E00006662782F45374635344235342D363743322D343832342D383044432D4334454645303536354442422F747269616E676C65732E62696E504B01021400140006080000B670623B0000000000000000000000003700000000000000000000
310
000000D00E00006662782F45374635344235342D363743322D343832342D383044432D4334454645303536354442422F617474726962757465732E62696E504B01021400140006080800B670623B08DA0BD190000000410100003600000000000000000000000000250F00006662782F45374635344235342D363743322D34
310
3832342D383044432D4334454645303536354442422F6469726563746F72792E786D6C504B01021400140006080800B670623B6378F24DFF000000A00100003B00000000000000000000000000091000006662782F45374635344235342D363743322D343832342D383044432D4334454645303536354442422F7265736F75
310
726365732F636F72652E786D6C504B0506000000000E000E0080040000611100000000
  0
XRECORD
  5
112
102
{ACAD_REACTORS
330
110
102
}
330
110
100
AcDbXrecord
280
     1
270
     1
271
     1
  0
XRECORD
  5
111
102
{ACAD_REACTORS
330
110
102
}
330
110
100
AcDbXrecord
280
     1
270
     1
271
     1
  0
XRECORD
  5
18A
102
{ACAD_REACTORS
330
110
102
}
330
110
100
AcDbXrecord
280
     1
 70
     0
 90
1778669749
  1
9BF507EE-FAF7-4A99-A33D-4EE51894BC40
310
504B03040A0000080000B670623B3DEE336E79000000790000001B0000006175746F6465736B2D64657369676E2D7061636B6167652E786D6C3C3F786D6C2076657273696F6E3D22312E302220656E636F64696E673D227574662D3822203F3E3C666F726D6174733E3C666F726D61743E687474703A2F2F736368656D612E
310
6175746F6465736B2E636F6D2F64657369676E2D7061636B6167652F323030393C2F666F726D61743E3C2F666F726D6174733E504B0304140006080800B670623BD486FD9CA0000000F4000000130000005B436F6E74656E745F54797065735D2E786D6C7D8EC10E82300C865F65E91D8A1E8C310C0EEA1BF002731658846E
310
D98AC1B77784ABF1D8FE5FBFBF75BBCE937A534CCEB38643598122B6FEE978D0B0485F9C41B54DDD7D022595594E1A469170414C76A4D9A4D207E29CF43ECE46F218070CC6BECC4078ACAA135ACF422C856C0E68EA1BF5669944DDD7BCDE7B1F8E415D77AECB980613C2E4AC91FC167A2B244592486606FC29C8FD7F045B9A
310
EF7053A7E60B504B0304140006080800B670623BCA089DFFEC0000007C01000008000000636F72652E786D6C8D90416E83301045AF62CDB632D8402020E32882F604BD80653BC44AB011B6AB1EBF262152BBEB6A467FFE9B197D76FA9EEFE84BAFDE38DB03CD08206DA553C64E3DC470C1474027CE56E7C22F1B202B66DDC3
310
260367D3EAE2B24BD2D9A06D48AA754AEFA2F05E0740F29E9A1EBCBCEA59642286E4F0B76C11F226269DD15797E0188D42CF2346A57DE662F40ABCAEC77628C6120F654571D50C04B7F5B9C1E3997CD4F550BE3745C3F20DE62C98F9755FAE5A04AD801784B498524C8A4F5A75E4D055873772EC0861F966FF03C545FD138A
310
C686B2D8DF7D621E384D8F3C069CE55B16A93C824A75CB8DFF00504B0304140006080800B670623B55019EA25F0000007C00000007000000636E782E786D6C4DCB3B0E80201045D1AD90E915ED2CF8AC45050C11660C8261F98AB1B07AC9C97D42D718D865D3E909258CFD00CCE24AC6E326A164D74DC0B4128928FF326038
310
472BA13128B1252AC747C6BAB984FC68F0B87FE8960A5C09FE86CFB69FBA01504B0304140006080800B670623B68FC0B7272010000D40300000C0000006662782F636F72652E786D6CC5535B6E833010BC8AE5DF0A6C1E8124328E22D29EA01770C0A128602363A31CBFCB234A53A555FA553EC09AD9F5CE8C31DB5DDA060D
310
D2F4B556190E7C8A9154852E6B5565D8D993B7C668C799D1DA7E29C3488956667884316795D1AE5BA0422B2B950554E9522EA0E87B69312A1A5864B82F3E642B7CE12C54F467BF13C55954D20F7CA0A18EB3DE1A1080E621E31BF3D3F1C2C88C73E65C5D2E6C5DC2B4FA544B8379921C36797888BC3C8A032F4E73EA6D927D
310
EA1DF6F42D49F2E8350D5346C666CE6CDD5ED515460A2B4BCC434A375E1078347C0FE22D5D6DE3D50B5D6F2965642CBF6B725DF96493AB958DC245EEDCD6631E809089F8E61622B2A81703E8219C913144F84C09DF070D8140C8561C9BAB8F3340832CAC363130A576376A108D933095FA747AD0CF0B46E64E983A6D0EAE1F
310
CE089F9EF1FB8E70D44255604258581E9D1D75B259C3125A278D37D80B52DAB4A279CEC62F0EFF44DDC43F9454E8469BFF5244960322CBEF41C6FBC83F01504B0304140006080800B670623B0F71DDB67E0000009D0000000B0000006662782F636E782E786D6C4DCCD10A83201886E15B91FFDCA54DB73F502386BB8F5816
310
32D3703976F9ABD1C18E3E78F87855FB990379BBFCF2296AE02706C4C5471A7C9C349475A408A4352AA7B4FEDD80C47E761A7606A3A69CCA72D0E0C6BE8475D3E0E3F3409428EA6B27A84079A782899AA2EC1A7AE3ECCC2FD858CB2D544655BFD2B67BD87C01504B0304140006080800B670623BE134B4FB28010000120200
310
00310000006662782F38353834323741342D343835462D343034322D383541392D4331303331363839454531452F636F72652E786D6C8D515B6EC32010BC0AE22B55850D0EA424C24451959EA0172086A42831583CAA1CBF503B52FB971F16CDCECC0EACD8DFC71BF836215AEF7A481A0C817183D7D65D7A98D3197108F652
310
04EFD31F1A044E8DA6871586525C82CFD3020DDE25E352419DD76601558C264130DCCAA58771F832A36A544E8511AFCDA486ABBA988634A55D7852C4144A00300FA927949C71DABD1D28A29C7D208A6987383B6CD13BC16BB2E1DBE3911C453B0BA5C8D9EA456E758963CFD684674DAA588A64C747FC2118958C86B2C3788B
310
0841B8FB247487D98EB257CC77188BB6D2FF89F2A49F1465EBD2BA5BE2CEB2082511EDDC9042FB7CBA3DC298FBE4430275DE2A9AE1054ADC60CC08E3A29D89E5F9C5714317C7987C28DFBBBA9E0A97B0D97643A568EB864AF95D5FA9759BF207504B0304140006080800B670623B1B8617914E010000330300003000000066
310
62782F38353834323741342D343835462D343034322D383541392D4331303331363839454531452F636E782E786D6CD593C16EC32010447F0571AD6CE3D489D20813A9877E410FBD62D82434182CC055F3F75D1292E692438FBD206B7698593D61BEFD1E2DF982108D773D6D6B460938E5B571FB9ECE6957AD29D90A1EBC4F
310
77364A9C1CA1A759A682EF839FA72269D8C9D92654AD71C72206887E0E0A22CAF926B15E498B01E0AA19451807D01A34B919F16B070157417138917400F2F6FA41FCF0092A45DEE414C19BDC21783E4BD39D891265658C3D8DEA00A3ACE59CBC8678ACB54CB26EEB6BD7839D7E9348BE70AD9C8321B9BCA7F9A4A26C542347
310
DEE050F09802D22BA6749A800A394DD62899107273365E3C82CFC6A55557BC06C10774B7ABE7AEC3B0F34CF06446280E154026D0542C187BA9DAB6628BF7B6DBB0E5A65B3EB1F58631DE64BBE083F7B65CC218087E22CABB042E51D1F2268F1FE12B3EA24D40D63E9CFE00120194D60B9D5BC67FE6D39CDF37E20AF817881F
310
504B0304140006080800B670623B5933D422630500003B100000340000006662782F38353834323741342D343835462D343034322D383541392D4331303331363839454531452F6F626A656374732E786D6CAD575B6FA33814FE2B887D0642934E9B156594264D158D3A534DD4D13E548A0C38942D60649B4EBABF7E3F8321
310
40924EF6928780CDF1B97EE762EFF32E4B8D37CA45C2F21BD3B547A641F39045491EDF98A5DC5AD7A6F1D9F73863B243661A39C9E88DA9B64DDF8B392B0BBD15D12D295339D85DDEFE618890E6D434C2940871638AF08566C426A5641115AF764424B1E3EDCE76ED9AB0CF36E6A47819302D08A7B984A6D8CFC1C5A89572FB
310
CB91E9F89EA3BEFB9EFAD754E3D3544E654F5F7E920B49F2F040D880CDD89D2CEE2E2EA7D6E56432B6269F2E5CEB7679BBB0DCABF168FE693E9FCEEEA6102C240727AD09A75BD3BF876F78127A4EFDA9D5582B7E4CA590E5390D2BFB6161A5B3E618D182E611E2985001691DAB47FDA5AB7CD3F93C566B2DB2BB7D9E55DD13
310
1D468DEECDB3AB290BFE8409E21C54704115AA6AFF68436BFC8DF65E0B184BF5B74418199194272435D224E084BF9B3E481589EFF5D828747285706581E9BB7B7E5D5D911ABFC6EE312DB7659A2A689A7E85EC0DF04FA5A8344BFEA2FCB834E8845895492EAFB541F2BDA0A63FF59C6AD3F7D4637CA13FD68E34B629891172
310
98597F1D183A57B9B75A98FE9765B05BAB7C3C2EBCE0ACA05C2AF8005A4DE09AA7F29216EB9E15397500C6F47CBE77CA7778FE2BD277AF0AE2C693DD6437D1522427B9D8329E2136F6A8FA19A3E6C56ADF0E5F50CF06D48734EDCEBF22F69C56D97EC138153F804B85E6FABFC7AFEFB32E523BE1F3BD372418E363EDCA7548
310
52949E8724474014288D94610BB57C1BEC4C7F854A89CA8E5324F55B871CBC78CE1BBEE3BFE68D6A5589EF3C730474506FCFA8FCF0659516D0ED04580EEA6425581B77CAE797FF4BCECC16EB2FEB926F49481F746159D06D922712BD730FDEAE42BD40F42C7AA5EF3F198F60E86110D6DD20645A9480B795CF95E3E3A659A8
310
C55E724F408873315335CFFB8584874484344D494E59D94869DB90C26A5B64F49C802CAC1D3ABE18A098D3B7444D123D8A9E5AE8F5214F0AE5B2B6E9B575DA3E61CBD3EA2B4009FA940524DD1305FB6A1FB294F14DF0BEA90BA109ECE1481FDC3FFAE8D60E75141700BE82725371B4873751B2DD960265F788137FACE6DD40
310
B575E4F0A5C99F46629D92131467A41EE11ABD8D4CCC039CA0AFB37C93A08B232B8F0AEFCA1E0A1015DF13FC83322B362463652ECF71D3A8B1A7D1BE65DE1D62C44F22C317D35F574FEB16153BA2D13E543D10A80E74C4A65E78A6B7CBCBD1D5DD9DB59C2DAFACC96C3AB566E3F1C29ADCDD5DBAD7D3C9ED7C822ED74F80A6
310
41755310DE4443F44A9E68373FADF6596BFA0F440AE7BECE2727AE9F4F2B1B53B1E7E00CF0DD1E5C65454A339A4BA2D0FBA05ED2EF0443458F47BDBFCA484CCFE0F2ED7E3DD0013B679C7B5499467F0ECEEADDB9CA85A34CE44B99053949D2C1416DB85DE4B136BB7165FBAC0B7AB3542BED4F8CA182A549847A1319316519
310
95A83A67147B9E5101C47487F2485F1ECE38FD568F839204296D3479219888530154036E6528FBFBC66F98E0D4107563A2D7D9AFF8D389681A08F58D89F22693900A3B407754734FC51C10C010D6D640809EE4718AC1BA3ED4AEDB53CA37283F68805A7E4B72CEB0A4EDEAD5DD8C14059A76AFAA56BA6901E13F32BC51C720
310
12AF41295B5BF61BAD3195181FB506E6B40F4C10AF5AF40EF9F5B159AE5DD1F43C72D635E94310D45C2D49785C5D0B94D3B54AB3C5A38349C0587D338AB48C11CBF339599C02CCA54A70A008A8D03C0B2201D5F9EFCF8F9CE12A9A19CB0410789EB32C63B95ECCF455D658BFE0621A3DA32C5075FB101723D77DAE867E7D0F
310
D90444509B44E2151B4DC2290B065803200FBAA9BE9D392A0603F2D5C2D00D6302A615680F66D2FA166E2079D4C551A54AB758161FCEFD4E450A14704CECFEDF504B0304140006080000B670623B000000000000000000000000350000006662782F38353834323741342D343835462D343034322D383541392D4331303331
310
363839454531452F76657274696365732E62696E504B0304140006080800B670623BF270F1330600000004000000360000006662782F38353834323741342D343835462D343034322D383541392D4331303331363839454531452F747269616E676C65732E62696E636660600000504B0304140006080000B670623B000000
310
000000000000000000370000006662782F38353834323741342D343835462D343034322D383541392D4331303331363839454531452F617474726962757465732E62696E504B0304140006080800B670623B08DA0BD19000000041010000360000006662782F38353834323741342D343835462D343034322D383541392D43
310
31303331363839454531452F6469726563746F72792E786D6C858F410AC3201045AF22B36F53E9A60B35CBEEBAE80D244E44489C6234F4F835464A48035D0DF398FF9F8AF63D0E6CC63039F212F8F9020C7D47C6792B21C5FE7403D62A1188E2E60C98D7234A5830286103A55745067B9D86B8A3CF9C7F90C11DE607FB1443
310
96D7B6A82D282E9A152AD114D5EF2CB866EEE831B8EEA07A7BB5A8D7D61A2BAAEB7FD5F70921FF497D00504B0304140006080800B670623BD9A3B367FE000000A00100003B0000006662782F38353834323741342D343835462D343034322D383541392D4331303331363839454531452F7265736F75726365732F636F7265
310
2E786D6C8D504B6E833010BD0A9A6D65B01D0201194711694FD00B586642AD043BF2A7EAF16B122AB5BB6E6646EFA3797AE2F8B5DC8A4FF4C1383B002B291468B59B8C9D0748F1420E501CA5F0CEC55F3228AC5A708015062966EFD27D83B4B3116DCCA875136EA00A012314FA968F0182FEC045952AC5AC08D7F2AEF455CD
310
58B232D3592745883E07289E4FD609D26370C96B0CA27AB252A464A64D63A6FCD35C0C7A904D73EE467EE664DCD58CD4ED4849D79C5A723ED1B7A61977AF2D6F45B59AA58866F9C9A83DAA8813484E6947182394BFB3BAA7FBBEDEBFD0434FA9A856F91F53BA4FFF342563E38E6F719FB60092E5200F428A6AED2BAF479979
310
AFDDCA6F504B010214000A0000080000B670623B3DEE336E79000000790000001B00000000000000000000000000000000006175746F6465736B2D64657369676E2D7061636B6167652E786D6C504B01021400140006080800B670623BD486FD9CA0000000F40000001300000000000000000000000000B20000005B436F6E
310
74656E745F54797065735D2E786D6C504B01021400140006080800B670623BCA089DFFEC0000007C010000080000000000000000000000000083010000636F72652E786D6C504B01021400140006080800B670623B55019EA25F0000007C000000070000000000000000000000000095020000636E782E786D6C504B010214
310
00140006080800B670623B68FC0B7272010000D40300000C00000000000000000000000000190300006662782F636F72652E786D6C504B01021400140006080800B670623B0F71DDB67E0000009D0000000B00000000000000000000000000B50400006662782F636E782E786D6C504B01021400140006080800B670623BE1
310
34B4FB280100001202000031000000000000000000000000005C0500006662782F38353834323741342D343835462D343034322D383541392D4331303331363839454531452F636F72652E786D6C504B01021400140006080800B670623B1B8617914E010000330300003000000000000000000000000000D3060000666278
310
2F38353834323741342D343835462D343034322D383541392D4331303331363839454531452F636E782E786D6C504B01021400140006080800B670623B5933D422630500003B10000034000000000000000000000000006F0800006662782F38353834323741342D343835462D343034322D383541392D4331303331363839
310
454531452F6F626A656374732E786D6C504B01021400140006080000B670623B0000000000000000000000003500000000000000000000000000240E00006662782F38353834323741342D343835462D343034322D383541392D4331303331363839454531452F76657274696365732E62696E504B01021400140006080800
310
B670623BF270F13306000000040000003600000000000000000000000000770E00006662782F38353834323741342D343835462D343034322D383541392D4331303331363839454531452F747269616E676C65732E62696E504B01021400140006080000B670623B0000000000000000000000003700000000000000000000
310
000000D10E00006662782F38353834323741342D343835462D343034322D383541392D4331303331363839454531452F617474726962757465732E62696E504B01021400140006080800B670623B08DA0BD190000000410100003600000000000000000000000000260F00006662782F38353834323741342D343835462D34
310
3034322D383541392D4331303331363839454531452F6469726563746F72792E786D6C504B01021400140006080800B670623BD9A3B367FE000000A00100003B000000000000000000000000000A1000006662782F38353834323741342D343835462D343034322D383541392D4331303331363839454531452F7265736F75
310
726365732F636F72652E786D6C504B0506000000000E000E0080040000611100000000
  0
XRECORD
  5
113
102
{ACAD_REACTORS
330
110
102
}
330
110
100
AcDbXrecord
280
     1
270
     1
271
     1
  0
XRECORD
  5
114
102
{ACAD_REACTORS
330
110
102
}
330
110
100
AcDbXrecord
280
     1
270
     1
271
     1
  0
CELLSTYLEMAP
  5
2FC2C
102
{ACAD_REACTORS
330
104
102
}
330
104
100
AcDbCellStyleMap
 90
        3
300
CELLSTYLE
  1
TABLEFORMAT_BEGIN
 90
        5
170
     1
 91
        0
 92
    32768
 62
   257
 93
        1
300
CONTENTFORMAT
  1
CONTENTFORMAT_BEGIN
 90
        0
 91
        0
 92
      512
 93
        0
300

 40
0.0
140
1.0
 94
        5
 62
     0
340
11
144
0.25
309
CONTENTFORMAT_END
171
     1
301
MARGIN
  1
CELLMARGIN_BEGIN
 40
0.06
 40
0.06
 40
0.06
 40
0.06
 40
0.18
 40
0.18
309
CELLMARGIN_END
 94
        6
 95
        1
302
GRIDFORMAT
  1
GRIDFORMAT_BEGIN
 90
        0
 91
        1
 62
     0
 92
       -2
340
0
 93
        0
 40
0.045
309
GRIDFORMAT_END
 95
        2
302
GRIDFORMAT
  1
GRIDFORMAT_BEGIN
 90
        0
 91
        1
 62
     0
 92
       -2
340
0
 93
        0
 40
0.045
309
GRIDFORMAT_END
 95
        4
302
GRIDFORMAT
  1
GRIDFORMAT_BEGIN
 90
        0
 91
        1
 62
     0
 92
       -2
340
0
 93
        0
 40
0.045
309
GRIDFORMAT_END
 95
        8
302
GRIDFORMAT
  1
GRIDFORMAT_BEGIN
 90
        0
 91
        1
 62
     0
 92
       -2
340
0
 93
        0
 40
0.045
309
GRIDFORMAT_END
 95
       16
302
GRIDFORMAT
  1
GRIDFORMAT_BEGIN
 90
        0
 91
        1
 62
     0
 92
       -2
340
0
 93
        0
 40
0.045
309
GRIDFORMAT_END
 95
       32
302
GRIDFORMAT
  1
GRIDFORMAT_BEGIN
 90
        0
 91
        1
 62
     0
 92
       -2
340
0
 93
        0
 40
0.045
309
GRIDFORMAT_END
309
TABLEFORMAT_END
  1
CELLSTYLE_BEGIN
 90
        1
 91
        1
300
_TITLE
309
CELLSTYLE_END
300
CELLSTYLE
  1
TABLEFORMAT_BEGIN
 90
        5
170
     1
 91
        0
 92
        0
 62
   257
 93
        1
300
CONTENTFORMAT
  1
CONTENTFORMAT_BEGIN
 90
        0
 91
        0
 92
      512
 93
        0
300

 40
0.0
140
1.0
 94
        5
 62
     0
340
11
144
0.18
309
CONTENTFORMAT_END
171
     1
301
MARGIN
  1
CELLMARGIN_BEGIN
 40
0.06
 40
0.06
 40
0.06
 40
0.06
 40
0.18
 40
0.18
309
CELLMARGIN_END
 94
        6
 95
        1
302
GRIDFORMAT
  1
GRIDFORMAT_BEGIN
 90
        0
 91
        1
 62
     0
 92
       -2
340
0
 93
        0
 40
0.045
309
GRIDFORMAT_END
 95
        2
302
GRIDFORMAT
  1
GRIDFORMAT_BEGIN
 90
        0
 91
        1
 62
     0
 92
       -2
340
0
 93
        0
 40
0.045
309
GRIDFORMAT_END
 95
        4
302
GRIDFORMAT
  1
GRIDFORMAT_BEGIN
 90
        0
 91
        1
 62
     0
 92
       -2
340
0
 93
        0
 40
0.045
309
GRIDFORMAT_END
 95
        8
302
GRIDFORMAT
  1
GRIDFORMAT_BEGIN
 90
        0
 91
        1
 62
     0
 92
       -2
340
0
 93
        0
 40
0.045
309
GRIDFORMAT_END
 95
       16
302
GRIDFORMAT
  1
GRIDFORMAT_BEGIN
 90
        0
 91
        1
 62
     0
 92
       -2
340
0
 93
        0
 40
0.045
309
GRIDFORMAT_END
 95
       32
302
GRIDFORMAT
  1
GRIDFORMAT_BEGIN
 90
        0
 91
        1
 62
     0
 92
       -2
340
0
 93
        0
 40
0.045
309
GRIDFORMAT_END
309
TABLEFORMAT_END
  1
CELLSTYLE_BEGIN
 90
        2
 91
        1
300
_HEADER
309
CELLSTYLE_END
300
CELLSTYLE
  1
TABLEFORMAT_BEGIN
 90
        5
170
     1
 91
        0
 92
        0
 62
   257
 93
        1
300
CONTENTFORMAT
  1
CONTENTFORMAT_BEGIN
 90
        0
 91
        0
 92
      512
 93
        0
300

 40
0.0
140
1.0
 94
        2
 62
     0
340
11
144
0.18
309
CONTENTFORMAT_END
171
     1
301
MARGIN
  1
CELLMARGIN_BEGIN
 40
0.06
 40
0.06
 40
0.06
 40
0.06
 40
0.18
 40
0.18
309
CELLMARGIN_END
 94
        6
 95
        1
302
GRIDFORMAT
  1
GRIDFORMAT_BEGIN
 90
        0
 91
        1
 62
     0
 92
       -2
340
0
 93
        0
 40
0.045
309
GRIDFORMAT_END
 95
        2
302
GRIDFORMAT
  1
GRIDFORMAT_BEGIN
 90
        0
 91
        1
 62
     0
 92
       -2
340
0
 93
        0
 40
0.045
309
GRIDFORMAT_END
 95
        4
302
GRIDFORMAT
  1
GRIDFORMAT_BEGIN
 90
        0
 91
        1
 62
     0
 92
       -2
340
0
 93
        0
 40
0.045
309
GRIDFORMAT_END
 95
        8
302
GRIDFORMAT
  1
GRIDFORMAT_BEGIN
 90
        0
 91
        1
 62
     0
 92
       -2
340
0
 93
        0
 40
0.045
309
GRIDFORMAT_END
 95
       16
302
GRIDFORMAT
  1
GRIDFORMAT_BEGIN
 90
        0
 91
        1
 62
     0
 92
       -2
340
0
 93
        0
 40
0.045
309
GRIDFORMAT_END
 95
       32
302
GRIDFORMAT
  1
GRIDFORMAT_BEGIN
 90
        0
 91
        1
 62
     0
 92
       -2
340
0
 93
        0
 40
0.045
309
GRIDFORMAT_END
309
TABLEFORMAT_END
  1
CELLSTYLE_BEGIN
 90
        3
 91
        2
300
_DATA
309
CELLSTYLE_END
  0
ENDSEC
  0
SECTION
  2
ACDSDATA
 70
     2
 71
     8
  0
ACDSSCHEMA
 90
        0
  1
AcDb_Thumbnail_Schema
  2
AcDbDs::ID
280
    10
 91
        8
  2
Thumbnail_Data
280
    15
 91
        0
101
ACDSRECORD
 95
        0
 90
        1
  2
AcDbDs::TreatedAsObjectData
280
     1
291
     1
101
ACDSRECORD
 95
        0
 90
        2
  2
AcDbDs::Legacy
280
     1
291
     1
101
ACDSRECORD
  1
AcDbDs::ID
 90
        3
  2
AcDs:Indexable
280
     1
291
     1
101
ACDSRECORD
  1
AcDbDs::ID
 90
        4
  2
AcDbDs::HandleAttribute
280
     7
282
     1
  0
ACDSSCHEMA
 90
        1
  1
AcDbDs::TreatedAsObjectDataSchema
  2
AcDbDs::TreatedAsObjectData
280
     1
 91
        0
  0
ACDSSCHEMA
 90
        2
  1
AcDbDs::LegacySchema
  2
AcDbDs::Legacy
280
     1
 91
        0
  0
ACDSSCHEMA
 90
        3
  1
AcDbDs::IndexedPropertySchema
  2
AcDs:Indexable
280
     1
 91
        0
  0
ACDSSCHEMA
 90
        4
  1
AcDbDs::HandleAttributeSchema
  2
AcDbDs::HandleAttribute
280
     7
 91
        1
284
     1
  0
ACDSRECORD
 90
        0
  2
AcDbDs::ID
280
    10
320
22
  2
Thumbnail_Data
280
    15
 94
     1567
310
89504E470D0A1A0A0000000D49484452000001000000005808030000002D06D97A00000300504C5445212830FFFFFF2128300000000000000000000000000000000000000000000000000000330000660000990000CC0000FF0033000033330033660033990033CC0033FF0066000066330066660066990066CC0066FF0099
310
000099330099660099990099CC0099FF00CC0000CC3300CC6600CC9900CCCC00CCFF00FF0000FF3300FF6600FF9900FFCC00FFFF3300003300333300663300993300CC3300FF3333003333333333663333993333CC3333FF3366003366333366663366993366CC3366FF3399003399333399663399993399CC3399FF33CC00
310
33CC3333CC6633CC9933CCCC33CCFF33FF0033FF3333FF6633FF9933FFCC33FFFF6600006600336600666600996600CC6600FF6633006633336633666633996633CC6633FF6666006666336666666666996666CC6666FF6699006699336699666699996699CC6699FF66CC0066CC3366CC6666CC9966CCCC66CCFF66FF0066
310
FF3366FF6666FF9966FFCC66FFFF9900009900339900669900999900CC9900FF9933009933339933669933999933CC9933FF9966009966339966669966999966CC9966FF9999009999339999669999999999CC9999FF99CC0099CC3399CC6699CC9999CCCC99CCFF99FF0099FF3399FF6699FF9999FFCC99FFFFCC0000CC00
310
33CC0066CC0099CC00CCCC00FFCC3300CC3333CC3366CC3399CC33CCCC33FFCC6600CC6633CC6666CC6699CC66CCCC66FFCC9900CC9933CC9966CC9999CC99CCCC99FFCCCC00CCCC33CCCC66CCCC99CCCCCCCCCCFFCCFF00CCFF33CCFF66CCFF99CCFFCCCCFFFFFF0000FF0033FF0066FF0099FF00CCFF00FFFF3300FF3333
310
FF3366FF3399FF33CCFF33FFFF6600FF6633FF6666FF6699FF66CCFF66FFFF9900FF9933FF9966FF9999FF99CCFF99FFFFCC00FFCC33FFCC66FFCC99FFCCCCFFCCFFFFFF00FFFF33FFFF66FFFF99FFFFCCFFFFFF0000000D0D0D1A1A1A2828283535354343435050505D5D5D6B6B6B787878868686939393A1A1A1AEAEAEBB
310
BBBBC9C9C9D6D6D6E4E4E4F1F1F1FFFFFF0000000000000000000000000000000000000000000000000000000000002E4550F1000002DA4944415478DAED9CC9B2C4200845F9FFFFBDFB57D52F8351C1218A18CD228BD62EE188431024DA4FC10353CF00FDAD75C7D71B34D623B03824D7D65F572A9B00D48C0046F557EB18
310
B3FA6B896617808E6D9A3600AC0D803680210022FB722C042098787E0C462D95230098DA2CA80310F4C40A00C47507DF0770F5FF31F51D93E0F933F80D0BCEDAD72CCA99D3C3E7917681280C3DF88DFDEBECCA78D4E185BC6B9FAFB85ACE2F88B63D16C02914983A48EFD77CB5926DA53585A205B00D42220012D462BB13D1
310
BF1A002029B93200540240EE1010A6580B00A812004D0BC059115605F05CA00702E84D200AC0D91235048009015053006412003A02C0040028BA3B2D0180CE00D4C6400F003429809221903FB7CF04800CCD01BD09BC05E06A99F8C8CDAF391580DF17B1E33EBEFD01AC3BE4AE991513A203002F005C2E21D723242DBD8EB7
310
65B867AC010045A74D4F00B40138CB204C01803600CF7BBB9E059438443680C987002600D0B5656FD7BF012C0E0022002C0040AC850FEABF016C001BC006601D80BE436803300560C4B1C0066008C09093B10DC00E00BD18219B0014E30437008B00406B03500D96360840376BAC1C8078B0097A9D09FF383D07754AABAF06
310
E0065120AABC57ED9DFE77D4BA110042A28597638416F6DFCF2B5B05008948783E48BA76FCDB0280D02E83C8282023D7227FFED30020A7AEF827A547C75E293578F6B743A14AF468C86E97EB452A3AE714E696D155D9B7FAAA2305364DA9FD1D2BA8FA0BC2050141FF87A5A542A195C86D2D8019A23E05615A7CA7FF580070
310
D4F103280050640238D0A050266E87A50440BEE508DEE87E0070DE3781821B9310132058599A0128BCCD09C1AAE4C3703B101017B1FC96071F4F47872138D9C2A86BB431544300281B001607401F06C08456A64A3F0180FC791E0C9F669125E60020B20F08F63168E748B20640488649157E04009F0C932CFC1E00A0B0F413
310
004876FA016DBF5C0C02487D9CB7BD1E75D465AB333F7FB5D1FBF63E25D45D0000000049454E44AE426082
  0
ENDSEC
  0
EOF
